  0
SECTION
  2
HEADER
  9
$ACADVER
  1
AC1009
  9
$INSBASE
 10
0
 20
0
 30
0
  9
$EXTMIN
 10
0
 20
0
  9
$EXTMAX
 10
420
 20
297
  9
$LIMMIN
 10
0
 20
0
  9
$LIMMAX
 10
420
 20
297
  9
$LTSCALE
 40
1
  0
ENDSEC
  0
SECTION
  2
TABLES
  0
TABLE
  2
LTYPE
 70
     9
  0
LTYPE
  2
CONTINUOUS
 70
    64
  3
実線
 72
    65
 73
     0
 40
0.0
  0
LTYPE
  2
DASHED1
 70
    64
  3
--  --  --  --  --  --  --  --  
 72
    65
 73
     2
 40
2.5
 49
1.25
 49
-1.25
  0
LTYPE
  2
DASHED2
 70
    64
  3
----    ----    ----    ----    
 72
    65
 73
     2
 40
5.0
 49
2.5
 49
-2.5
  0
LTYPE
  2
DASHED3
 70
    64
  3
------  ------  ------  ------  
 72
    65
 73
     2
 40
5.0
 49
3.75
 49
-1.25
  0
LTYPE
  2
CENTER1
 70
    64
  3
----- - ----- - ----- - ----- - 
 72
    65
 73
     4
 40
10.0
 49
6.25
 49
-1.25
 49
1.25
 49
-1.25
  0
LTYPE
  2
CENTER2
 70
    64
  3
----------  --  ----------  --  
 72
    65
 73
     4
 40
20.0
 49
12.5
 49
-2.5
 49
2.5
 49
-2.5
  0
LTYPE
  2
PHANTOM1
 70
    64
  3
--- - - --- - - --- - - --- - - 
 72
    65
 73
     6
 40
10.0
 49
3.25
 49
-1.25
 49
1.25
 49
-1.25
 49
1.25
 49
-1.25
  0
LTYPE
  2
PHANTOM2
 70
    64
  3
--------  -  -  --------  -  -  
 72
    65
 73
     6
 40
20.0
 49
10.0
 49
-2.5
 49
1.25
 49
-2.5
 49
1.25
 49
-2.5
  0
LTYPE
  2
DOT
 70
    64
  3
-   -   -   -   -   -   -   -   
 72
    65
 73
     2
 40
2.5
 49
0.625
 49
-1.875
  0
LTYPE
  2
DUMMY
 70
    64
  3
ダミー
 72
    65
 73
     0
 40
0.0
  0
LTYPE
  2
RAND1
 70
    64
  3
ランダム線1
 72
    65
 73
     4
 40
10.0
 49
1.0
 49
-2.0
 49
3.0
 49
-4.0
  0
LTYPE
  2
RAND2
 70
    64
  3
ランダム線2
 72
    65
 73
     4
 40
14.0
 49
2.0
 49
-3.0
 49
4.0
 49
-5.0
  0
LTYPE
  2
RAND3
 70
    64
  3
ランダム線3
 72
    65
 73
     4
 40
18.0
 49
3.0
 49
-4.0
 49
5.0
 49
-6.0
  0
LTYPE
  2
RAND4
 70
    64
  3
ランダム線4
 72
    65
 73
     4
 40
22.0
 49
4.0
 49
-5.0
 49
6.0
 49
-7.0
  0
LTYPE
  2
RAND5
 70
    64
  3
ランダム線5
 72
    65
 73
     4
 40
26.0
 49
5.0
 49
-6.0
 49
7.0
 49
-8.0
  0
LTYPE
  2
LONG1
 70
    64
  3
----------  --  ----------  --  
 72
    65
 73
     4
 40
40.0
 49
32.5
 49
-2.5
 49
2.5
 49
-2.5
  0
LTYPE
  2
LONG2
 70
    64
  3
--------  -  -  --------  -  -  
 72
    65
 73
     6
 40
40.0
 49
30.0
 49
-2.5
 49
1.25
 49
-2.5
 49
1.25
 49
-2.5
  0
LTYPE
  2
LONG3
 70
    64
  3
+++++++++++++++..+++++++++++++++
 72
    65
 73
     2
 40
40.0
 49
37.5
 49
-2.5
  0
LTYPE
  2
LONG4
 70
    64
  3
+++++++++++++++..+++++++++++++++
 72
    65
 73
     2
 40
80.0
 49
75.0
 49
-5.0
  0
LTYPE
  2
LONG5
 70
    64
  3
----------  --  ----------  --  
 72
    65
 73
     4
 40
60.0
 49
37.5
 49
-7.5
 49
7.5
 49
-7.5
  0
LTYPE
  2
dashed
 70
   64
  3
-------   -------------   ------
 72
   65
 73
    2
 40
7.5
 49
6
 49
-1.5
  0
LTYPE
  2
dashed_spaced
 70
   64
  3
----        --------        ----
 72
   65
 73
    2
 40
12
 49
6
 49
-6
  0
LTYPE
  2
long_dashed_dotted
 70
   64
  3
------------- --- --------------
 72
   65
 73
    4
 40
15.25
 49
12
 49
-1.5
 49
0.25
 49
-1.5
  0
LTYPE
  2
long_dashed_double-dotted
 70
   64
  3
----------- --- --- ------------
 72
   65
 73
    6
 40
17
 49
12
 49
-1.5
 49
0.25
 49
-1.5
 49
0.25
 49
-1.5
  0
LTYPE
  2
long_dashed_triplicate-dotted
 70
   64
  3
--------- --- --- --- ----------
 72
   65
 73
    8
 40
18.75
 49
12
 49
-1.5
 49
0.25
 49
-1.5
 49
0.25
 49
-1.5
 49
0.25
 49
-1.5
  0
LTYPE
  2
dotted
 70
   64
  3
   -       -       -       -    
 72
   65
 73
    2
 40
1.75
 49
0.25
 49
-1.5
  0
LTYPE
  2
chain
 70
   64
  3
-------------- -- --------------
 72
   65
 73
    4
 40
18.5
 49
12
 49
-1.5
 49
3.5
 49
-1.5
  0
LTYPE
  2
chain_double_dash
 70
   64
  3
------------ -- -- -------------
 72
   65
 73
    6
 40
23.5
 49
12
 49
-1.5
 49
3.5
 49
-1.5
 49
3.5
 49
-1.5
  0
LTYPE
  2
dashed_dotted
 70
   64
  3
-----------     -     ----------
 72
   65
 73
    4
 40
9.25
 49
6
 49
-1.5
 49
0.25
 49
-1.5
  0
LTYPE
  2
double-dashed_dotted
 70
   64
  3
------   -----------   -   -----
 72
   65
 73
    6
 40
16.75
 49
6
 49
-1.5
 49
6
 49
-1.5
 49
0.25
 49
-1.5
  0
LTYPE
  2
dashed_double-dotted
 70
   64
  3
---------    -    -    ---------
 72
   65
 73
    6
 40
11
 49
6
 49
-1.5
 49
0.25
 49
-1.5
 49
0.25
 49
-1.5
  0
LTYPE
  2
double-dashed_double-dotted
 70
   64
  3
-----   ---------   -   -   ----
 72
   65
 73
    8
 40
18.5
 49
6
 49
-1.5
 49
6
 49
-1.5
 49
0.25
 49
-1.5
 49
0.25
 49
-1.5
  0
LTYPE
  2
dashed_triplicate-dotted
 70
   64
  3
-------    -    -    -    ------
 72
   65
 73
    8
 40
12.75
 49
6
 49
-1.5
 49
0.25
 49
-1.5
 49
0.25
 49
-1.5
 49
0.25
 49
-1.5
  0
LTYPE
  2
double-dashed_triplicate-dotted
 70
   64
  3
-----  ---------  -  -  -  -----
 72
   65
 73
   10
 40
20.25
 49
6
 49
-1.5
 49
6
 49
-1.5
 49
0.25
 49
-1.5
 49
0.25
 49
-1.5
 49
0.25
 49
-1.5
  0
LTYPE
  2
undefined
 70
   64
  3
--------------------------------
 72
   65
 73
    0
 40
0
  0
LTYPE
  2
DOT_17
 70
   64
  3
--             ---             -
 72
   65
 73
    2
 40
5
 49
1
 49
-4
  0
LTYPE
  2
DASHED
 70
   64
  3
---          ------          ---
 72
   65
 73
    2
 40
5
 49
2
 49
-3
  0
LTYPE
  2
DASHED2_19
 70
   64
  3
---          ------          ---
 72
   65
 73
    2
 40
10
 49
4
 49
-6
  0
LTYPE
  2
CENTER
 70
   64
  3
----------    ----    ----------
 72
   65
 73
    4
 40
9
 49
6
 49
-1
 49
1
 49
-1
  0
LTYPE
  2
CENTER2_21
 70
   64
  3
----------    ----    ----------
 72
   65
 73
    4
 40
18
 49
12
 49
-2
 49
2
 49
-2
  0
LTYPE
  2
PHANTOM
 70
   64
  3
---------   ---   ---   --------
 72
   65
 73
    6
 40
10
 49
5
 49
-1
 49
1
 49
-1
 49
1
 49
-1
  0
LTYPE
  2
PHANTOM2_23
 70
   64
  3
------    ----    ----    ------
 72
   65
 73
    6
 40
16
 49
6
 49
-2
 49
2
 49
-2
 49
2
 49
-2
  0
LTYPE
  2
HIDDEN
 70
   64
  3
--             ---             -
 72
   65
 73
    2
 40
2.5
 49
0.5
 49
-2
  0
ENDTAB
  0
TABLE
  2
STYLE
  5
3
100
AcDbSymbolTable
 70
     1
  0
STYLE
  5
10
100
AcDbSymbolTableRecord
100
AcDbTextStyleTableRecord
  2
STANDARD
 70
     0
 40
0.0
 41
1.0
 50
0.0
 71
     0
 42
0.2
  3
txt
  4
bigfont.shx
  0
STYLE
  5
26
100
AcDbSymbolTableRecord
100
AcDbTextStyleTableRecord
  2
TATEGAKI
 70
    68
 40
0.0
 41
1.0
 50
0.0
 71
     0
 42
1.0
  3
txt
  4
bigfont.shx
  0
ENDTAB
  0
TABLE
  2
LAYER
 70
   11
  0
LAYER
  2
_0-0_
 70
   64
 62
    7
  6
CONTINUOUS
  0
LAYER
  2
_0-1_
 70
   64
 62
    7
  6
CONTINUOUS
  0
LAYER
  2
_1-0_
 70
   64
 62
    7
  6
CONTINUOUS
  0
LAYER
  2
_1-1_
 70
   64
 62
    7
  6
CONTINUOUS
  0
LAYER
  2
_1-2_
 70
   64
 62
    7
  6
CONTINUOUS
  0
LAYER
  2
_1-3_
 70
   64
 62
    7
  6
CONTINUOUS
  0
LAYER
  2
_1-4_
 70
   64
 62
    7
  6
CONTINUOUS
  0
LAYER
  2
_1-5_
 70
   64
 62
    7
  6
CONTINUOUS
  0
LAYER
  2
_1-6_
 70
   64
 62
    7
  6
CONTINUOUS
  0
LAYER
  2
_1-c_
 70
   64
 62
    7
  6
CONTINUOUS
  0
LAYER
  2
ADD_LINE
 70
   64
 62
    7
  6
CONTINUOUS
  0
ENDTAB
  0
ENDSEC
  0
SECTION
  2
BLOCKS
  0
ENDSEC
  0
SECTION
  2
ENTITIES
  0
LINE
  8
_1-0_
  6
CONTINUOUS
 62
    2
 10
284.26673682960308
 20
172.72056570887264
 11
284.26673682960308
 21
214.84024460251268
  0
LINE
  8
_1-1_
  6
CONTINUOUS
 62
    7
 10
123.08178875897383
 20
86.063356141786329
 11
121.85068903742611
 21
88.799125052787161
  0
LINE
  8
_1-1_
  6
CONTINUOUS
 62
    7
 10
121.85068903742611
 20
88.799125052787161
 11
126.22793661581504
 21
90.768882132865286
  0
LINE
  8
_1-1_
  6
CONTINUOUS
 62
    7
 10
126.22793661581504
 20
90.768882132865286
 11
127.45902396537163
 21
88.033113221864454
  0
LINE
  8
_1-1_
  6
CONTINUOUS
 62
    7
 10
127.45902396537163
 20
88.033113221864454
 11
123.08178875897383
 21
86.063356141786329
  0
LINE
  8
_1-1_
  6
CONTINUOUS
 62
    7
 10
123.08178875897383
 20
86.063356141786329
 11
126.22793661581504
 21
90.768882132865286
  0
LINE
  8
_1-1_
  6
CONTINUOUS
 62
    7
 10
174.1493843697213
 20
109.04377292942357
 11
172.91829702016472
 21
111.77954184042441
  0
LINE
  8
_1-1_
  6
CONTINUOUS
 62
    7
 10
172.91829702016472
 20
111.77954184042441
 11
177.2955322265625
 21
113.74929892050254
  0
LINE
  8
_1-1_
  6
CONTINUOUS
 62
    7
 10
177.2955322265625
 20
113.74929892050254
 11
178.52661957611909
 21
111.01353000950169
  0
LINE
  8
_1-1_
  6
CONTINUOUS
 62
    7
 10
178.52661957611909
 20
111.01353000950169
 11
174.1493843697213
 21
109.04377292942357
  0
LINE
  8
_1-1_
  6
CONTINUOUS
 62
    7
 10
174.1493843697213
 20
109.04377292942357
 11
177.2955322265625
 21
113.74929892050254
  0
LINE
  8
_1-1_
  6
CONTINUOUS
 62
    7
 10
225.21697998046875
 20
132.02421446104307
 11
223.98589263091216
 21
134.75998337204393
  0
LINE
  8
_1-1_
  6
CONTINUOUS
 62
    7
 10
223.98589263091216
 20
134.75998337204393
 11
228.36312783730997
 21
136.72972808013091
  0
LINE
  8
_1-1_
  6
CONTINUOUS
 62
    7
 10
228.36312783730997
 20
136.72972808013091
 11
229.59421518686656
 21
133.99395916913008
  0
LINE
  8
_1-1_
  6
CONTINUOUS
 62
    7
 10
229.59421518686656
 20
133.99395916913008
 11
225.21697998046875
 21
132.02421446104307
  0
LINE
  8
_1-1_
  6
CONTINUOUS
 62
    7
 10
225.21697998046875
 20
132.02421446104307
 11
228.36312783730997
 21
136.72972808013091
  0
LINE
  8
_1-1_
  6
CONTINUOUS
 62
    7
 10
276.28457559121625
 20
155.00464362067146
 11
275.05348824165964
 21
157.74041253167232
  0
LINE
  8
_1-1_
  6
CONTINUOUS
 62
    7
 10
275.05348824165964
 20
157.74041253167232
 11
279.43072344805745
 21
159.7101572397593
  0
LINE
  8
_1-1_
  6
CONTINUOUS
 62
    7
 10
279.43072344805745
 20
159.7101572397593
 11
280.66181079761401
 21
156.97438832875847
  0
LINE
  8
_1-1_
  6
CONTINUOUS
 62
    7
 10
276.28457559121625
 20
155.00464362067146
 11
279.43072344805745
 21
159.7101572397593
  0
LINE
  8
_0-0_
  6
CONTINUOUS
 62
    5
 10
12.432428308435391
 20
278.51351351351354
 11
412.43244892842063
 21
278.51351351351354
  0
LINE
  8
_0-0_
  6
CONTINUOUS
 62
    5
 10
412.43244892842063
 20
8.5135135135135158
 11
12.432428308435391
 21
8.5135135135135158
  0
LINE
  8
_0-0_
  6
CONTINUOUS
 62
    5
 10
412.43244892842063
 20
28.513511451515001
 11
12.432415936444272
 21
28.513511451515001
  0
LINE
  8
_0-0_
  6
CONTINUOUS
 62
    5
 10
377.43248192039698
 20
8.5135135135135158
 11
377.43248192039698
 21
28.513511451515001
  0
LINE
  8
_0-0_
  6
CONTINUOUS
 62
    5
 10
142.70271507469386
 20
28.513511451515001
 11
142.70271507469386
 21
8.5135135135135158
  0
LINE
  8
_0-0_
  6
CONTINUOUS
 62
    5
 10
220.54054054054055
 20
28.513511451515001
 11
220.54054054054055
 21
8.5135135135135158
  0
LINE
  8
_0-0_
  6
CONTINUOUS
 62
    5
 10
142.70271507469386
 20
18.513512482514244
 11
220.54054054054055
 21
18.513512482514244
  0
LINE
  8
_0-0_
  6
CONTINUOUS
 62
    5
 10
402.16218690614443
 20
24.324325870823216
 11
389.59456985061234
 21
11.756758303255651
  0
LINE
  8
_0-1_
  6
CONTINUOUS
 62
    7
 10
94.091887602934975
 20
172.71349107896961
 11
110.37110199799409
 21
172.71349107896961
  0
LINE
  8
_0-1_
  6
CONTINUOUS
 62
    7
 10
96.63967648067991
 20
165.71349272856841
 11
110.37110199799409
 21
165.71349272856841
  0
LINE
  8
_0-1_
  6
CONTINUOUS
 62
    7
 10
99.187465358424831
 20
158.71349437816724
 11
110.37110199799409
 21
158.71349437816724
  0
LINE
  8
_0-1_
  6
CONTINUOUS
 62
    7
 10
101.73525423616977
 20
151.71349602776607
 11
110.37110199799409
 21
151.71349602776607
  0
LINE
  8
_1-2_
  6
CONTINUOUS
 62
    3
 10
125.30560467694258
 20
96.149337356154987
 11
126.63589065139359
 21
96.585536647487331
  0
LINE
  8
_1-2_
  6
CONTINUOUS
 62
    3
 10
123.97220096072635
 20
95.08068187816724
 11
125.18507673933701
 21
95.478379533097552
  0
LINE
  8
_1-2_
  6
CONTINUOUS
 62
    3
 10
125.30560467694258
 20
96.149337356154987
 11
125.18507673933701
 21
95.478379533097552
  0
LINE
  8
_1-2_
  6
CONTINUOUS
 62
    3
 10
123.97220096072635
 20
95.08068187816724
 11
123.58280491184544
 21
93.058702623521967
  0
LINE
  8
_1-2_
  6
CONTINUOUS
 62
    3
 10
126.87895078916809
 20
94.560464395059128
 11
127.25904310071792
 21
94.685099833720443
  0
LINE
  8
_1-2_
  6
CONTINUOUS
 62
    7
 10
126.63589065139359
 20
96.585536647487331
 11
127.25904310071792
 21
94.685099833720443
  0
LINE
  8
_1-2_
  6
CONTINUOUS
 62
    3
 10
126.87895078916809
 20
94.560464395059128
 11
127.93831490181589
 21
91.329716862858959
  0
LINE
  8
_1-2_
  6
CONTINUOUS
 62
    7
 10
126.22793661581504
 20
90.768882132865286
 11
127.5458505991343
 21
88.675306165540547
  0
LINE
  8
_1-2_
  6
CONTINUOUS
 62
    7
 10
127.5458505991343
 20
88.675306165540547
 11
129.06619510135135
 21
89.173823176203555
  0
LINE
  8
_1-2_
  6
CONTINUOUS
 62
    3
 10
126.63589065139359
 20
96.585536647487331
 11
127.25904310071792
 21
94.685099833720443
  0
LINE
  8
_1-2_
  6
CONTINUOUS
 62
    7
 10
127.25904310071792
 20
94.685099833720443
 11
129.06619510135135
 21
89.173823176203555
  0
LINE
  8
ADD_LINE
  6
DOT
 62
    4
 10
125.11866389094173
 20
96.71947582347974
 11
126.44894986539275
 21
97.155675114812084
  0
LINE
  8
ADD_LINE
  6
DOT
 62
    4
 10
126.44894986539275
 20
97.155675114812084
 11
177.2955322265625
 21
113.74929892050254
  0
LINE
  8
_1-2_
  6
CONTINUOUS
 62
    3
 10
176.38074720228042
 20
119.13104083086994
 11
177.71165177628802
 21
119.56538432353253
  0
LINE
  8
_1-2_
  6
CONTINUOUS
 62
    3
 10
175.04583410314612
 20
118.06425352354309
 11
176.25927899334883
 21
118.46025621568835
  0
LINE
  8
_1-2_
  6
CONTINUOUS
 62
    3
 10
176.38074720228042
 20
119.13104083086994
 11
176.25927899334883
 21
118.46025621568835
  0
LINE
  8
_1-2_
  6
CONTINUOUS
 62
    3
 10
175.04583410314612
 20
118.06425352354309
 11
174.65361724028716
 21
116.04283100849874
  0
LINE
  8
_1-2_
  6
CONTINUOUS
 62
    3
 10
177.95186635610222
 20
117.53996565535263
 11
178.33213187552789
 21
117.66405672640414
  0
LINE
  8
_1-2_
  6
CONTINUOUS
 62
    7
 10
177.71165177628802
 20
119.56538432353253
 11
178.33213187552789
 21
117.66405672640414
  0
LINE
  8
_1-2_
  6
CONTINUOUS
 62
    3
 10
177.95186635610222
 20
117.53996565535263
 11
179.00670231999578
 21
114.30773348421664
  0
LINE
  8
_1-2_
  6
CONTINUOUS
 62
    7
 10
177.2955322265625
 20
113.74929892050254
 11
178.6105016759924
 21
111.65386715450803
  0
LINE
  8
_1-2_
  6
CONTINUOUS
 62
    7
 10
178.6105016759924
 20
111.65386715450803
 11
180.13153900971284
 21
112.15025618269638
  0
LINE
  8
_1-2_
  6
CONTINUOUS
 62
    3
 10
113.77170459644215
 20
89.862782246357696
 11
112.79825159021327
 21
94.80462564004435
  0
LINE
  8
_1-2_
  6
CONTINUOUS
 62
    3
 10
115.71285763302366
 20
96.807688120249168
 11
174.65361724028716
 21
116.04283100849874
  0
LINE
  8
_1-2_
  6
CONTINUOUS
 62
    3
 10
113.77170459644215
 20
89.862782246357696
 11
115.24472623258025
 21
90.506298993084883
  0
LINE
  8
_1-2_
  6
CONTINUOUS
 62
    3
 10
116.12044050886826
 20
93.784987990920612
 11
179.00670231999578
 21
114.30773348421664
  0
LINE
  8
_1-2_
  6
CONTINUOUS
 62
    3
 10
115.43374551309122
 20
92.912651268211576
 11
115.24472623258025
 21
90.506298993084883
  0
LINE
  8
_1-2_
  6
CONTINUOUS
 62
    3
 10
177.71165177628802
 20
119.56538432353253
 11
178.33213187552789
 21
117.66405672640414
  0
LINE
  8
_1-2_
  6
CONTINUOUS
 62
    7
 10
178.33213187552789
 20
117.66405672640414
 11
180.13153900971284
 21
112.15025618269638
  0
LINE
  8
ADD_LINE
  6
DOT
 62
    4
 10
113.77170459644215
 20
89.862782246357696
 11
127.34136632970862
 21
94.291200380067579
  0
LINE
  8
_1-2_
  6
CONTINUOUS
 62
    3
 10
227.44834281302789
 20
142.11146999049831
 11
228.7792473870355
 21
142.54580111116977
  0
LINE
  8
_1-2_
  6
CONTINUOUS
 62
    3
 10
226.11342971389359
 20
141.04468268317146
 11
227.3268746040963
 21
141.44068537531672
  0
LINE
  8
_1-2_
  6
CONTINUOUS
 62
    3
 10
227.44834281302789
 20
142.11146999049831
 11
227.3268746040963
 21
141.44068537531672
  0
LINE
  8
_1-2_
  6
CONTINUOUS
 62
    3
 10
226.11342971389359
 20
141.04468268317146
 11
225.72121285103464
 21
139.02324779613599
  0
LINE
  8
_1-2_
  6
CONTINUOUS
 62
    3
 10
229.01946196684966
 20
140.52038244298987
 11
229.39972748627534
 21
140.64449825802365
  0
LINE
  8
_1-2_
  6
CONTINUOUS
 62
    7
 10
228.7792473870355
 20
142.54580111116977
 11
229.39972748627534
 21
140.64449825802365
  0
LINE
  8
_1-2_
  6
CONTINUOUS
 62
    3
 10
229.01946196684966
 20
140.52038244298987
 11
230.07429793074326
 21
137.28815027185388
  0
LINE
  8
_1-2_
  6
CONTINUOUS
 62
    7
 10
228.36312783730997
 20
136.72972808013091
 11
229.67809728673987
 21
134.63430868612755
  0
LINE
  8
_1-2_
  6
CONTINUOUS
 62
    7
 10
229.67809728673987
 20
134.63430868612755
 11
231.19913462046031
 21
135.13069771431589
  0
LINE
  8
_1-2_
  6
CONTINUOUS
 62
    3
 10
164.83931257918076
 20
112.84321140598607
 11
163.86583482896961
 21
117.78505479967272
  0
LINE
  8
_1-2_
  6
CONTINUOUS
 62
    3
 10
166.78045324377112
 20
119.78811727987754
 11
225.72121285103464
 21
139.02324779613599
  0
LINE
  8
_1-2_
  6
CONTINUOUS
 62
    3
 10
164.83931257918076
 20
112.84321140598607
 11
166.31232184332771
 21
113.48672815271327
  0
LINE
  8
_1-2_
  6
CONTINUOUS
 62
    3
 10
167.18803611961573
 20
116.765417150549
 11
230.07429793074326
 21
137.28815027185388
  0
LINE
  8
_1-2_
  6
CONTINUOUS
 62
    3
 10
166.5013411238387
 20
115.89308042783996
 11
166.31232184332771
 21
113.48672815271327
  0
LINE
  8
_1-2_
  6
CONTINUOUS
 62
    3
 10
228.7792473870355
 20
142.54580111116977
 11
229.39972748627534
 21
140.64449825802365
  0
LINE
  8
_1-2_
  6
CONTINUOUS
 62
    7
 10
229.39972748627534
 20
140.64449825802365
 11
231.19913462046031
 21
135.13069771431589
  0
LINE
  8
_1-2_
  6
CONTINUOUS
 62
    3
 10
278.51593842377537
 20
165.09189915012669
 11
279.84684299778297
 21
165.52623027079815
  0
LINE
  8
_1-2_
  6
CONTINUOUS
 62
    3
 10
277.18102532464104
 20
164.02511184279984
 11
278.39447021484375
 21
164.4211145349451
  0
LINE
  8
_1-2_
  6
CONTINUOUS
 62
    3
 10
278.51593842377537
 20
165.09189915012669
 11
278.39447021484375
 21
164.4211145349451
  0
LINE
  8
_1-2_
  6
CONTINUOUS
 62
    3
 10
277.18102532464104
 20
164.02511184279984
 11
276.78880846178208
 21
162.00367695576438
  0
LINE
  8
_1-2_
  6
CONTINUOUS
 62
    3
 10
280.08705757759714
 20
163.50081160261826
 11
280.46732309702281
 21
163.62492741765203
  0
LINE
  8
_1-2_
  6
CONTINUOUS
 62
    7
 10
279.84684299778297
 20
165.52623027079815
 11
280.46732309702281
 21
163.62492741765203
  0
LINE
  8
_1-2_
  6
CONTINUOUS
 62
    3
 10
280.08705757759714
 20
163.50081160261826
 11
281.14189354149073
 21
160.26857943148227
  0
LINE
  8
_1-2_
  6
CONTINUOUS
 62
    7
 10
279.43072344805745
 20
159.7101572397593
 11
280.74569289748734
 21
157.61473784575591
  0
LINE
  8
_1-2_
  6
CONTINUOUS
 62
    7
 10
280.74569289748734
 20
157.61473784575591
 11
282.26673023120776
 21
158.11112687394427
  0
LINE
  8
_1-2_
  6
CONTINUOUS
 62
    3
 10
215.90688344594597
 20
135.82365293760557
 11
214.93345518369932
 21
140.76549633129224
  0
LINE
  8
_1-2_
  6
CONTINUOUS
 62
    3
 10
215.90688344594597
 20
135.82365293760557
 11
217.37991745407518
 21
136.46714494035052
  0
LINE
  8
_1-2_
  6
CONTINUOUS
 62
    3
 10
218.25563173036318
 20
139.74584631017737
 11
281.14189354149073
 21
160.26857943148227
  0
LINE
  8
_1-2_
  6
CONTINUOUS
 62
    3
 10
217.56893673458617
 20
138.87349721547722
 11
217.37991745407518
 21
136.46714494035052
  0
LINE
  8
_1-2_
  6
CONTINUOUS
 62
    3
 10
279.84684299778297
 20
165.52623027079815
 11
280.46732309702281
 21
163.62492741765203
  0
LINE
  8
_1-2_
  6
CONTINUOUS
 62
    7
 10
280.46732309702281
 20
163.62492741765203
 11
282.26673023120776
 21
158.11112687394427
  0
LINE
  8
_1-2_
  6
CONTINUOUS
 62
    3
 10
102.97297297297298
 20
83.14361572265625
 11
127.93831490181589
 21
91.329716862858959
  0
LINE
  8
_1-2_
  6
CONTINUOUS
 62
    3
 10
102.97297297297298
 20
86.300768465609167
 11
123.58280491184544
 21
93.058702623521967
  0
LINE
  8
_1-0_
  6
CONTINUOUS
 62
    7
 10
288.26672528241136
 20
117.5838985958615
 11
288.26672528241136
 21
80.270270270270274
  0
LINE
  8
_1-0_
  6
CONTINUOUS
 62
    7
 10
102.97297297297298
 20
75.040536828943203
 11
288.26672528241136
 21
158.4227278425887
  0
LINE
  8
_1-0_
  6
DASHED1
 62
    3
 10
102.97297297297298
 20
75.698491689321159
 11
287.73237898543078
 21
158.84024542731208
  0
LINE
  8
_1-1_
  6
CONTINUOUS
 62
    7
 10
281.17754961993245
 20
157.20646213840794
 11
276.28457559121625
 21
155.00464362067146
  0
LINE
  8
_1-0_
  6
CONTINUOUS
 62
    7
 10
102.97297297297298
 20
76.356440363703555
 11
281.42380173141896
 21
156.65929845861487
  0
LINE
  8
_1-0_
  6
CONTINUOUS
 62
    7
 10
102.97297297297298
 20
77.014389038085938
 11
281.17754961993245
 21
157.20646213840794
  0
LINE
  8
_1-0_
  6
CONTINUOUS
 62
    7
 10
281.17754961993245
 20
157.20646213840794
 11
281.42380173141896
 21
156.65929845861487
  0
LINE
  8
_1-4_
  6
CONTINUOUS
 62
    7
 10
248.26671703441724
 20
103.78378378378379
 11
253.30283500052789
 21
106.69137490762247
  0
LINE
  8
ADD_LINE
  6
DOT
 62
    7
 10
244.86486486486487
 20
103.78378378378379
 11
257.02702702702703
 21
103.78378378378379
  0
LINE
  8
_1-4_
  6
CONTINUOUS
 62
    7
 10
248.26671703441724
 20
103.78378378378379
 11
253.30283500052789
 21
100.8761926599451
  0
LINE
  8
ADD_LINE
  6
DOT
 62
    7
 10
244.86486486486487
 20
103.78378378378379
 11
246.19690766205659
 21
103.78378378378379
  0
LINE
  8
ADD_LINE
  6
DOT
 62
    7
 10
246.7181396484375
 20
103.78378378378379
 11
257.02702702702703
 21
103.78378378378379
  0
LINE
  8
_1-4_
  6
CONTINUOUS
 62
    7
 10
303.78377553578969
 20
103.78378378378379
 11
248.26671703441724
 21
103.78378378378379
  0
LINE
  8
_1-4_
  6
CONTINUOUS
 62
    7
 10
248.26671703441724
 20
115.94594594594595
 11
248.26671703441724
 21
96.515449317725938
  0
LINE
  8
_1-4_
  6
CONTINUOUS
 62
    7
 10
261.35408143739443
 20
224.68800312763938
 11
257.35409298458615
 21
224.68800312763938
  0
LINE
  8
_1-4_
  6
CONTINUOUS
 62
    7
 10
258.4060339025549
 20
204.80299666121201
 11
254.40604544974664
 21
204.80299666121201
  0
LINE
  8
_1-4_
  6
CONTINUOUS
 62
    7
 10
313.7837837837838
 20
120.57680697054477
 11
318.33873027079818
 21
123.22838448189401
  0
LINE
  8
_1-4_
  6
CONTINUOUS
 62
    7
 10
313.7837837837838
 20
120.57680697054477
 11
324.02066617398651
 21
120.57680697054477
  0
LINE
  8
_1-4_
  6
CONTINUOUS
 62
    7
 10
127.42696813634925
 20
81.126133686787384
 11
94.091887602934975
 21
172.71349107896961
  0
LINE
  8
_1-0_
  6
CONTINUOUS
 62
    7
 10
105.43516004407729
 20
69.569005192937084
 11
288.26670053842906
 21
151.84320398279138
  0
LINE
  8
_1-0_
  6
CONTINUOUS
 62
    7
 10
288.26672528241136
 20
117.5838985958615
 11
288.26672528241136
 21
125.52515803156673
  0
LINE
  8
_1-0_
  6
CONTINUOUS
 62
    7
 10
115.28390832849452
 20
47.682891020903725
 11
174.09100094357052
 21
74.14608517208616
  0
LINE
  8
_1-0_
  6
CONTINUOUS
 62
    7
 10
174.09100094357052
 20
74.14608517208616
 11
288.26672528241136
 21
125.52515803156673
  0
LINE
  8
_1-0_
  6
CONTINUOUS
 62
    7
 10
240.86843954550255
 20
130.51397787558068
 11
220.34033698004646
 21
94.958285769900769
  0
LINE
  8
_1-0_
  6
CONTINUOUS
 62
    7
 10
243.98843301309122
 20
131.91798854518581
 11
223.46033044763516
 21
96.362290253510352
  0
LINE
  8
_1-0_
  6
CONTINUOUS
 62
    7
 10
237.74842133393159
 20
129.10997957796664
 11
217.22031876847552
 21
93.554281286291186
  0
LINE
  8
_1-0_
  6
CONTINUOUS
 62
    7
 10
149.20412218248524
 20
89.265041866817995
 11
128.67603198902029
 21
53.7093497611381
  0
LINE
  8
_1-0_
  6
CONTINUOUS
 62
    7
 10
155.44413386164484
 20
92.073044648041602
 11
134.9160436681799
 21
56.517352542361692
  0
LINE
  8
_1-0_
  6
CONTINUOUS
 62
    7
 10
152.32412802206505
 20
90.669040164432019
 11
131.79603782860011
 21
55.113348058752109
  0
LINE
  8
ADD_LINE
  6
DOT
 62
    4
 10
287.73237898543078
 20
158.84024542731208
 11
386.80532919394005
 21
158.84024542731208
  0
LINE
  8
ADD_LINE
  6
DOT
 62
    4
 10
275.6905220650338
 20
259.26539240656672
 11
323.91015954919766
 21
259.26539240656672
  0
LINE
  8
ADD_LINE
  6
DOT
 62
    7
 10
309.43676097972974
 20
259.26539240656672
 11
309.43676097972974
 21
118.44912142366977
  0
LINE
  8
_1-0_
  6
CONTINUOUS
 62
    7
 10
284.26673682960308
 20
228.69769122149495
 11
297.40203032622469
 21
241.83298471811656
  0
LINE
  8
_1-0_
  6
CONTINUOUS
 62
    7
 10
297.40203032622469
 20
241.83298471811656
 11
309.43676097972974
 21
253.86771537162164
  0
LINE
  8
_1-0_
  6
CONTINUOUS
 62
    7
 10
284.26673682960308
 20
231.52612634607266
 11
309.43676097972974
 21
256.69615049619932
  0
LINE
  8
_1-0_
  6
CONTINUOUS
 62
    7
 10
284.26673682960308
 20
234.35456147065034
 11
309.43676097972974
 21
259.52458562077703
  0
LINE
  8
ADD_LINE
  6
DOT
 62
    2
 10
282.98653267525339
 20
214.84024460251268
 11
291.53199066986912
 21
214.84024460251268
  0
LINE
  8
_1-0_
  6
CONTINUOUS
 62
    7
 10
284.26673682960308
 20
219.5650337837838
 11
288.26672528241136
 21
219.5650337837838
  0
LINE
  8
_1-0_
  6
CONTINUOUS
 62
    7
 10
285.11602453283365
 20
217.18654323268584
 11
286.76971435546875
 21
218.84023305532097
  0
LINE
  8
_1-0_
  6
CONTINUOUS
 62
    7
 10
284.91695919552365
 20
218.40169545766472
 11
285.3554967931799
 21
218.84023305532097
  0
LINE
  8
_1-0_
  6
CONTINUOUS
 62
    7
 10
288.26672528241136
 20
151.84320398279138
 11
288.26672528241136
 21
219.5650337837838
  0
LINE
  8
_1-0_
  6
CONTINUOUS
 62
    7
 10
280.6673287056588
 20
219.06102360905828
 11
281.46839038745776
 21
216.86009587468328
  0
LINE
  8
_1-0_
  6
CONTINUOUS
 62
    7
 10
281.46839038745776
 20
216.86009587468328
 11
286.97694520692568
 21
216.86009587468328
  0
LINE
  8
_1-0_
  6
CONTINUOUS
 62
    7
 10
284.26673682960308
 20
219.5650337837838
 11
284.26673682960308
 21
259.26539240656672
  0
LINE
  8
_1-0_
  6
DASHED1
 62
    7
 10
288.26672528241136
 20
219.5650337837838
 11
288.26672528241136
 21
259.26539240656672
  0
LINE
  8
_1-0_
  6
DASHED1
 62
    3
 10
287.73237898543078
 20
158.84024542731208
 11
287.73237898543078
 21
219.5650337837838
  0
LINE
  8
_1-0_
  6
CONTINUOUS
 62
    2
 10
284.26673682960308
 20
214.84024460251268
 11
287.43891535578547
 21
214.84024460251268
  0
LINE
  8
_1-0_
  6
CONTINUOUS
 62
    2
 10
287.43891535578547
 20
214.84024460251268
 11
287.43891535578547
 21
218.84023305532097
  0
LINE
  8
_1-0_
  6
CONTINUOUS
 62
    7
 10
287.01235384554479
 20
214.84024460251268
 11
287.43891535578547
 21
215.78197582347974
  0
LINE
  8
_1-0_
  6
CONTINUOUS
 62
    7
 10
285.59811153927365
 20
214.84024460251268
 11
287.43891535578547
 21
217.19619338576859
  0
LINE
  8
_1-0_
  6
CONTINUOUS
 62
    7
 10
284.50207684491136
 20
215.15840272645693
 11
287.43891535578547
 21
218.61041094805745
  0
LINE
  8
_1-0_
  6
CONTINUOUS
 62
    2
 10
284.73509092588682
 20
218.84023305532097
 11
287.43891535578547
 21
218.84023305532097
  0
LINE
  8
_1-c_
  6
CONTINUOUS
 62
    7
 10
353.79336795291385
 20
158.84024542731208
 11
307.91597108583193
 21
158.84024542731208
  0
LINE
  8
_1-c_
  6
CONTINUOUS
 62
    7
 10
353.79336795291385
 20
218.84023305532097
 11
307.91597108583193
 21
218.84023305532097
  0
LINE
  8
_1-c_
  6
CONTINUOUS
 62
    7
 10
353.79336795291385
 20
158.84024542731208
 11
353.79336795291385
 21
218.84023305532097
  0
LINE
  8
_1-4_
  6
CONTINUOUS
 62
    7
 10
313.7837837837838
 20
113.78377965978675
 11
313.7837837837838
 21
218.84023305532097
  0
LINE
  8
_1-c_
  6
CONTINUOUS
 62
    7
 10
313.7837837837838
 20
218.84023305532097
 11
312.09941142314193
 21
215.92279382654141
  0
LINE
  8
_1-c_
  6
CONTINUOUS
 62
    7
 10
313.7837837837838
 20
218.84023305532097
 11
315.46815614442568
 21
215.92279382654141
  0
LINE
  8
_1-c_
  6
CONTINUOUS
 62
    7
 10
318.9786096521326
 20
218.84023305532097
 11
309.80141304634714
 21
218.84023305532097
  0
LINE
  8
_1-c_
  6
CONTINUOUS
 62
    7
 10
248.26671703441724
 20
114.1314697265625
 11
248.26671703441724
 21
113.95852166253168
  0
LINE
  8
_1-c_
  6
CONTINUOUS
 62
    7
 10
288.26672528241136
 20
114.1314697265625
 11
288.26672528241136
 21
113.95852166253168
  0
LINE
  8
_1-c_
  6
CONTINUOUS
 62
    7
 10
248.26671703441724
 20
114.1314697265625
 11
288.26672528241136
 21
114.1314697265625
  0
LINE
  8
_1-0_
  6
CONTINUOUS
 62
    7
 10
272.61034166490708
 20
241.19743553367823
 11
269.98958278346709
 21
241.19743553367823
  0
LINE
  8
_1-c_
  6
CONTINUOUS
 62
    7
 10
280.6673287056588
 20
219.06102360905828
 11
272.61034166490708
 21
241.19743553367823
  0
ARC
  8
_1-2_
  6
CONTINUOUS
 62
    3
 10
117.50927074535474
 20
91.071785591744089
 40
6.01062568458351
 50
107.389892578125
 51
141.6080322265625
  0
ARC
  8
_1-2_
  6
CONTINUOUS
 62
    3
 10
116.43068055848818
 20
92.834336564347552
 40
0.9999999162313101
 50
108.07392883300781
 51
175.50869750976562
  0
ARC
  8
_1-2_
  6
CONTINUOUS
 62
    3
 10
168.57686635610222
 20
114.05221475137247
 40
6.01062568458351
 50
107.389892578125
 51
141.6080322265625
  0
ARC
  8
_1-2_
  6
CONTINUOUS
 62
    3
 10
167.49827616923565
 20
115.81476572397594
 40
0.9999999162313101
 50
108.07392883300781
 51
175.50869750976562
  0
ARC
  8
_1-2_
  6
CONTINUOUS
 62
    3
 10
219.64446196684966
 20
137.03264391100086
 40
6.01062568458351
 50
107.389892578125
 51
141.6080322265625
  0
ARC
  8
_1-2_
  6
CONTINUOUS
 62
    3
 10
218.56587177998313
 20
138.79518251161318
 40
0.9999999162313101
 50
108.07392883300781
 51
175.50869750976562
  0
ARC
  8
_1-4_
  6
CONTINUOUS
 62
    7
 10
303.78377553578969
 20
113.78377965978675
 40
9.9999997422501856
 50
270
 51
0
  0
CIRCLE
  8
_1-0_
  6
CONTINUOUS
 62
    7
 10
106.47994995117187
 20
72.4776603080131
 40
0.1152328583034309
  0
CIRCLE
  8
_1-0_
  6
CONTINUOUS
 62
    7
 10
107.62073413745777
 20
73.944384600665117
 40
0.1152328583034309
  0
CIRCLE
  8
_1-0_
  6
CONTINUOUS
 62
    7
 10
108.59855445655617
 20
74.107354653848191
 40
0.1152328583034309
  0
CIRCLE
  8
_1-0_
  6
CONTINUOUS
 62
    7
 10
107.21331209749789
 20
73.211022454339115
 40
0.1152328583034309
  0
CIRCLE
  8
_1-0_
  6
CONTINUOUS
 62
    7
 10
109.57637477565457
 20
72.803600414379233
 40
0.1152328583034309
  0
CIRCLE
  8
_1-0_
  6
CONTINUOUS
 62
    7
 10
110.0652787492082
 20
73.373992507522175
 40
0.1152328583034309
  0
CIRCLE
  8
_1-0_
  6
CONTINUOUS
 62
    7
 10
107.37627596468539
 20
72.55914224160685
 40
0.1152328583034309
  0
CIRCLE
  8
_1-0_
  6
CONTINUOUS
 62
    7
 10
106.31697371199324
 20
72.151720201646967
 40
0.1152328583034309
  0
CIRCLE
  8
_1-0_
  6
CONTINUOUS
 62
    7
 10
105.25767145930111
 20
73.536962560705234
 40
0.1152328583034309
  0
CIRCLE
  8
_1-0_
  6
CONTINUOUS
 62
    7
 10
105.25767145930111
 20
74.27032470703125
 40
0.1152328583034309
  0
CIRCLE
  8
_1-0_
  6
CONTINUOUS
 62
    7
 10
107.70221607105152
 20
75.166656906540339
 40
0.1152328583034309
  0
CIRCLE
  8
_1-0_
  6
CONTINUOUS
 62
    7
 10
110.79864089553421
 20
75.981507172455665
 40
0.1152328583034309
  0
CIRCLE
  8
_1-0_
  6
CONTINUOUS
 62
    7
 10
113.32466744087839
 20
76.79635125237543
 40
0.1152328583034309
  0
CIRCLE
  8
_1-0_
  6
CONTINUOUS
 62
    7
 10
115.52475387985642
 20
77.774171571473815
 40
0.1152328583034309
  0
CIRCLE
  8
_1-0_
  6
CONTINUOUS
 62
    7
 10
117.56187645164697
 20
79.566835970491979
 40
0.1152328583034309
  0
CIRCLE
  8
_1-0_
  6
CONTINUOUS
 62
    7
 10
119.43602278425888
 20
80.381686236407305
 40
0.1152328583034309
  0
CIRCLE
  8
_1-0_
  6
CONTINUOUS
 62
    7
 10
116.7470323717272
 20
79.648324090081303
 40
0.1152328583034309
  0
CIRCLE
  8
_1-0_
  6
CONTINUOUS
 62
    7
 10
112.83576346732475
 20
78.996443877349037
 40
0.1152328583034309
  0
CIRCLE
  8
_1-0_
  6
CONTINUOUS
 62
    7
 10
110.96160476272171
 20
77.855653505067565
 40
0.1152328583034309
  0
CIRCLE
  8
_1-0_
  6
CONTINUOUS
 62
    7
 10
113.65060754724452
 20
75.737048999683282
 40
0.1152328583034309
  0
CIRCLE
  8
_1-0_
  6
CONTINUOUS
 62
    7
 10
114.79139173353042
 20
75.818537119272591
 40
0.1152328583034309
  0
CIRCLE
  8
_1-0_
  6
CONTINUOUS
 62
    7
 10
116.99147817250845
 20
76.95932130555849
 40
0.1152328583034309
  0
CIRCLE
  8
_1-0_
  6
CONTINUOUS
 62
    7
 10
116.66555043813345
 20
78.589015651393581
 40
0.1152328583034309
  0
CIRCLE
  8
_1-0_
  6
CONTINUOUS
 62
    7
 10
115.85070635821369
 20
78.670503770982904
 40
0.1152328583034309
  0
CIRCLE
  8
_1-0_
  6
CONTINUOUS
 62
    7
 10
114.95436797270905
 20
75.900019052866341
 40
0.1152328583034309
  0
CIRCLE
  8
_1-0_
  6
CONTINUOUS
 62
    7
 10
114.13952389278928
 20
75.981507172455665
 40
0.1152328583034309
  0
CIRCLE
  8
_1-0_
  6
CONTINUOUS
 62
    7
 10
113.16170357369089
 20
74.107354653848191
 40
0.1152328583034309
  0
CIRCLE
  8
_1-0_
  6
CONTINUOUS
 62
    7
 10
112.34685949377112
 20
74.1888427734375
 40
0.1152328583034309
  0
CIRCLE
  8
_1-0_
  6
CONTINUOUS
 62
    7
 10
111.7764612146326
 20
73.618444494298984
 40
0.1152328583034309
  0
CIRCLE
  8
_1-0_
  6
CONTINUOUS
 62
    7
 10
110.96161713471284
 20
73.699932613888308
 40
0.1152328583034309
  0
CIRCLE
  8
_1-0_
  6
CONTINUOUS
 62
    7
 10
118.29525096996412
 20
76.79635125237543
 40
0.1152328583034309
  0
CIRCLE
  8
_1-0_
  6
CONTINUOUS
 62
    7
 10
119.43603515625
 20
78.263075545027448
 40
0.1152328583034309
  0
CIRCLE
  8
_1-0_
  6
CONTINUOUS
 62
    7
 10
120.4138554753484
 20
78.426045598210521
 40
0.1152328583034309
  0
CIRCLE
  8
_1-0_
  6
CONTINUOUS
 62
    7
 10
119.02861311629013
 20
77.529713398701446
 40
0.1152328583034309
  0
CIRCLE
  8
_1-0_
  6
CONTINUOUS
 62
    7
 10
121.3916757944468
 20
77.122291358741563
 40
0.1152328583034309
  0
CIRCLE
  8
_1-0_
  6
CONTINUOUS
 62
    7
 10
121.88057976800043
 20
77.692683451884506
 40
0.1152328583034309
  0
CIRCLE
  8
_1-0_
  6
CONTINUOUS
 62
    7
 10
119.19157698347763
 20
76.87783318596918
 40
0.1152328583034309
  0
CIRCLE
  8
_1-0_
  6
CONTINUOUS
 62
    7
 10
118.13227473078548
 20
76.470411146009297
 40
0.1152328583034309
  0
CIRCLE
  8
_1-0_
  6
CONTINUOUS
 62
    7
 10
117.07297247809333
 20
77.855653505067565
 40
0.1152328583034309
  0
CIRCLE
  8
_1-0_
  6
CONTINUOUS
 62
    7
 10
117.07297247809333
 20
78.589015651393581
 40
0.1152328583034309
  0
CIRCLE
  8
_1-0_
  6
CONTINUOUS
 62
    7
 10
119.51751708984375
 20
79.48534785090267
 40
0.1152328583034309
  0
CIRCLE
  8
_1-0_
  6
CONTINUOUS
 62
    7
 10
124.97700459248311
 20
78.426045598210521
 40
0.1152328583034309
  0
CIRCLE
  8
_1-0_
  6
CONTINUOUS
 62
    7
 10
124.16216051256335
 20
78.507533717799831
 40
0.1152328583034309
  0
CIRCLE
  8
_1-0_
  6
CONTINUOUS
 62
    7
 10
123.59176223342484
 20
77.937135438661315
 40
0.1152328583034309
  0
CIRCLE
  8
_1-0_
  6
CONTINUOUS
 62
    7
 10
122.77691815350508
 20
78.018623558250638
 40
0.1152328583034309
  0
CIRCLE
  8
_1-0_
  6
CONTINUOUS
 62
    7
 10
119.35455322265625
 20
79.485354036898229
 40
0.1152328583034309
  0
CIRCLE
  8
_1-0_
  6
CONTINUOUS
 62
    7
 10
120.49533740894215
 20
80.952078329550261
 40
0.1152328583034309
  0
CIRCLE
  8
_1-0_
  6
CONTINUOUS
 62
    7
 10
121.47315772804055
 20
81.11504838273332
 40
0.1152328583034309
  0
CIRCLE
  8
_1-0_
  6
CONTINUOUS
 62
    7
 10
120.08791536898227
 20
80.218716183224245
 40
0.1152328583034309
  0
CIRCLE
  8
_1-0_
  6
CONTINUOUS
 62
    7
 10
122.45097804713895
 20
79.811294143264362
 40
0.1152328583034309
  0
CIRCLE
  8
_1-0_
  6
CONTINUOUS
 62
    7
 10
122.93988202069258
 20
80.381686236407305
 40
0.1152328583034309
  0
CIRCLE
  8
_1-0_
  6
CONTINUOUS
 62
    7
 10
120.25087923616977
 20
79.566835970491979
 40
0.1152328583034309
  0
CIRCLE
  8
_1-0_
  6
CONTINUOUS
 62
    7
 10
119.19157698347763
 20
79.159413930532097
 40
0.1152328583034309
  0
CIRCLE
  8
_1-0_
  6
CONTINUOUS
 62
    7
 10
118.13227473078548
 20
80.544656289590378
 40
0.1152328583034309
  0
CIRCLE
  8
_1-0_
  6
CONTINUOUS
 62
    7
 10
118.13227473078548
 20
81.278018435916394
 40
0.1152328583034309
  0
CIRCLE
  8
_1-0_
  6
CONTINUOUS
 62
    7
 10
120.5768193425359
 20
82.174350635425469
 40
0.1152328583034309
  0
CIRCLE
  8
_1-0_
  6
CONTINUOUS
 62
    7
 10
126.03630684517526
 20
81.11504838273332
 40
0.1152328583034309
  0
CIRCLE
  8
_1-0_
  6
CONTINUOUS
 62
    7
 10
125.2214627652555
 20
81.196536502322644
 40
0.1152328583034309
  0
CIRCLE
  8
_1-0_
  6
CONTINUOUS
 62
    7
 10
124.65106448611698
 20
80.626138223184128
 40
0.1152328583034309
  0
CIRCLE
  8
_1-0_
  6
CONTINUOUS
 62
    7
 10
123.83622040619721
 20
80.707626342773438
 40
0.1152328583034309
  0
CIRCLE
  8
_1-0_
  6
CONTINUOUS
 62
    7
 10
125.46590856603675
 20
82.744742728568411
 40
0.1152328583034309
  0
CIRCLE
  8
_1-0_
  6
CONTINUOUS
 62
    7
 10
126.60669275232264
 20
84.211467021220443
 40
0.1152328583034309
  0
CIRCLE
  8
_1-0_
  6
CONTINUOUS
 62
    7
 10
127.58451307142104
 20
84.374437074403517
 40
0.1152328583034309
  0
CIRCLE
  8
_1-0_
  6
CONTINUOUS
 62
    7
 10
126.19927071236276
 20
83.478104874894427
 40
0.1152328583034309
  0
CIRCLE
  8
_1-0_
  6
CONTINUOUS
 62
    7
 10
128.56233339051943
 20
83.070682834934544
 40
0.1152328583034309
  0
CIRCLE
  8
_1-0_
  6
CONTINUOUS
 62
    7
 10
129.05123736407307
 20
83.641074928077501
 40
0.1152328583034309
  0
CIRCLE
  8
_1-0_
  6
CONTINUOUS
 62
    7
 10
126.36223457955026
 20
82.826224662162161
 40
0.1152328583034309
  0
CIRCLE
  8
_1-0_
  6
CONTINUOUS
 62
    7
 10
125.30293232685811
 20
82.418802622202278
 40
0.1152328583034309
  0
CIRCLE
  8
_1-0_
  6
CONTINUOUS
 62
    7
 10
124.24363007416596
 20
83.80404498126056
 40
0.1152328583034309
  0
CIRCLE
  8
_1-0_
  6
CONTINUOUS
 62
    7
 10
124.24363007416596
 20
84.537407127586576
 40
0.1152328583034309
  0
CIRCLE
  8
_1-0_
  6
CONTINUOUS
 62
    7
 10
126.68817468591639
 20
85.433739327095651
 40
0.1152328583034309
  0
CIRCLE
  8
_1-0_
  6
CONTINUOUS
 62
    7
 10
132.14766218855576
 20
84.374437074403517
 40
0.1152328583034309
  0
CIRCLE
  8
_1-0_
  6
CONTINUOUS
 62
    7
 10
131.33281810863599
 20
84.455925193992826
 40
0.1152328583034309
  0
CIRCLE
  8
_1-0_
  6
CONTINUOUS
 62
    7
 10
130.76241982949747
 20
83.88552691485431
 40
0.1152328583034309
  0
CIRCLE
  8
_1-0_
  6
CONTINUOUS
 62
    7
 10
129.94757574957771
 20
83.967015034443634
 40
0.1152328583034309
  0
CIRCLE
  8
_1-0_
  6
CONTINUOUS
 62
    7
 10
131.00687800226984
 20
84.455925193992826
 40
0.1152328583034309
  0
CIRCLE
  8
_1-0_
  6
CONTINUOUS
 62
    7
 10
132.14766218855576
 20
85.922649486644858
 40
0.1152328583034309
  0
CIRCLE
  8
_1-0_
  6
CONTINUOUS
 62
    7
 10
133.12548250765414
 20
86.085619539827917
 40
0.1152328583034309
  0
CIRCLE
  8
_1-0_
  6
CONTINUOUS
 62
    7
 10
131.74024014859586
 20
85.189287340318842
 40
0.1152328583034309
  0
CIRCLE
  8
_1-0_
  6
CONTINUOUS
 62
    7
 10
134.10330282675255
 20
84.781865300358959
 40
0.1152328583034309
  0
CIRCLE
  8
_1-0_
  6
CONTINUOUS
 62
    7
 10
134.59220680030617
 20
85.352257393501901
 40
0.1152328583034309
  0
CIRCLE
  8
_1-0_
  6
CONTINUOUS
 62
    7
 10
131.90320401578336
 20
84.537407127586576
 40
0.1152328583034309
  0
CIRCLE
  8
_1-0_
  6
CONTINUOUS
 62
    7
 10
130.84390176309122
 20
84.129985087626693
 40
0.1152328583034309
  0
CIRCLE
  8
_1-0_
  6
CONTINUOUS
 62
    7
 10
129.78459951039909
 20
85.515227446684975
 40
0.1152328583034309
  0
CIRCLE
  8
_1-0_
  6
CONTINUOUS
 62
    7
 10
129.78459951039909
 20
86.24858959301099
 40
0.1152328583034309
  0
CIRCLE
  8
_1-0_
  6
CONTINUOUS
 62
    7
 10
132.22914412214951
 20
87.144921792520066
 40
0.1152328583034309
  0
CIRCLE
  8
_1-0_
  6
CONTINUOUS
 62
    7
 10
137.68863162478885
 20
86.085619539827917
 40
0.1152328583034309
  0
CIRCLE
  8
_1-0_
  6
CONTINUOUS
 62
    7
 10
136.87378754486909
 20
86.16710765941724
 40
0.1152328583034309
  0
CIRCLE
  8
_1-0_
  6
CONTINUOUS
 62
    7
 10
136.30338926573057
 20
85.596709380278725
 40
0.1152328583034309
  0
CIRCLE
  8
_1-0_
  6
CONTINUOUS
 62
    7
 10
135.48854518581081
 20
85.678197499868034
 40
0.1152328583034309
  0
CIRCLE
  8
_1-0_
  6
CONTINUOUS
 62
    7
 10
145.21910383894638
 20
91.559730735985013
 40
0.1152328583034309
  0
CIRCLE
  8
_1-0_
  6
CONTINUOUS
 62
    7
 10
146.35988802523227
 20
93.026455028637045
 40
0.1152328583034309
  0
CIRCLE
  8
_1-0_
  6
CONTINUOUS
 62
    7
 10
147.33770834433068
 20
93.189425081820104
 40
0.1152328583034309
  0
CIRCLE
  8
_1-0_
  6
CONTINUOUS
 62
    7
 10
145.9524659852724
 20
92.293092882311029
 40
0.1152328583034309
  0
CIRCLE
  8
_1-0_
  6
CONTINUOUS
 62
    7
 10
148.31552866342906
 20
91.885670842351146
 40
0.1152328583034309
  0
CIRCLE
  8
_1-0_
  6
CONTINUOUS
 62
    7
 10
148.80443263698268
 20
92.456062935494089
 40
0.1152328583034309
  0
CIRCLE
  8
_1-0_
  6
CONTINUOUS
 62
    7
 10
146.1154298524599
 20
91.641212669578763
 40
0.1152328583034309
  0
CIRCLE
  8
_1-0_
  6
CONTINUOUS
 62
    7
 10
145.05612759976773
 20
91.233790629618881
 40
0.1152328583034309
  0
CIRCLE
  8
_1-0_
  6
CONTINUOUS
 62
    7
 10
143.9968253470756
 20
92.619032988677162
 40
0.1152328583034309
  0
CIRCLE
  8
_1-0_
  6
CONTINUOUS
 62
    7
 10
143.9968253470756
 20
93.352395135003178
 40
0.1152328583034309
  0
CIRCLE
  8
_1-0_
  6
CONTINUOUS
 62
    7
 10
146.44136995882602
 20
94.248727334512253
 40
0.1152328583034309
  0
CIRCLE
  8
_1-0_
  6
CONTINUOUS
 62
    7
 10
151.90085746146539
 20
93.189425081820104
 40
0.1152328583034309
  0
CIRCLE
  8
_1-0_
  6
CONTINUOUS
 62
    7
 10
151.08601338154563
 20
93.270913201409428
 40
0.1152328583034309
  0
CIRCLE
  8
_1-0_
  6
CONTINUOUS
 62
    7
 10
150.51561510240711
 20
92.700514922270912
 40
0.1152328583034309
  0
CIRCLE
  8
_1-0_
  6
CONTINUOUS
 62
    7
 10
149.70077102248734
 20
92.782003041860222
 40
0.1152328583034309
  0
CIRCLE
  8
_1-0_
  6
CONTINUOUS
 62
    7
 10
137.18300071922511
 20
86.596254915804479
 40
0.1152328583034309
  0
CIRCLE
  8
_1-0_
  6
CONTINUOUS
 62
    7
 10
138.32378490551099
 20
88.062979208456511
 40
0.1152328583034309
  0
CIRCLE
  8
_1-0_
  6
CONTINUOUS
 62
    7
 10
139.30160522460937
 20
88.22594926163957
 40
0.1152328583034309
  0
CIRCLE
  8
_1-0_
  6
CONTINUOUS
 62
    7
 10
137.91636286555109
 20
87.329617062130495
 40
0.1152328583034309
  0
CIRCLE
  8
_1-0_
  6
CONTINUOUS
 62
    7
 10
140.27942554370779
 20
86.922195022170612
 40
0.1152328583034309
  0
CIRCLE
  8
_1-0_
  6
CONTINUOUS
 62
    7
 10
140.76832951726141
 20
87.492587115313555
 40
0.1152328583034309
  0
CIRCLE
  8
_1-0_
  6
CONTINUOUS
 62
    7
 10
138.07932673273859
 20
86.677736849398229
 40
0.1152328583034309
  0
CIRCLE
  8
_1-0_
  6
CONTINUOUS
 62
    7
 10
137.02002448004646
 20
86.270314809438347
 40
0.1152328583034309
  0
CIRCLE
  8
_1-0_
  6
CONTINUOUS
 62
    7
 10
135.96072222735432
 20
87.655557168496628
 40
0.1152328583034309
  0
CIRCLE
  8
_1-0_
  6
CONTINUOUS
 62
    7
 10
135.96072222735432
 20
88.388919314822644
 40
0.1152328583034309
  0
CIRCLE
  8
_1-0_
  6
CONTINUOUS
 62
    7
 10
138.40526683910474
 20
89.285251514331719
 40
0.1152328583034309
  0
CIRCLE
  8
_1-0_
  6
CONTINUOUS
 62
    7
 10
143.86475434174409
 20
88.22594926163957
 40
0.1152328583034309
  0
CIRCLE
  8
_1-0_
  6
CONTINUOUS
 62
    7
 10
143.04991026182432
 20
88.307437381228894
 40
0.1152328583034309
  0
CIRCLE
  8
_1-0_
  6
CONTINUOUS
 62
    7
 10
142.47951198268581
 20
87.737039102090378
 40
0.1152328583034309
  0
CIRCLE
  8
_1-0_
  6
CONTINUOUS
 62
    7
 10
141.66466790276604
 20
87.818527221679688
 40
0.1152328583034309
  0
CIRCLE
  8
_1-0_
  6
CONTINUOUS
 62
    7
 10
151.36435843802789
 20
91.796085254566094
 40
0.1152328583034309
  0
CIRCLE
  8
_1-0_
  6
CONTINUOUS
 62
    7
 10
152.50514262431378
 20
93.262809547218126
 40
0.1152328583034309
  0
CIRCLE
  8
_1-0_
  6
CONTINUOUS
 62
    7
 10
153.48296294341216
 20
93.425779600401185
 40
0.1152328583034309
  0
CIRCLE
  8
_1-0_
  6
CONTINUOUS
 62
    7
 10
152.09772058435388
 20
92.52944740089211
 40
0.1152328583034309
  0
CIRCLE
  8
_1-0_
  6
CONTINUOUS
 62
    7
 10
154.46078326251057
 20
92.122025360932227
 40
0.1152328583034309
  0
CIRCLE
  8
_1-0_
  6
CONTINUOUS
 62
    7
 10
154.94968723606419
 20
92.692417454075169
 40
0.1152328583034309
  0
CIRCLE
  8
_1-0_
  6
CONTINUOUS
 62
    7
 10
152.26068445154138
 20
91.877567188159844
 40
0.1152328583034309
  0
CIRCLE
  8
_1-0_
  6
CONTINUOUS
 62
    7
 10
151.20138219884925
 20
91.470145148199961
 40
0.1152328583034309
  0
CIRCLE
  8
_1-0_
  6
CONTINUOUS
 62
    7
 10
150.14207994615711
 20
92.855387507258243
 40
0.1152328583034309
  0
CIRCLE
  8
_1-0_
  6
CONTINUOUS
 62
    7
 10
150.14207994615711
 20
93.588749653584259
 40
0.1152328583034309
  0
CIRCLE
  8
_1-0_
  6
CONTINUOUS
 62
    7
 10
152.58662455790753
 20
94.485081853093334
 40
0.1152328583034309
  0
CIRCLE
  8
_1-0_
  6
CONTINUOUS
 62
    7
 10
158.04611206054687
 20
93.425779600401185
 40
0.1152328583034309
  0
CIRCLE
  8
_1-0_
  6
CONTINUOUS
 62
    7
 10
157.23126798062711
 20
93.507267719990509
 40
0.1152328583034309
  0
CIRCLE
  8
_1-0_
  6
CONTINUOUS
 62
    7
 10
156.66086970148859
 20
92.936869440851993
 40
0.1152328583034309
  0
CIRCLE
  8
_1-0_
  6
CONTINUOUS
 62
    7
 10
155.84602562156886
 20
93.018357560441302
 40
0.1152328583034309
  0
CIRCLE
  8
_1-0_
  6
CONTINUOUS
 62
    7
 10
163.8912345267631
 20
97.232276297904349
 40
0.1152328583034309
  0
CIRCLE
  8
_1-0_
  6
CONTINUOUS
 62
    7
 10
165.03201871304898
 20
98.699000590556381
 40
0.1152328583034309
  0
CIRCLE
  8
_1-0_
  6
CONTINUOUS
 62
    7
 10
166.0098390321474
 20
98.861970643739454
 40
0.1152328583034309
  0
CIRCLE
  8
_1-0_
  6
CONTINUOUS
 62
    7
 10
164.62459667308912
 20
97.965638444230365
 40
0.1152328583034309
  0
CIRCLE
  8
_1-0_
  6
CONTINUOUS
 62
    7
 10
166.98765935124578
 20
97.558216404270482
 40
0.1152328583034309
  0
CIRCLE
  8
_1-0_
  6
CONTINUOUS
 62
    7
 10
167.47656332479943
 20
98.128608497413438
 40
0.1152328583034309
  0
CIRCLE
  8
_1-0_
  6
CONTINUOUS
 62
    7
 10
164.78756054027662
 20
97.313758231498099
 40
0.1152328583034309
  0
CIRCLE
  8
_1-0_
  6
CONTINUOUS
 62
    7
 10
163.72825828758448
 20
96.90633619153823
 40
0.1152328583034309
  0
CIRCLE
  8
_1-0_
  6
CONTINUOUS
 62
    7
 10
162.66895603489232
 20
98.291578550596498
 40
0.1152328583034309
  0
CIRCLE
  8
_1-0_
  6
CONTINUOUS
 62
    7
 10
162.66895603489232
 20
99.024940696922513
 40
0.1152328583034309
  0
CIRCLE
  8
_1-0_
  6
CONTINUOUS
 62
    7
 10
165.11350064664273
 20
99.921272896431589
 40
0.1152328583034309
  0
CIRCLE
  8
_1-0_
  6
CONTINUOUS
 62
    7
 10
170.57298814928211
 20
98.861970643739454
 40
0.1152328583034309
  0
CIRCLE
  8
_1-0_
  6
CONTINUOUS
 62
    7
 10
169.75814406936234
 20
98.943458763328763
 40
0.1152328583034309
  0
CIRCLE
  8
_1-0_
  6
CONTINUOUS
 62
    7
 10
169.18774579022383
 20
98.373060484190248
 40
0.1152328583034309
  0
CIRCLE
  8
_1-0_
  6
CONTINUOUS
 62
    7
 10
168.37290171030406
 20
98.454548603779571
 40
0.1152328583034309
  0
CIRCLE
  8
_1-0_
  6
CONTINUOUS
 62
    7
 10
157.03690399994721
 20
96.759561074746628
 40
0.1152328583034309
  0
CIRCLE
  8
_1-0_
  6
CONTINUOUS
 62
    7
 10
158.17768818623313
 20
98.22628536739866
 40
0.1152328583034309
  0
CIRCLE
  8
_1-0_
  6
CONTINUOUS
 62
    7
 10
159.15550850533151
 20
98.389255420581719
 40
0.1152328583034309
  0
CIRCLE
  8
_1-0_
  6
CONTINUOUS
 62
    7
 10
157.77026614627323
 20
97.492923221072644
 40
0.1152328583034309
  0
CIRCLE
  8
_1-0_
  6
CONTINUOUS
 62
    7
 10
160.1333288244299
 20
97.085501181112761
 40
0.1152328583034309
  0
CIRCLE
  8
_1-0_
  6
CONTINUOUS
 62
    7
 10
160.62223279798354
 20
97.655893274255703
 40
0.1152328583034309
  0
CIRCLE
  8
_1-0_
  6
CONTINUOUS
 62
    7
 10
157.93323001346073
 20
96.841043008340378
 40
0.1152328583034309
  0
CIRCLE
  8
_1-0_
  6
CONTINUOUS
 62
    7
 10
156.87392776076859
 20
96.433620968380495
 40
0.1152328583034309
  0
CIRCLE
  8
_1-0_
  6
CONTINUOUS
 62
    7
 10
155.81462550807643
 20
97.818863327438777
 40
0.1152328583034309
  0
CIRCLE
  8
_1-0_
  6
CONTINUOUS
 62
    7
 10
155.81462550807643
 20
98.552225473764793
 40
0.1152328583034309
  0
CIRCLE
  8
_1-0_
  6
CONTINUOUS
 62
    7
 10
158.25917011982688
 20
99.448557673273868
 40
0.1152328583034309
  0
CIRCLE
  8
_1-0_
  6
CONTINUOUS
 62
    7
 10
163.71865762246622
 20
98.389255420581719
 40
0.1152328583034309
  0
CIRCLE
  8
_1-0_
  6
CONTINUOUS
 62
    7
 10
162.90381354254646
 20
98.470743540171043
 40
0.1152328583034309
  0
CIRCLE
  8
_1-0_
  6
CONTINUOUS
 62
    7
 10
162.33341526340794
 20
97.900345261032527
 40
0.1152328583034309
  0
CIRCLE
  8
_1-0_
  6
CONTINUOUS
 62
    7
 10
161.51857118348818
 20
97.981833380621836
 40
0.1152328583034309
  0
CIRCLE
  8
_1-0_
  6
CONTINUOUS
 62
    7
 10
154.43699192356419
 20
95.34142777726457
 40
0.1152328583034309
  0
CIRCLE
  8
_1-0_
  6
CONTINUOUS
 62
    7
 10
155.57777610985011
 20
96.808152069916602
 40
0.1152328583034309
  0
CIRCLE
  8
_1-0_
  6
CONTINUOUS
 62
    7
 10
156.55559642894849
 20
96.971122123099661
 40
0.1152328583034309
  0
CIRCLE
  8
_1-0_
  6
CONTINUOUS
 62
    7
 10
155.17035406989021
 20
96.074789923590586
 40
0.1152328583034309
  0
CIRCLE
  8
_1-0_
  6
CONTINUOUS
 62
    7
 10
157.53341674804687
 20
95.667367883630703
 40
0.1152328583034309
  0
CIRCLE
  8
_1-0_
  6
CONTINUOUS
 62
    7
 10
158.02232072160052
 20
96.23775997677366
 40
0.1152328583034309
  0
CIRCLE
  8
_1-0_
  6
CONTINUOUS
 62
    7
 10
155.33331793707771
 20
95.42290971085832
 40
0.1152328583034309
  0
CIRCLE
  8
_1-0_
  6
CONTINUOUS
 62
    7
 10
154.27401568438557
 20
95.015487670898438
 40
0.1152328583034309
  0
CIRCLE
  8
_1-0_
  6
CONTINUOUS
 62
    7
 10
153.21471343169341
 20
96.400730029956719
 40
0.1152328583034309
  0
CIRCLE
  8
_1-0_
  6
CONTINUOUS
 62
    7
 10
153.21471343169341
 20
97.134092176282735
 40
0.1152328583034309
  0
CIRCLE
  8
_1-0_
  6
CONTINUOUS
 62
    7
 10
155.65925804344386
 20
98.03042437579181
 40
0.1152328583034309
  0
CIRCLE
  8
_1-0_
  6
CONTINUOUS
 62
    7
 10
161.1187455460832
 20
96.971122123099661
 40
0.1152328583034309
  0
CIRCLE
  8
_1-0_
  6
CONTINUOUS
 62
    7
 10
160.30390146616344
 20
97.052610242688985
 40
0.1152328583034309
  0
CIRCLE
  8
_1-0_
  6
CONTINUOUS
 62
    7
 10
159.73350318702492
 20
96.482211963550469
 40
0.1152328583034309
  0
CIRCLE
  8
_1-0_
  6
CONTINUOUS
 62
    7
 10
158.91865910710516
 20
96.563700083139793
 40
0.1152328583034309
  0
CIRCLE
  8
_1-0_
  6
CONTINUOUS
 62
    7
 10
165.78207067541175
 20
98.886770299963061
 40
0.1152328583034309
  0
CIRCLE
  8
_1-0_
  6
CONTINUOUS
 62
    7
 10
166.92285486169766
 20
100.35349459261508
 40
0.1152328583034309
  0
CIRCLE
  8
_1-0_
  6
CONTINUOUS
 62
    7
 10
167.90067518079604
 20
100.51646464579815
 40
0.1152328583034309
  0
CIRCLE
  8
_1-0_
  6
CONTINUOUS
 62
    7
 10
166.51543282173776
 20
99.620132446289063
 40
0.1152328583034309
  0
CIRCLE
  8
_1-0_
  6
CONTINUOUS
 62
    7
 10
168.87849549989443
 20
99.21271040632918
 40
0.1152328583034309
  0
CIRCLE
  8
_1-0_
  6
CONTINUOUS
 62
    7
 10
169.36739947344807
 20
99.783102499472136
 40
0.1152328583034309
  0
CIRCLE
  8
_1-0_
  6
CONTINUOUS
 62
    7
 10
166.67839668892526
 20
98.968252233556811
 40
0.1152328583034309
  0
CIRCLE
  8
_1-0_
  6
CONTINUOUS
 62
    7
 10
165.61909443623313
 20
98.560830193596928
 40
0.1152328583034309
  0
CIRCLE
  8
_1-0_
  6
CONTINUOUS
 62
    7
 10
164.55979218354096
 20
99.946072552655195
 40
0.1152328583034309
  0
CIRCLE
  8
_1-0_
  6
CONTINUOUS
 62
    7
 10
164.55979218354096
 20
100.67943469898121
 40
0.1152328583034309
  0
CIRCLE
  8
_1-0_
  6
CONTINUOUS
 62
    7
 10
167.00433679529141
 20
101.57576689849029
 40
0.1152328583034309
  0
CIRCLE
  8
_1-0_
  6
CONTINUOUS
 62
    7
 10
172.46382429793076
 20
100.51646464579815
 40
0.1152328583034309
  0
CIRCLE
  8
_1-0_
  6
CONTINUOUS
 62
    7
 10
171.64898021801099
 20
100.59795276538746
 40
0.1152328583034309
  0
CIRCLE
  8
_1-0_
  6
CONTINUOUS
 62
    7
 10
171.07858193887247
 20
100.02755448624895
 40
0.1152328583034309
  0
CIRCLE
  8
_1-0_
  6
CONTINUOUS
 62
    7
 10
170.26373785895271
 20
100.10904260583827
 40
0.1152328583034309
  0
CIRCLE
  8
_1-0_
  6
CONTINUOUS
 62
    7
 10
167.2002225308805
 20
101.48668237634608
 40
0.1152328583034309
  0
CIRCLE
  8
_1-0_
  6
CONTINUOUS
 62
    7
 10
168.34100671716641
 20
102.9534066689981
 40
0.1152328583034309
  0
CIRCLE
  8
_1-0_
  6
CONTINUOUS
 62
    7
 10
169.31882703626479
 20
103.11637672218117
 40
0.1152328583034309
  0
CIRCLE
  8
_1-0_
  6
CONTINUOUS
 62
    7
 10
167.93358467720651
 20
102.2200445226721
 40
0.1152328583034309
  0
CIRCLE
  8
_1-0_
  6
CONTINUOUS
 62
    7
 10
170.29664735536318
 20
101.81262248271221
 40
0.1152328583034309
  0
CIRCLE
  8
_1-0_
  6
CONTINUOUS
 62
    7
 10
170.78555132891682
 20
102.38301457585516
 40
0.1152328583034309
  0
CIRCLE
  8
_1-0_
  6
CONTINUOUS
 62
    7
 10
168.09654854439401
 20
101.56816430993983
 40
0.1152328583034309
  0
CIRCLE
  8
_1-0_
  6
CONTINUOUS
 62
    7
 10
167.03724629170188
 20
101.16074226997995
 40
0.1152328583034309
  0
CIRCLE
  8
_1-0_
  6
CONTINUOUS
 62
    7
 10
165.97794403900971
 20
102.54598462903823
 40
0.1152328583034309
  0
CIRCLE
  8
_1-0_
  6
CONTINUOUS
 62
    7
 10
165.97794403900971
 20
103.27934677536423
 40
0.1152328583034309
  0
CIRCLE
  8
_1-0_
  6
CONTINUOUS
 62
    7
 10
168.42248865076016
 20
104.17567897487332
 40
0.1152328583034309
  0
CIRCLE
  8
_1-0_
  6
CONTINUOUS
 62
    7
 10
173.88197615339951
 20
103.11637672218117
 40
0.1152328583034309
  0
CIRCLE
  8
_1-0_
  6
CONTINUOUS
 62
    7
 10
173.06713207347974
 20
103.19786484177048
 40
0.1152328583034309
  0
CIRCLE
  8
_1-0_
  6
CONTINUOUS
 62
    7
 10
172.49673379434122
 20
102.62746656263198
 40
0.1152328583034309
  0
CIRCLE
  8
_1-0_
  6
CONTINUOUS
 62
    7
 10
171.68188971442146
 20
102.70895468222129
 40
0.1152328583034309
  0
CIRCLE
  8
_1-0_
  6
CONTINUOUS
 62
    7
 10
181.61793476826438
 20
106.68652508709883
 40
0.1152328583034309
  0
CIRCLE
  8
_1-0_
  6
CONTINUOUS
 62
    7
 10
182.75871895455026
 20
108.15324937975085
 40
0.1152328583034309
  0
CIRCLE
  8
_1-0_
  6
CONTINUOUS
 62
    7
 10
183.73653927364865
 20
108.31621324693835
 40
0.1152328583034309
  0
CIRCLE
  8
_1-0_
  6
CONTINUOUS
 62
    7
 10
182.35129691459039
 20
107.41988723342483
 40
0.1152328583034309
  0
CIRCLE
  8
_1-0_
  6
CONTINUOUS
 62
    7
 10
184.71435959274706
 20
107.01246519346496
 40
0.1152328583034309
  0
CIRCLE
  8
_1-0_
  6
CONTINUOUS
 62
    7
 10
185.20326356630068
 20
107.58285110061233
 40
0.1152328583034309
  0
CIRCLE
  8
_1-0_
  6
CONTINUOUS
 62
    7
 10
182.51426078177789
 20
106.76800702069258
 40
0.1152328583034309
  0
CIRCLE
  8
_1-0_
  6
CONTINUOUS
 62
    7
 10
181.45495852908573
 20
106.3605849807327
 40
0.1152328583034309
  0
CIRCLE
  8
_1-0_
  6
CONTINUOUS
 62
    7
 10
180.39565627639359
 20
107.74582733979096
 40
0.1152328583034309
  0
CIRCLE
  8
_1-0_
  6
CONTINUOUS
 62
    7
 10
180.39565627639359
 20
108.47918948611698
 40
0.1152328583034309
  0
CIRCLE
  8
_1-0_
  6
CONTINUOUS
 62
    7
 10
182.84020088814401
 20
109.37552787162163
 40
0.1152328583034309
  0
CIRCLE
  8
_1-0_
  6
CONTINUOUS
 62
    7
 10
188.29968839078336
 20
108.31621324693835
 40
0.1152328583034309
  0
CIRCLE
  8
_1-0_
  6
CONTINUOUS
 62
    7
 10
187.48484431086362
 20
108.39770755252323
 40
0.1152328583034309
  0
CIRCLE
  8
_1-0_
  6
CONTINUOUS
 62
    7
 10
186.91444603172511
 20
107.82730927338471
 40
0.1152328583034309
  0
CIRCLE
  8
_1-0_
  6
CONTINUOUS
 62
    7
 10
186.09960195180534
 20
107.9088035789696
 40
0.1152328583034309
  0
CIRCLE
  8
_1-0_
  6
CONTINUOUS
 62
    7
 10
171.92733764648437
 20
104.08660063872466
 40
0.1152328583034309
  0
CIRCLE
  8
_1-0_
  6
CONTINUOUS
 62
    7
 10
173.06812183277029
 20
105.55332493137669
 40
0.1152328583034309
  0
CIRCLE
  8
_1-0_
  6
CONTINUOUS
 62
    7
 10
174.04594215186867
 20
105.71628879856419
 40
0.1152328583034309
  0
CIRCLE
  8
_1-0_
  6
CONTINUOUS
 62
    7
 10
172.66069979281039
 20
104.81996278505068
 40
0.1152328583034309
  0
CIRCLE
  8
_1-0_
  6
CONTINUOUS
 62
    7
 10
175.02376247096706
 20
104.41254074509079
 40
0.1152328583034309
  0
CIRCLE
  8
_1-0_
  6
CONTINUOUS
 62
    7
 10
175.5126664445207
 20
104.98292665223818
 40
0.1152328583034309
  0
CIRCLE
  8
_1-0_
  6
CONTINUOUS
 62
    7
 10
172.82366365999789
 20
104.16808257231841
 40
0.1152328583034309
  0
CIRCLE
  8
_1-0_
  6
CONTINUOUS
 62
    7
 10
171.76436140730576
 20
103.76066053235854
 40
0.1152328583034309
  0
CIRCLE
  8
_1-0_
  6
CONTINUOUS
 62
    7
 10
170.70505915461359
 20
105.14590289141681
 40
0.1152328583034309
  0
CIRCLE
  8
_1-0_
  6
CONTINUOUS
 62
    7
 10
170.70505915461359
 20
105.87926503774283
 40
0.1152328583034309
  0
CIRCLE
  8
_1-0_
  6
CONTINUOUS
 62
    7
 10
173.14960376636404
 20
106.77560342324747
 40
0.1152328583034309
  0
CIRCLE
  8
_1-0_
  6
CONTINUOUS
 62
    7
 10
178.60909126900339
 20
105.71628879856419
 40
0.1152328583034309
  0
CIRCLE
  8
_1-0_
  6
CONTINUOUS
 62
    7
 10
177.79424718908362
 20
105.79778310414908
 40
0.1152328583034309
  0
CIRCLE
  8
_1-0_
  6
CONTINUOUS
 62
    7
 10
177.2238489099451
 20
105.22738482501056
 40
0.1152328583034309
  0
CIRCLE
  8
_1-0_
  6
CONTINUOUS
 62
    7
 10
176.40900483002534
 20
105.30887913059544
 40
0.1152328583034309
  0
CIRCLE
  8
_1-0_
  6
CONTINUOUS
 62
    7
 10
206.90802909232477
 20
119.449743322424
 40
0.1152328583034309
  0
CIRCLE
  8
_1-0_
  6
CONTINUOUS
 62
    7
 10
208.04881327861065
 20
120.91646761507602
 40
0.1152328583034309
  0
CIRCLE
  8
_1-0_
  6
CONTINUOUS
 62
    7
 10
209.02662122571792
 20
121.07943148226352
 40
0.1152328583034309
  0
CIRCLE
  8
_1-0_
  6
CONTINUOUS
 62
    7
 10
207.6414036106419
 20
120.18310546875
 40
0.1152328583034309
  0
CIRCLE
  8
_1-0_
  6
CONTINUOUS
 62
    7
 10
210.00445391680745
 20
119.77568342879013
 40
0.1152328583034309
  0
CIRCLE
  8
_1-0_
  6
CONTINUOUS
 62
    7
 10
210.49334551836995
 20
120.3460693359375
 40
0.1152328583034309
  0
CIRCLE
  8
_1-0_
  6
CONTINUOUS
 62
    7
 10
207.8043674778294
 20
119.53122525601775
 40
0.1152328583034309
  0
CIRCLE
  8
_1-0_
  6
CONTINUOUS
 62
    7
 10
206.74505285314612
 20
119.12380321605787
 40
0.1152328583034309
  0
CIRCLE
  8
_1-0_
  6
CONTINUOUS
 62
    7
 10
205.68575060045399
 20
120.50904557511613
 40
0.1152328583034309
  0
CIRCLE
  8
_1-0_
  6
CONTINUOUS
 62
    7
 10
205.68575060045399
 20
121.24240772144215
 40
0.1152328583034309
  0
CIRCLE
  8
_1-0_
  6
CONTINUOUS
 62
    7
 10
208.1302952122044
 20
122.1387461069468
 40
0.1152328583034309
  0
CIRCLE
  8
_1-0_
  6
CONTINUOUS
 62
    7
 10
213.58978271484375
 20
121.07943148226352
 40
0.1152328583034309
  0
CIRCLE
  8
_1-0_
  6
CONTINUOUS
 62
    7
 10
212.77493863492398
 20
121.1609257878484
 40
0.1152328583034309
  0
CIRCLE
  8
_1-0_
  6
CONTINUOUS
 62
    7
 10
212.2045403557855
 20
120.59052750870988
 40
0.1152328583034309
  0
CIRCLE
  8
_1-0_
  6
CONTINUOUS
 62
    7
 10
211.38969627586573
 20
120.67202181429477
 40
0.1152328583034309
  0
CIRCLE
  8
_1-0_
  6
CONTINUOUS
 62
    7
 10
196.7447229333826
 20
114.7226282068201
 40
0.1152328583034309
  0
CIRCLE
  8
_1-0_
  6
CONTINUOUS
 62
    7
 10
197.88550711966852
 20
116.18935249947214
 40
0.1152328583034309
  0
CIRCLE
  8
_1-0_
  6
CONTINUOUS
 62
    7
 10
198.8633274387669
 20
116.35231636665964
 40
0.1152328583034309
  0
CIRCLE
  8
_1-0_
  6
CONTINUOUS
 62
    7
 10
197.47808507970862
 20
115.45599035314612
 40
0.1152328583034309
  0
CIRCLE
  8
_1-0_
  6
CONTINUOUS
 62
    7
 10
199.84114775786529
 20
115.04856831318624
 40
0.1152328583034309
  0
CIRCLE
  8
_1-0_
  6
CONTINUOUS
 62
    7
 10
200.33005173141893
 20
115.61895422033362
 40
0.1152328583034309
  0
CIRCLE
  8
_1-0_
  6
CONTINUOUS
 62
    7
 10
197.64104894689612
 20
114.80411014041385
 40
0.1152328583034309
  0
CIRCLE
  8
_1-0_
  6
CONTINUOUS
 62
    7
 10
196.58174669420399
 20
114.39668810045397
 40
0.1152328583034309
  0
CIRCLE
  8
_1-0_
  6
CONTINUOUS
 62
    7
 10
195.52244444151182
 20
115.78193045951225
 40
0.1152328583034309
  0
CIRCLE
  8
_1-0_
  6
CONTINUOUS
 62
    7
 10
195.52244444151182
 20
116.51529260583827
 40
0.1152328583034309
  0
CIRCLE
  8
_1-0_
  6
CONTINUOUS
 62
    7
 10
197.96698905326227
 20
117.41163099134292
 40
0.1152328583034309
  0
CIRCLE
  8
_1-0_
  6
CONTINUOUS
 62
    7
 10
203.42647655590162
 20
116.35231636665964
 40
0.1152328583034309
  0
CIRCLE
  8
_1-0_
  6
CONTINUOUS
 62
    7
 10
202.61163247598185
 20
116.43381067224452
 40
0.1152328583034309
  0
CIRCLE
  8
_1-0_
  6
CONTINUOUS
 62
    7
 10
202.04123419684333
 20
115.863412393106
 40
0.1152328583034309
  0
CIRCLE
  8
_1-0_
  6
CONTINUOUS
 62
    7
 10
201.22639011692357
 20
115.94490669869089
 40
0.1152328583034309
  0
CIRCLE
  8
_1-0_
  6
CONTINUOUS
 62
    7
 10
190.12675929713896
 20
111.17728568412163
 40
0.1152328583034309
  0
CIRCLE
  8
_1-0_
  6
CONTINUOUS
 62
    7
 10
191.26754348342484
 20
112.64400997677366
 40
0.1152328583034309
  0
CIRCLE
  8
_1-0_
  6
CONTINUOUS
 62
    7
 10
192.24536380252323
 20
112.80697384396116
 40
0.1152328583034309
  0
CIRCLE
  8
_1-0_
  6
CONTINUOUS
 62
    7
 10
190.86012144346495
 20
111.91064783044764
 40
0.1152328583034309
  0
CIRCLE
  8
_1-0_
  6
CONTINUOUS
 62
    7
 10
193.22318412162164
 20
111.50322579048776
 40
0.1152328583034309
  0
CIRCLE
  8
_1-0_
  6
CONTINUOUS
 62
    7
 10
193.71208809517526
 20
112.07361169763514
 40
0.1152328583034309
  0
CIRCLE
  8
_1-0_
  6
CONTINUOUS
 62
    7
 10
191.02308531065245
 20
111.25876761771538
 40
0.1152328583034309
  0
CIRCLE
  8
_1-0_
  6
CONTINUOUS
 62
    7
 10
189.96378305796031
 20
110.8513455777555
 40
0.1152328583034309
  0
CIRCLE
  8
_1-0_
  6
CONTINUOUS
 62
    7
 10
188.90448080526818
 20
112.23658793681378
 40
0.1152328583034309
  0
CIRCLE
  8
_1-0_
  6
CONTINUOUS
 62
    7
 10
188.90448080526818
 20
112.96995008313979
 40
0.1152328583034309
  0
CIRCLE
  8
_1-0_
  6
CONTINUOUS
 62
    7
 10
191.34902541701859
 20
113.86628846864443
 40
0.1152328583034309
  0
CIRCLE
  8
_1-0_
  6
CONTINUOUS
 62
    7
 10
196.80851291965794
 20
112.80697384396116
 40
0.1152328583034309
  0
CIRCLE
  8
_1-0_
  6
CONTINUOUS
 62
    7
 10
195.99366883973818
 20
112.88846814954604
 40
0.1152328583034309
  0
CIRCLE
  8
_1-0_
  6
CONTINUOUS
 62
    7
 10
195.42327056059966
 20
112.31806987040753
 40
0.1152328583034309
  0
CIRCLE
  8
_1-0_
  6
CONTINUOUS
 62
    7
 10
194.6084264806799
 20
112.39956417599241
 40
0.1152328583034309
  0
CIRCLE
  8
_1-0_
  6
CONTINUOUS
 62
    7
 10
213.52601747255068
 20
121.1042373244827
 40
0.1152328583034309
  0
CIRCLE
  8
_1-0_
  6
CONTINUOUS
 62
    7
 10
214.66678928684544
 20
122.57096161713471
 40
0.1152328583034309
  0
CIRCLE
  8
_1-0_
  6
CONTINUOUS
 62
    7
 10
215.64459723395271
 20
122.73393785631335
 40
0.1152328583034309
  0
CIRCLE
  8
_1-0_
  6
CONTINUOUS
 62
    7
 10
214.25937961887669
 20
121.83759947080871
 40
0.1152328583034309
  0
CIRCLE
  8
_1-0_
  6
CONTINUOUS
 62
    7
 10
216.62242992504224
 20
121.43017743084883
 40
0.1152328583034309
  0
CIRCLE
  8
_1-0_
  6
CONTINUOUS
 62
    7
 10
217.11132152660474
 20
122.00057570998734
 40
0.1152328583034309
  0
CIRCLE
  8
_1-0_
  6
CONTINUOUS
 62
    7
 10
214.42234348606419
 20
121.18571925807645
 40
0.1152328583034309
  0
CIRCLE
  8
_1-0_
  6
CONTINUOUS
 62
    7
 10
213.36302886138091
 20
120.77829721811656
 40
0.1152328583034309
  0
CIRCLE
  8
_1-0_
  6
CONTINUOUS
 62
    7
 10
212.30371423669766
 20
122.16353957717484
 40
0.1152328583034309
  0
CIRCLE
  8
_1-0_
  6
CONTINUOUS
 62
    7
 10
212.30371423669766
 20
122.89690172350085
 40
0.1152328583034309
  0
CIRCLE
  8
_1-0_
  6
CONTINUOUS
 62
    7
 10
214.74827122043919
 20
123.79322773701436
 40
0.1152328583034309
  0
CIRCLE
  8
_1-0_
  6
CONTINUOUS
 62
    7
 10
220.20775872307857
 20
122.73393785631335
 40
0.1152328583034309
  0
CIRCLE
  8
_1-0_
  6
CONTINUOUS
 62
    7
 10
219.3929146431588
 20
122.8154197899071
 40
0.1152328583034309
  0
CIRCLE
  8
_1-0_
  6
CONTINUOUS
 62
    7
 10
218.82251636402029
 20
122.24502151076859
 40
0.1152328583034309
  0
CIRCLE
  8
_1-0_
  6
CONTINUOUS
 62
    7
 10
218.00767228410052
 20
122.32650344436234
 40
0.1152328583034309
  0
CIRCLE
  8
_1-0_
  6
CONTINUOUS
 62
    7
 10
206.19896553658151
 20
116.61346435546875
 40
0.1152328583034309
  0
CIRCLE
  8
_1-0_
  6
CONTINUOUS
 62
    7
 10
207.33974972286742
 20
118.08018864812078
 40
0.1152328583034309
  0
CIRCLE
  8
_1-0_
  6
CONTINUOUS
 62
    7
 10
208.31755766997466
 20
118.24315251530828
 40
0.1152328583034309
  0
CIRCLE
  8
_1-0_
  6
CONTINUOUS
 62
    7
 10
206.93232768290753
 20
117.34682650179477
 40
0.1152328583034309
  0
CIRCLE
  8
_1-0_
  6
CONTINUOUS
 62
    7
 10
209.29539036106419
 20
116.93940446183488
 40
0.1152328583034309
  0
CIRCLE
  8
_1-0_
  6
CONTINUOUS
 62
    7
 10
209.78428196262669
 20
117.50979036898227
 40
0.1152328583034309
  0
CIRCLE
  8
_1-0_
  6
CONTINUOUS
 62
    7
 10
207.09529155009503
 20
116.6949462890625
 40
0.1152328583034309
  0
CIRCLE
  8
_1-0_
  6
CONTINUOUS
 62
    7
 10
206.03598929740289
 20
116.28752424910263
 40
0.1152328583034309
  0
CIRCLE
  8
_1-0_
  6
CONTINUOUS
 62
    7
 10
204.97668704471073
 20
117.6727666081609
 40
0.1152328583034309
  0
CIRCLE
  8
_1-0_
  6
CONTINUOUS
 62
    7
 10
204.97668704471073
 20
118.40612875448691
 40
0.1152328583034309
  0
CIRCLE
  8
_1-0_
  6
CONTINUOUS
 62
    7
 10
207.42123165646117
 20
119.30246713999156
 40
0.1152328583034309
  0
CIRCLE
  8
_1-0_
  6
CONTINUOUS
 62
    7
 10
212.88071915910052
 20
118.24315251530828
 40
0.1152328583034309
  0
CIRCLE
  8
_1-0_
  6
CONTINUOUS
 62
    7
 10
212.06587507918076
 20
118.32464682089316
 40
0.1152328583034309
  0
CIRCLE
  8
_1-0_
  6
CONTINUOUS
 62
    7
 10
211.49547680004224
 20
117.75424854175465
 40
0.1152328583034309
  0
CIRCLE
  8
_1-0_
  6
CONTINUOUS
 62
    7
 10
210.68063272012247
 20
117.83574284733953
 40
0.1152328583034309
  0
CIRCLE
  8
_1-0_
  6
CONTINUOUS
 62
    7
 10
199.10828049118456
 20
114.7226282068201
 40
0.1152328583034309
  0
CIRCLE
  8
_1-0_
  6
CONTINUOUS
 62
    7
 10
200.24906467747044
 20
116.18935249947214
 40
0.1152328583034309
  0
CIRCLE
  8
_1-0_
  6
CONTINUOUS
 62
    7
 10
201.22688499656886
 20
116.35231636665964
 40
0.1152328583034309
  0
CIRCLE
  8
_1-0_
  6
CONTINUOUS
 62
    7
 10
199.84164263751057
 20
115.45599035314612
 40
0.1152328583034309
  0
CIRCLE
  8
_1-0_
  6
CONTINUOUS
 62
    7
 10
202.20470531566724
 20
115.04856831318624
 40
0.1152328583034309
  0
CIRCLE
  8
_1-0_
  6
CONTINUOUS
 62
    7
 10
202.69360928922086
 20
115.61895422033362
 40
0.1152328583034309
  0
CIRCLE
  8
_1-0_
  6
CONTINUOUS
 62
    7
 10
200.00460650469807
 20
114.80411014041385
 40
0.1152328583034309
  0
CIRCLE
  8
_1-0_
  6
CONTINUOUS
 62
    7
 10
198.94530425200591
 20
114.39668810045397
 40
0.1152328583034309
  0
CIRCLE
  8
_1-0_
  6
CONTINUOUS
 62
    7
 10
197.88600199931378
 20
115.78193045951225
 40
0.1152328583034309
  0
CIRCLE
  8
_1-0_
  6
CONTINUOUS
 62
    7
 10
197.88600199931378
 20
116.51529260583827
 40
0.1152328583034309
  0
CIRCLE
  8
_1-0_
  6
CONTINUOUS
 62
    7
 10
200.33054661106419
 20
117.41163099134292
 40
0.1152328583034309
  0
CIRCLE
  8
_1-0_
  6
CONTINUOUS
 62
    7
 10
205.79003411370357
 20
116.35231636665964
 40
0.1152328583034309
  0
CIRCLE
  8
_1-0_
  6
CONTINUOUS
 62
    7
 10
204.9751900337838
 20
116.43381067224452
 40
0.1152328583034309
  0
CIRCLE
  8
_1-0_
  6
CONTINUOUS
 62
    7
 10
204.40479175464529
 20
115.863412393106
 40
0.1152328583034309
  0
CIRCLE
  8
_1-0_
  6
CONTINUOUS
 62
    7
 10
203.58994767472552
 20
115.94490669869089
 40
0.1152328583034309
  0
CIRCLE
  8
_1-0_
  6
CONTINUOUS
 62
    7
 10
233.61625052787164
 20
131.74025252058701
 40
0.1152328583034309
  0
CIRCLE
  8
_1-0_
  6
CONTINUOUS
 62
    7
 10
234.75704708614867
 20
133.20697681323904
 40
0.1152328583034309
  0
CIRCLE
  8
_1-0_
  6
CONTINUOUS
 62
    7
 10
235.73487977723818
 20
133.36994068042654
 40
0.1152328583034309
  0
CIRCLE
  8
_1-0_
  6
CONTINUOUS
 62
    7
 10
234.34961267419766
 20
132.47361466691302
 40
0.1152328583034309
  0
CIRCLE
  8
_1-0_
  6
CONTINUOUS
 62
    7
 10
236.71268772434544
 20
132.06619262695312
 40
0.1152328583034309
  0
CIRCLE
  8
_1-0_
  6
CONTINUOUS
 62
    7
 10
237.20160406989021
 20
132.63657853410052
 40
0.1152328583034309
  0
CIRCLE
  8
_1-0_
  6
CONTINUOUS
 62
    7
 10
234.51257654138516
 20
131.82173445418076
 40
0.1152328583034309
  0
CIRCLE
  8
_1-0_
  6
CONTINUOUS
 62
    7
 10
233.45328666068414
 20
131.41431241422086
 40
0.1152328583034309
  0
CIRCLE
  8
_1-0_
  6
CONTINUOUS
 62
    7
 10
232.39399677998313
 20
132.79955477327914
 40
0.1152328583034309
  0
CIRCLE
  8
_1-0_
  6
CONTINUOUS
 62
    7
 10
232.39399677998313
 20
133.53291691960516
 40
0.1152328583034309
  0
CIRCLE
  8
_1-0_
  6
CONTINUOUS
 62
    7
 10
234.83852901974242
 20
134.42925530510979
 40
0.1152328583034309
  0
CIRCLE
  8
_1-0_
  6
CONTINUOUS
 62
    7
 10
240.29801652238177
 20
133.36994068042654
 40
0.1152328583034309
  0
CIRCLE
  8
_1-0_
  6
CONTINUOUS
 62
    7
 10
239.48317244246201
 20
133.45143498601141
 40
0.1152328583034309
  0
CIRCLE
  8
_1-0_
  6
CONTINUOUS
 62
    7
 10
238.91277416332349
 20
132.88103670687289
 40
0.1152328583034309
  0
CIRCLE
  8
_1-0_
  6
CONTINUOUS
 62
    7
 10
238.09793008340372
 20
132.96253101245779
 40
0.1152328583034309
  0
CIRCLE
  8
_1-0_
  6
CONTINUOUS
 62
    7
 10
230.30728726773651
 20
126.54042836782095
 40
0.1152328583034309
  0
CIRCLE
  8
_1-0_
  6
CONTINUOUS
 62
    7
 10
231.44805908203125
 20
128.00715266047297
 40
0.1152328583034309
  0
CIRCLE
  8
_1-0_
  6
CONTINUOUS
 62
    7
 10
232.42586702913852
 20
128.17011652766047
 40
0.1152328583034309
  0
CIRCLE
  8
_1-0_
  6
CONTINUOUS
 62
    7
 10
231.0406494140625
 20
127.27379051414697
 40
0.1152328583034309
  0
CIRCLE
  8
_1-0_
  6
CONTINUOUS
 62
    7
 10
233.40369972022805
 20
126.86636847418708
 40
0.1152328583034309
  0
CIRCLE
  8
_1-0_
  6
CONTINUOUS
 62
    7
 10
233.89259132179055
 20
127.43675438133447
 40
0.1152328583034309
  0
CIRCLE
  8
_1-0_
  6
CONTINUOUS
 62
    7
 10
231.20361328125
 20
126.6219103014147
 40
0.1152328583034309
  0
CIRCLE
  8
_1-0_
  6
CONTINUOUS
 62
    7
 10
230.14429865656675
 20
126.21448826145482
 40
0.1152328583034309
  0
CIRCLE
  8
_1-0_
  6
CONTINUOUS
 62
    7
 10
229.08498403188347
 20
127.5997306205131
 40
0.1152328583034309
  0
CIRCLE
  8
_1-0_
  6
CONTINUOUS
 62
    7
 10
229.08498403188347
 20
128.33309276683912
 40
0.1152328583034309
  0
CIRCLE
  8
_1-0_
  6
CONTINUOUS
 62
    7
 10
231.529541015625
 20
129.22943115234375
 40
0.1152328583034309
  0
CIRCLE
  8
_1-0_
  6
CONTINUOUS
 62
    7
 10
236.98902851826438
 20
128.17011652766047
 40
0.1152328583034309
  0
CIRCLE
  8
_1-0_
  6
CONTINUOUS
 62
    7
 10
236.17418443834461
 20
128.25161083324537
 40
0.1152328583034309
  0
CIRCLE
  8
_1-0_
  6
CONTINUOUS
 62
    7
 10
235.60378615920609
 20
127.68121255410685
 40
0.1152328583034309
  0
CIRCLE
  8
_1-0_
  6
CONTINUOUS
 62
    7
 10
234.78894207928633
 20
127.76270685969173
 40
0.1152328583034309
  0
CIRCLE
  8
_1-0_
  6
CONTINUOUS
 62
    7
 10
222.74389318517737
 20
125.83135244008658
 40
0.1152328583034309
  0
CIRCLE
  8
_1-0_
  6
CONTINUOUS
 62
    7
 10
223.88466499947214
 20
127.29807673273861
 40
0.1152328583034309
  0
CIRCLE
  8
_1-0_
  6
CONTINUOUS
 62
    7
 10
224.8624729465794
 20
127.46105297191724
 40
0.1152328583034309
  0
CIRCLE
  8
_1-0_
  6
CONTINUOUS
 62
    7
 10
223.47725533150339
 20
126.56471458641259
 40
0.1152328583034309
  0
CIRCLE
  8
_1-0_
  6
CONTINUOUS
 62
    7
 10
225.84030563766893
 20
126.15729254645271
 40
0.1152328583034309
  0
CIRCLE
  8
_1-0_
  6
CONTINUOUS
 62
    7
 10
226.32919723923143
 20
126.72769082559122
 40
0.1152328583034309
  0
CIRCLE
  8
_1-0_
  6
CONTINUOUS
 62
    7
 10
223.64021919869089
 20
125.91283437368033
 40
0.1152328583034309
  0
CIRCLE
  8
_1-0_
  6
CONTINUOUS
 62
    7
 10
222.5809045740076
 20
125.50541233372044
 40
0.1152328583034309
  0
CIRCLE
  8
_1-0_
  6
CONTINUOUS
 62
    7
 10
221.52158994932432
 20
126.89065469277872
 40
0.1152328583034309
  0
CIRCLE
  8
_1-0_
  6
CONTINUOUS
 62
    7
 10
221.52158994932432
 20
127.62401683910474
 40
0.1152328583034309
  0
CIRCLE
  8
_1-0_
  6
CONTINUOUS
 62
    7
 10
223.96614693306589
 20
128.52034285261826
 40
0.1152328583034309
  0
CIRCLE
  8
_1-0_
  6
CONTINUOUS
 62
    7
 10
229.42563443570526
 20
127.46105297191724
 40
0.1152328583034309
  0
CIRCLE
  8
_1-0_
  6
CONTINUOUS
 62
    7
 10
228.6107903557855
 20
127.54253490551099
 40
0.1152328583034309
  0
CIRCLE
  8
_1-0_
  6
CONTINUOUS
 62
    7
 10
228.04039207664698
 20
126.97213662637247
 40
0.1152328583034309
  0
CIRCLE
  8
_1-0_
  6
CONTINUOUS
 62
    7
 10
227.22554799672722
 20
127.05361855996622
 40
0.1152328583034309
  0
CIRCLE
  8
_1-0_
  6
CONTINUOUS
 62
    7
 10
218.25310784417232
 20
124.41321295660896
 40
0.1152328583034309
  0
CIRCLE
  8
_1-0_
  6
CONTINUOUS
 62
    7
 10
219.39390440244932
 20
125.87993724926099
 40
0.1152328583034309
  0
CIRCLE
  8
_1-0_
  6
CONTINUOUS
 62
    7
 10
220.37173709353885
 20
126.04290111644849
 40
0.1152328583034309
  0
CIRCLE
  8
_1-0_
  6
CONTINUOUS
 62
    7
 10
218.98646999049834
 20
125.14657510293497
 40
0.1152328583034309
  0
CIRCLE
  8
_1-0_
  6
CONTINUOUS
 62
    7
 10
221.34954504064612
 20
124.73915306297509
 40
0.1152328583034309
  0
CIRCLE
  8
_1-0_
  6
CONTINUOUS
 62
    7
 10
221.83846138619089
 20
125.30953897012247
 40
0.1152328583034309
  0
CIRCLE
  8
_1-0_
  6
CONTINUOUS
 62
    7
 10
219.14943385768584
 20
124.49469489020271
 40
0.1152328583034309
  0
CIRCLE
  8
_1-0_
  6
CONTINUOUS
 62
    7
 10
218.09014397698482
 20
124.08727285024283
 40
0.1152328583034309
  0
CIRCLE
  8
_1-0_
  6
CONTINUOUS
 62
    7
 10
217.0308540962838
 20
125.47251520930111
 40
0.1152328583034309
  0
CIRCLE
  8
_1-0_
  6
CONTINUOUS
 62
    7
 10
217.0308540962838
 20
126.20587735562712
 40
0.1152328583034309
  0
CIRCLE
  8
_1-0_
  6
CONTINUOUS
 62
    7
 10
219.47538633604307
 20
127.10221574113176
 40
0.1152328583034309
  0
CIRCLE
  8
_1-0_
  6
CONTINUOUS
 62
    7
 10
224.93487383868245
 20
126.04290111644849
 40
0.1152328583034309
  0
CIRCLE
  8
_1-0_
  6
CONTINUOUS
 62
    7
 10
224.12002975876268
 20
126.12439542203337
 40
0.1152328583034309
  0
CIRCLE
  8
_1-0_
  6
CONTINUOUS
 62
    7
 10
223.54963147962417
 20
125.55399714289486
 40
0.1152328583034309
  0
CIRCLE
  8
_1-0_
  6
CONTINUOUS
 62
    7
 10
222.7347873997044
 20
125.63549144847974
 40
0.1152328583034309
  0
CIRCLE
  8
_1-0_
  6
CONTINUOUS
 62
    7
 10
254.41559662690034
 20
140.48543156804266
 40
0.1152328583034309
  0
CIRCLE
  8
_1-0_
  6
CONTINUOUS
 62
    7
 10
255.55639318517737
 20
141.95215586069469
 40
0.1152328583034309
  0
CIRCLE
  8
_1-0_
  6
CONTINUOUS
 62
    7
 10
256.53422587626693
 20
142.11513209987331
 40
0.1152328583034309
  0
CIRCLE
  8
_1-0_
  6
CONTINUOUS
 62
    7
 10
255.14895877322635
 20
141.21879371436867
 40
0.1152328583034309
  0
CIRCLE
  8
_1-0_
  6
CONTINUOUS
 62
    7
 10
257.51203382337417
 20
140.8113716744088
 40
0.1152328583034309
  0
CIRCLE
  8
_1-0_
  6
CONTINUOUS
 62
    7
 10
258.00095016891891
 20
141.38176995354729
 40
0.1152328583034309
  0
CIRCLE
  8
_1-0_
  6
CONTINUOUS
 62
    7
 10
255.31192264041385
 20
140.56691350163641
 40
0.1152328583034309
  0
CIRCLE
  8
_1-0_
  6
CONTINUOUS
 62
    7
 10
254.25263275971284
 20
140.15949146167654
 40
0.1152328583034309
  0
CIRCLE
  8
_1-0_
  6
CONTINUOUS
 62
    7
 10
253.19334287901185
 20
141.54473382073479
 40
0.1152328583034309
  0
CIRCLE
  8
_1-0_
  6
CONTINUOUS
 62
    7
 10
253.19334287901185
 20
142.27809596706081
 40
0.1152328583034309
  0
CIRCLE
  8
_1-0_
  6
CONTINUOUS
 62
    7
 10
255.63787511877112
 20
143.17442198057432
 40
0.1152328583034309
  0
CIRCLE
  8
_1-0_
  6
CONTINUOUS
 62
    7
 10
261.09736262141047
 20
142.11513209987331
 40
0.1152328583034309
  0
CIRCLE
  8
_1-0_
  6
CONTINUOUS
 62
    7
 10
260.28251854149073
 20
142.19661403346706
 40
0.1152328583034309
  0
CIRCLE
  8
_1-0_
  6
CONTINUOUS
 62
    7
 10
259.71212026235219
 20
141.62621575432854
 40
0.1152328583034309
  0
CIRCLE
  8
_1-0_
  6
CONTINUOUS
 62
    7
 10
258.89727618243245
 20
141.70769768792229
 40
0.1152328583034309
  0
CIRCLE
  8
_1-0_
  6
CONTINUOUS
 62
    7
 10
245.67042995143584
 20
137.64916497307854
 40
0.1152328583034309
  0
CIRCLE
  8
_1-0_
  6
CONTINUOUS
 62
    7
 10
246.81122650971284
 20
139.11588926573057
 40
0.1152328583034309
  0
CIRCLE
  8
_1-0_
  6
CONTINUOUS
 62
    7
 10
247.78905920080237
 20
139.27885313291807
 40
0.1152328583034309
  0
CIRCLE
  8
_1-0_
  6
CONTINUOUS
 62
    7
 10
246.40379209776185
 20
138.38252711940456
 40
0.1152328583034309
  0
CIRCLE
  8
_1-0_
  6
CONTINUOUS
 62
    7
 10
248.76686714790964
 20
137.97510507944469
 40
0.1152328583034309
  0
CIRCLE
  8
_1-0_
  6
CONTINUOUS
 62
    7
 10
249.2557834934544
 20
138.54549098659206
 40
0.1152328583034309
  0
CIRCLE
  8
_1-0_
  6
CONTINUOUS
 62
    7
 10
246.56675596494935
 20
137.73064690667229
 40
0.1152328583034309
  0
CIRCLE
  8
_1-0_
  6
CONTINUOUS
 62
    7
 10
245.50746608424834
 20
137.32322486671242
 40
0.1152328583034309
  0
CIRCLE
  8
_1-0_
  6
CONTINUOUS
 62
    7
 10
244.44817620354732
 20
138.7084672257707
 40
0.1152328583034309
  0
CIRCLE
  8
_1-0_
  6
CONTINUOUS
 62
    7
 10
244.44817620354732
 20
139.44182937209672
 40
0.1152328583034309
  0
CIRCLE
  8
_1-0_
  6
CONTINUOUS
 62
    7
 10
246.89270844330659
 20
140.33816775760135
 40
0.1152328583034309
  0
CIRCLE
  8
_1-0_
  6
CONTINUOUS
 62
    7
 10
252.35219594594597
 20
139.27885313291807
 40
0.1152328583034309
  0
CIRCLE
  8
_1-0_
  6
CONTINUOUS
 62
    7
 10
251.5373518660262
 20
139.36034743850297
 40
0.1152328583034309
  0
CIRCLE
  8
_1-0_
  6
CONTINUOUS
 62
    7
 10
250.96695358688768
 20
138.78994915936445
 40
0.1152328583034309
  0
CIRCLE
  8
_1-0_
  6
CONTINUOUS
 62
    7
 10
250.15210950696792
 20
138.87144346494932
 40
0.1152328583034309
  0
CIRCLE
  8
_1-0_
  6
CONTINUOUS
 62
    7
 10
240.23422653610643
 20
134.10382245038008
 40
0.1152328583034309
  0
CIRCLE
  8
_1-0_
  6
CONTINUOUS
 62
    7
 10
241.37502309438347
 20
135.57054674303211
 40
0.1152328583034309
  0
CIRCLE
  8
_1-0_
  6
CONTINUOUS
 62
    7
 10
242.352855785473
 20
135.73351061021961
 40
0.1152328583034309
  0
CIRCLE
  8
_1-0_
  6
CONTINUOUS
 62
    7
 10
240.96758868243245
 20
134.83718459670609
 40
0.1152328583034309
  0
CIRCLE
  8
_1-0_
  6
CONTINUOUS
 62
    7
 10
243.33066373258026
 20
134.4297625567462
 40
0.1152328583034309
  0
CIRCLE
  8
_1-0_
  6
CONTINUOUS
 62
    7
 10
243.819580078125
 20
135.00014846389359
 40
0.1152328583034309
  0
CIRCLE
  8
_1-0_
  6
CONTINUOUS
 62
    7
 10
241.13055254961995
 20
134.18530438397383
 40
0.1152328583034309
  0
CIRCLE
  8
_1-0_
  6
CONTINUOUS
 62
    7
 10
240.07126266891893
 20
133.77788234401393
 40
0.1152328583034309
  0
CIRCLE
  8
_1-0_
  6
CONTINUOUS
 62
    7
 10
239.01197278821792
 20
135.16312470307221
 40
0.1152328583034309
  0
CIRCLE
  8
_1-0_
  6
CONTINUOUS
 62
    7
 10
239.01197278821792
 20
135.89648684939823
 40
0.1152328583034309
  0
CIRCLE
  8
_1-0_
  6
CONTINUOUS
 62
    7
 10
241.45650502797722
 20
136.79282523490289
 40
0.1152328583034309
  0
CIRCLE
  8
_1-0_
  6
CONTINUOUS
 62
    7
 10
246.91599253061656
 20
135.73351061021961
 40
0.1152328583034309
  0
CIRCLE
  8
_1-0_
  6
CONTINUOUS
 62
    7
 10
246.1011484506968
 20
135.81500491580448
 40
0.1152328583034309
  0
CIRCLE
  8
_1-0_
  6
CONTINUOUS
 62
    7
 10
245.53075017155828
 20
135.24460663666596
 40
0.1152328583034309
  0
CIRCLE
  8
_1-0_
  6
CONTINUOUS
 62
    7
 10
244.71590609163852
 20
135.32610094225086
 40
0.1152328583034309
  0
CIRCLE
  8
_1-0_
  6
CONTINUOUS
 62
    7
 10
245.19772091427367
 20
134.34017696896115
 40
0.1152328583034309
  0
CIRCLE
  8
_1-0_
  6
CONTINUOUS
 62
    7
 10
246.33849272856844
 20
135.80690126161318
 40
0.1152328583034309
  0
CIRCLE
  8
_1-0_
  6
CONTINUOUS
 62
    7
 10
247.31630067567568
 20
135.96986512880068
 40
0.1152328583034309
  0
CIRCLE
  8
_1-0_
  6
CONTINUOUS
 62
    7
 10
245.93108306059969
 20
135.07353911528716
 40
0.1152328583034309
  0
CIRCLE
  8
_1-0_
  6
CONTINUOUS
 62
    7
 10
248.29413336676521
 20
134.66611707532729
 40
0.1152328583034309
  0
CIRCLE
  8
_1-0_
  6
CONTINUOUS
 62
    7
 10
248.78302496832771
 20
135.23650298247466
 40
0.1152328583034309
  0
CIRCLE
  8
_1-0_
  6
CONTINUOUS
 62
    7
 10
246.09404692778719
 20
134.4216589025549
 40
0.1152328583034309
  0
CIRCLE
  8
_1-0_
  6
CONTINUOUS
 62
    7
 10
245.03473230310391
 20
134.01423686259503
 40
0.1152328583034309
  0
CIRCLE
  8
_1-0_
  6
CONTINUOUS
 62
    7
 10
243.97541767842063
 20
135.39947922165331
 40
0.1152328583034309
  0
CIRCLE
  8
_1-0_
  6
CONTINUOUS
 62
    7
 10
243.97541767842063
 20
136.13284136797932
 40
0.1152328583034309
  0
CIRCLE
  8
_1-0_
  6
CONTINUOUS
 62
    7
 10
246.41997466216219
 20
137.02917975348396
 40
0.1152328583034309
  0
CIRCLE
  8
_1-0_
  6
CONTINUOUS
 62
    7
 10
251.87946216480154
 20
135.96986512880068
 40
0.1152328583034309
  0
CIRCLE
  8
_1-0_
  6
CONTINUOUS
 62
    7
 10
251.06461808488177
 20
136.05135943438557
 40
0.1152328583034309
  0
CIRCLE
  8
_1-0_
  6
CONTINUOUS
 62
    7
 10
250.49421980574326
 20
135.48096115524706
 40
0.1152328583034309
  0
CIRCLE
  8
_1-0_
  6
CONTINUOUS
 62
    7
 10
249.67937572582349
 20
135.56245546083193
 40
0.1152328583034309
  0
CIRCLE
  8
_1-0_
  6
CONTINUOUS
 62
    7
 10
265.7607124947213
 20
143.32169816300677
 40
0.1152328583034309
  0
CIRCLE
  8
_1-0_
  6
CONTINUOUS
 62
    7
 10
266.90148430901604
 20
144.7884224556588
 40
0.1152328583034309
  0
CIRCLE
  8
_1-0_
  6
CONTINUOUS
 62
    7
 10
267.87929225612334
 20
144.9513863228463
 40
0.1152328583034309
  0
CIRCLE
  8
_1-0_
  6
CONTINUOUS
 62
    7
 10
266.49407464104729
 20
144.05506030933279
 40
0.1152328583034309
  0
CIRCLE
  8
_1-0_
  6
CONTINUOUS
 62
    7
 10
268.85712494721287
 20
143.64763826937289
 40
0.1152328583034309
  0
CIRCLE
  8
_1-0_
  6
CONTINUOUS
 62
    7
 10
269.34601654877537
 20
144.21802417652029
 40
0.1152328583034309
  0
CIRCLE
  8
_1-0_
  6
CONTINUOUS
 62
    7
 10
266.65703850823479
 20
143.40318009660052
 40
0.1152328583034309
  0
CIRCLE
  8
_1-0_
  6
CONTINUOUS
 62
    7
 10
265.59772388355151
 20
142.99575805664062
 40
0.1152328583034309
  0
CIRCLE
  8
_1-0_
  6
CONTINUOUS
 62
    7
 10
264.53840925886828
 20
144.38100041569891
 40
0.1152328583034309
  0
CIRCLE
  8
_1-0_
  6
CONTINUOUS
 62
    7
 10
264.53840925886828
 20
145.11436256202492
 40
0.1152328583034309
  0
CIRCLE
  8
_1-0_
  6
CONTINUOUS
 62
    7
 10
266.98296624260979
 20
146.01070094752956
 40
0.1152328583034309
  0
CIRCLE
  8
_1-0_
  6
CONTINUOUS
 62
    7
 10
272.44245374524917
 20
144.9513863228463
 40
0.1152328583034309
  0
CIRCLE
  8
_1-0_
  6
CONTINUOUS
 62
    7
 10
271.62760966532943
 20
145.03288062843117
 40
0.1152328583034309
  0
CIRCLE
  8
_1-0_
  6
CONTINUOUS
 62
    7
 10
271.05721138619089
 20
144.46248234929266
 40
0.1152328583034309
  0
CIRCLE
  8
_1-0_
  6
CONTINUOUS
 62
    7
 10
270.24236730627115
 20
144.54397665487755
 40
0.1152328583034309
  0
CIRCLE
  8
_1-0_
  6
CONTINUOUS
 62
    7
 10
274.26952465160474
 20
148.52153468776393
 40
0.1152328583034309
  0
CIRCLE
  8
_1-0_
  6
CONTINUOUS
 62
    7
 10
275.41029646589953
 20
149.98825898041596
 40
0.1152328583034309
  0
CIRCLE
  8
_1-0_
  6
CONTINUOUS
 62
    7
 10
276.38810441300677
 20
150.15123521959461
 40
0.1152328583034309
  0
CIRCLE
  8
_1-0_
  6
CONTINUOUS
 62
    7
 10
275.00288679793078
 20
149.25489683408995
 40
0.1152328583034309
  0
CIRCLE
  8
_1-0_
  6
CONTINUOUS
 62
    7
 10
277.3659371040963
 20
148.84747479413008
 40
0.1152328583034309
  0
CIRCLE
  8
_1-0_
  6
CONTINUOUS
 62
    7
 10
277.8548287056588
 20
149.41787307326859
 40
0.1152328583034309
  0
CIRCLE
  8
_1-0_
  6
CONTINUOUS
 62
    7
 10
275.16585066511828
 20
148.60301662135768
 40
0.1152328583034309
  0
CIRCLE
  8
_1-0_
  6
CONTINUOUS
 62
    7
 10
274.106536040435
 20
148.19559458139781
 40
0.1152328583034309
  0
CIRCLE
  8
_1-0_
  6
CONTINUOUS
 62
    7
 10
273.04722141575172
 20
149.58083694045609
 40
0.1152328583034309
  0
CIRCLE
  8
_1-0_
  6
CONTINUOUS
 62
    7
 10
273.04722141575172
 20
150.31419908678211
 40
0.1152328583034309
  0
CIRCLE
  8
_1-0_
  6
CONTINUOUS
 62
    7
 10
275.49177839949328
 20
151.21052510029563
 40
0.1152328583034309
  0
CIRCLE
  8
_1-0_
  6
CONTINUOUS
 62
    7
 10
280.9512659021326
 20
150.15123521959461
 40
0.1152328583034309
  0
CIRCLE
  8
_1-0_
  6
CONTINUOUS
 62
    7
 10
280.13642182221287
 20
150.23271715318836
 40
0.1152328583034309
  0
CIRCLE
  8
_1-0_
  6
CONTINUOUS
 62
    7
 10
279.56602354307432
 20
149.66231887404984
 40
0.1152328583034309
  0
CIRCLE
  8
_1-0_
  6
CONTINUOUS
 62
    7
 10
278.75117946315459
 20
149.74380080764359
 40
0.1152328583034309
  0
CIRCLE
  8
_1-0_
  6
CONTINUOUS
 62
    7
 10
280.88750065983953
 20
151.59416817330026
 40
0.1152328583034309
  0
CIRCLE
  8
_1-0_
  6
CONTINUOUS
 62
    7
 10
282.02827247413433
 20
153.06089246595229
 40
0.1152328583034309
  0
CIRCLE
  8
_1-0_
  6
CONTINUOUS
 62
    7
 10
283.00608042124156
 20
153.22386870513091
 40
0.1152328583034309
  0
CIRCLE
  8
_1-0_
  6
CONTINUOUS
 62
    7
 10
281.62086280616558
 20
152.32753031962628
 40
0.1152328583034309
  0
CIRCLE
  8
_1-0_
  6
CONTINUOUS
 62
    7
 10
283.98391311233109
 20
151.92010827966638
 40
0.1152328583034309
  0
CIRCLE
  8
_1-0_
  6
CONTINUOUS
 62
    7
 10
284.47280471389359
 20
152.4905065588049
 40
0.1152328583034309
  0
CIRCLE
  8
_1-0_
  6
CONTINUOUS
 62
    7
 10
281.78382667335308
 20
151.67565010689401
 40
0.1152328583034309
  0
CIRCLE
  8
_1-0_
  6
CONTINUOUS
 62
    7
 10
280.72451204866979
 20
151.26822806693414
 40
0.1152328583034309
  0
CIRCLE
  8
_1-0_
  6
CONTINUOUS
 62
    7
 10
279.66519742398651
 20
152.6534704259924
 40
0.1152328583034309
  0
CIRCLE
  8
_1-0_
  6
CONTINUOUS
 62
    7
 10
279.66519742398651
 20
153.38683257231841
 40
0.1152328583034309
  0
CIRCLE
  8
_1-0_
  6
CONTINUOUS
 62
    7
 10
282.10975440772808
 20
154.28315858583193
 40
0.1152328583034309
  0
CIRCLE
  8
_1-0_
  6
CONTINUOUS
 62
    7
 10
287.5692419103674
 20
153.22386870513091
 40
0.1152328583034309
  0
CIRCLE
  8
_1-0_
  6
CONTINUOUS
 62
    7
 10
286.75439783044766
 20
153.30535063872466
 40
0.1152328583034309
  0
CIRCLE
  8
_1-0_
  6
CONTINUOUS
 62
    7
 10
286.18399955130911
 20
152.73495235958615
 40
0.1152328583034309
  0
CIRCLE
  8
_1-0_
  6
CONTINUOUS
 62
    7
 10
285.36915547138938
 20
152.8164342931799
 40
0.1152328583034309
  0
ARC
  8
_1-0_
  6
CONTINUOUS
 62
    7
 10
281.40588708826016
 20
217.20262682115711
 40
3.7101621885557434
 50
320.45123291015625
 51
39.548767089843743
  0
TEXT
  8
_0-0_
 62
    7
 10
147.56756962956609
 20
22.702702702702709
 40
2.5
 41
1
 50
0
  1
図名
  0
TEXT
  8
_0-0_
 62
    7
 10
147.56756962956609
 20
12.972972972972968
 40
2.5
 41
1
 50
0
  1
縮尺
  0
TEXT
  8
_0-0_
 62
    7
 10
382.77784605284
 20
21.243871740392734
 40
2.5
 41
1
 50
0
  1
ＮＯ
  0
TEXT
  8
_0-0_
 62
    7
 10
20.270270012520456
 20
22.702702702702709
 40
2.5
 41
1
 50
0
  1
Ｆ形
  0
TEXT
  8
_0-0_
 62
    7
 10
389.99062615471917
 20
16.178650211643514
 40
2.5
 41
1
 50
0
  1
Ｆ
  0
TEXT
  8
_0-0_
 62
    7
 10
171.37221877639359
 20
12.362518826046511
 40
2.5
 41
1
 50
0
  1
1/5
  0
TEXT
  8
_0-1_
 62
    7
 10
116.85759054647912
 20
170.82510458456505
 40
2.5
 41
1
 50
0
  1
瓦桟
  0
TEXT
  8
_1-4_
 62
    7
 10
244.6927003602724
 20
223.46602156355576
 40
2.5
 41
1
 50
0
  1
水切鉄板
  0
TEXT
  8
_1-4_
 62
    7
 10
231.02473490947006
 20
202.77940904771961
 40
2.5
 41
1
 50
0
  1
発泡弾性シール材
  0
TEXT
  8
_1-4_
 62
    7
 10
31.231870393495313
 20
18.589955922719582
 40
2.5
 41
1
 50
0
  1
ＲＣ
  0
TEXT
  8
_1-0_
 62
    7
 10
117.11052147117823
 20
149.81606560784419
 40
2.5
 41
1
 50
0
  1
パーライト系モルタル　　ｔ＝50
  0
TEXT
  8
_1-4_
 62
    7
 10
398.46727113466011
 20
13.275893443339584
 40
2.5
 41
1
 50
0
  1
23
  0
TEXT
  8
_1-c_
 62
    7
 10
353.29339104729729
 20
186.96524542731208
 40
2.5
 41
1
 50
90
  1
300
  0
TEXT
  8
_1-c_
 62
    7
 10
266.39173353040542
 20
114.63147137616133
 40
2.5
 41
1
 50
0
  1
200
  0
TEXT
  8
_1-0_
 62
    7
 10
254.03474549989443
 20
240.31541154191302
 40
2.5
 41
1
 50
0
  1
コーキング
  0
TEXT
  8
_1-0_
 62
    7
 10
162.35333416913008
 20
171.37871407173776
 40
2.5
 41
1
 50
0
  1
※　地域により瓦桟木の大きさは、異なります
  0
POINT
  8
_1-c_
 62
    7
 10
353.79336795291385
 20
158.84024542731208
  0
POINT
  8
_1-c_
 62
    7
 10
353.79336795291385
 20
218.84023305532097
  0
POINT
  8
_1-c_
 62
    7
 10
248.26671703441724
 20
114.1314697265625
  0
POINT
  8
_1-c_
 62
    7
 10
288.26672528241136
 20
114.1314697265625
  0
LINE
  8
_1-1_
  6
CONTINUOUS
 62
    7
 10
284.67011867119561
 20
161.02503759132316
 11
306.71708034202049
 21
90.728704305813551
  0
LINE
  8
_1-1_
  6
CONTINUOUS
 62
    7
 10
306.71708034202049
 20
90.728704305813551
 11
309.71823742810136
 21
90.728704305813551
  0
TEXT
  8
_1-0_
 62
    7
 10
129.92464220201646
 20
171.37871407173776
 40
2.5
 41
1
 50
0
  1
15×21　以上　（防腐処理）
  0
TEXT
  8
_0-1_
 62
    7
 10
116.85758848448059
 20
163.3211950353674
 40
2.5
 41
1
 50
0
  1
縦桟
  0
TEXT
  8
_0-1_
 62
    7
 10
116.85758642248206
 20
156.03797706397805
 40
2.5
 41
1
 50
0
  1
ルーフィング
  0
TEXT
  8
_1-c_
 62
    7
 10
355.43676840292443
 20
185.88768211570948
 40
2.5
 41
1
 50
0
  1
ルーフィング立上がり寸法
  0
TEXT
  8
_1-0_
 62
    7
 10
325.98169717138103
 20
118.96173044925125
 40
2.5
 41
1
 50
0
  1
ルーフィング
  0
TEXT
  8
_1-4_
 62
    7
 10
342.4706218801997
 20
119.16529742096506
 40
2.5
 41
1
 50
0
  1
２重貼り
  0
LINE
  8
_1-2_
  6
CONTINUOUS
 62
    3
 10
217.84804885451859
 20
142.76854643950591
 11
269.66080126151735
 21
159.67747434603373
  0
LINE
  8
_1-2_
  6
CONTINUOUS
 62
    3
 10
269.66080126151735
 20
159.67747434603373
 11
276.78880846178208
 21
162.00367695576438
  0
TEXT
  8
_1-1_
 62
    7
 10
310.83598071895852
 20
89.228125762773118
 40
2.5
 41
1
 50
0
  1
葺き土
  0
LINE
  8
_1-5_
  6
CONTINUOUS
 62
    7
 10
275.45558337509874
 20
157.83900186240481
 11
279.83281858149655
 21
159.80874657049179
  0
LINE
  8
_1-5_
  6
CONTINUOUS
 62
    7
 10
271.06221965688951
 20
162.01630459872152
 11
287.4343275382023
 21
169.49655081944556
  0
LINE
  8
_1-5_
  6
CONTINUOUS
 62
    7
 10
287.4343275382023
 20
169.49655081944556
 11
285.93827829405745
 21
172.77097239570813
  0
LINE
  8
_1-5_
  6
CONTINUOUS
 62
    7
 10
285.93827829405745
 20
172.77097239570813
 11
269.56617041274467
 21
165.29072617498409
  0
LINE
  8
_1-5_
  6
CONTINUOUS
 62
    7
 10
269.56617041274467
 20
165.29072617498409
 11
271.06221965688951
 21
162.01630459872152
  0
LINE
  8
_1-5_
  6
CONTINUOUS
 62
    7
 10
272.09871460354924
 20
161.07727611433444
 11
274.62299748678362
 21
163.60155899756884
  0
LINE
  8
_1-5_
  6
CONTINUOUS
 62
    7
 10
272.31870337991802
 20
162.14579302812649
 11
273.13729563459214
 21
162.96438528280061
  0
LINE
  8
_1-5_
  6
CONTINUOUS
 62
    7
 10
272.09871460354924
 20
161.07727611433444
 11
274.62299748678362
 21
163.60155899756884
  0
LINE
  8
_1-5_
  6
CONTINUOUS
 62
    7
 10
272.31870337991802
 20
162.14579302812649
 11
273.13729563459214
 21
162.96438528280061
  0
LINE
  8
_1-5_
  6
CONTINUOUS
 62
    7
 10
272.09871460354924
 20
161.07727611433444
 11
274.62299748678362
 21
163.60155899756884
  0
LINE
  8
_1-5_
  6
CONTINUOUS
 62
    7
 10
272.31870337991802
 20
162.14579302812649
 11
273.13729563459214
 21
162.96438528280061
  0
LINE
  8
_1-5_
  6
CONTINUOUS
 62
    7
 10
274.38338937615254
 20
163.53371258436363
 11
274.93045201061921
 21
162.9866499498969
  0
LINE
  8
_1-5_
  6
CONTINUOUS
 62
    7
 10
269.56617041274467
 20
165.29072617498409
 11
287.4343275382023
 21
169.49655081944556
  0
LINE
  8
_1-5_
  6
CONTINUOUS
 62
    7
 10
287.80864536042395
 20
209.99807756311492
 11
287.80864536042395
 21
201.99807591351612
  0
LINE
  8
_1-5_
  6
CONTINUOUS
 62
    7
 10
284.13448566606161
 20
209.99807756311492
 11
287.80864536042395
 21
209.99807756311492
  0
LINE
  8
_1-5_
  6
CONTINUOUS
 62
    7
 10
284.13448566606161
 20
201.99807591351612
 11
287.80864536042395
 21
201.99807591351612
  0
LINE
  8
_1-5_
  6
CONTINUOUS
 62
    7
 10
284.13448566606161
 20
209.99807756311492
 11
287.80864536042395
 21
201.99807591351612
  0
LINE
  8
_1-5_
  6
CONTINUOUS
 62
    2
 10
267.9782597941105
 20
165.46920808437724
 11
270.20513928900561
 21
160.59520925333922
  0
LINE
  8
_1-5_
  6
CONTINUOUS
 62
    2
 10
270.20513928900561
 20
160.59520925333922
 11
264.40465353391227
 21
158.70223906908814
  0
LINE
  8
_1-5_
  6
CONTINUOUS
 62
    2
 10
264.40465353391227
 20
158.70223906908814
 11
267.13191511717224
 21
158.92675173779492
  0
LINE
  8
_1-5_
  6
CONTINUOUS
 62
    2
 10
267.9782597941105
 20
165.46920808437724
 11
275.7933724087311
 21
168.94836554770762
  0
LINE
  8
_1-5_
  6
CONTINUOUS
 62
    7
 10
272.41973982563536
 20
162.63654147875141
 11
271.96536133501047
 21
160.42956023857349
  0
LINE
  8
_1-5_
  6
CONTINUOUS
 62
    7
 10
274.6060540937824
 20
163.63544578357147
 11
275.61368708101685
 21
161.62017980910258
  0
LINE
  8
_1-5_
  6
CONTINUOUS
 62
    7
 10
274.98059516611409
 20
161.41357226462765
 11
275.47152562420752
 21
161.90450272272113
  0
LINE
  8
_1-5_
  6
CONTINUOUS
 62
    7
 10
273.7210031608285
 20
161.00250839676536
 11
275.18868291173322
 21
162.47018814767006
  0
LINE
  8
_1-5_
  6
CONTINUOUS
 62
    7
 10
272.46141115554292
 20
160.59144452890305
 11
274.90584019925865
 21
163.03587357261878
  0
LINE
  8
_1-5_
  6
CONTINUOUS
 62
    7
 10
274.98059516611409
 20
161.41357226462765
 11
275.47152562420752
 21
161.90450272272113
  0
LINE
  8
_1-5_
  6
CONTINUOUS
 62
    7
 10
273.7210031608285
 20
161.00250839676536
 11
275.18868291173322
 21
162.47018814767006
  0
LINE
  8
_1-5_
  6
CONTINUOUS
 62
    7
 10
272.46141115554292
 20
160.59144452890305
 11
274.90584019925865
 21
163.03587357261878
  0
LINE
  8
_1-5_
  6
CONTINUOUS
 62
    7
 10
274.98059516611409
 20
161.41357226462765
 11
275.47152562420752
 21
161.90450272272113
  0
LINE
  8
_1-5_
  6
CONTINUOUS
 62
    7
 10
273.7210031608285
 20
161.00250839676536
 11
275.18868291173322
 21
162.47018814767006
  0
LINE
  8
_1-5_
  6
CONTINUOUS
 62
    7
 10
272.46141115554292
 20
160.59144452890305
 11
274.90584019925865
 21
163.03587357261878
  0
LINE
  8
_1-5_
  6
CONTINUOUS
 62
    7
 10
272.03894867493085
 20
160.78698446104198
 11
272.29032276297215
 21
160.53561037300068
  0
LINE
  8
_1-5_
  6
CONTINUOUS
 62
    7
 10
272.18381933253949
 20
161.49064194085668
 11
272.93007106502336
 21
160.74439020837278
  0
LINE
  8
_1-5_
  6
CONTINUOUS
 62
    7
 10
272.32868999014835
 20
162.19429942067106
 11
273.56981936707456
 21
160.95317004374485
  0
LINE
  8
_1-5_
  6
CONTINUOUS
 62
    7
 10
272.63611602776882
 20
162.73540152047568
 11
274.20956766912713
 21
161.16194987911737
  0
LINE
  8
_1-5_
  6
CONTINUOUS
 62
    7
 10
273.21854047722957
 20
163.00150520843823
 11
274.84931597117833
 21
161.37072971448944
  0
LINE
  8
_1-5_
  6
CONTINUOUS
 62
    7
 10
273.80096492669026
 20
163.26760889640076
 11
275.48906427322953
 21
161.57950954986151
  0
LINE
  8
_1-5_
  6
CONTINUOUS
 62
    2
 10
275.7933724087311
 20
168.94836554770762
 11
284.26673682960308
 21
172.72056570887264
  0
LINE
  8
_1-4_
  6
CONTINUOUS
 62
    7
 10
280.82616110462317
 20
171.18887892430567
 11
261.35408143739443
 21
224.68800312763938
  0
LINE
  8
_1-4_
  6
CONTINUOUS
 62
    7
 10
273.72790949309245
 20
162.70647100387765
 11
258.4060339025549
 21
204.80299666121201
  0
LINE
  8
ADD_LINE
  6
DOT
 62
    4
 10
280.06395522866558
 20
164.7787311937488
 11
279.82259527394001
 21
165.51831715476101
  0
LINE
  8
ADD_LINE
  6
DOT
 62
    4
 10
279.84684299778297
 20
165.52623027079815
 11
279.56903874668581
 21
166.37749047365386
  0
LINE
  8
ADD_LINE
  6
DOT
 62
    4
 10
282.26673023120776
 20
158.11112687394427
 11
282.98559437843988
 21
155.90835122388964
  0
LINE
  8
ADD_LINE
  6
DOT
 62
    4
 10
287.4343275382023
 20
169.49655081944556
 11
288.2396768628015
 21
169.42484613120931
  0
LINE
  8
ADD_LINE
  6
DOT
 62
    4
 10
287.73237898543078
 20
169.4700136566901
 11
287.4343275382023
 21
169.49655081944556
  0
LINE
  8
ADD_LINE
  6
DOT
 62
    4
 10
287.4343275382023
 20
169.49655081944556
 11
279.70379887024905
 21
165.96455247983903
  0
LINE
  8
ADD_LINE
  6
DOT
 62
    4
 10
279.70379887024905
 20
165.96455247983903
 11
282.75913303807778
 21
156.60228418486577
  0
LINE
  8
ADD_LINE
  6
DOT
 62
    4
 10
282.75913303807778
 20
156.60228418486577
 11
287.73237898543078
 21
158.84024542731208
  0
LINE
  8
ADD_LINE
  6
DOT
 62
    4
 10
287.73237898543078
 20
158.84024542731208
 11
287.73237898543078
 21
169.4700136566901
  0
SOLID
  8
ADD_LINE
  6
DOT
 62
    8
 10
279.70379887024905
 20
165.96455247983903
 11
282.75913303807778
 21
156.60228418486577
 12
287.4343275382023
 22
169.49655081944556
 13
287.73237898543078
 23
169.4700136566901
  0
SOLID
  8
ADD_LINE
  6
DOT
 62
    8
 10
282.75913303807778
 20
156.60228418486577
 11
287.73237898543078
 21
158.84024542731208
 12
287.73237898543078
 22
169.4700136566901
 13
287.73237898543078
 23
169.4700136566901
  0
TEXT
  8
_1-4_
 62
    7
 10
45.397583729511979
 20
13.77361400707349
 40
2.5
 41
1
 50
0
  1
壁際　4
  0
ENDSEC
  0
EOF
