  0
SECTION
  2
HEADER
  9
$ACADVER
  1
AC1009
  9
$INSBASE
 10
0
 20
0
 30
0
  9
$EXTMIN
 10
0
 20
0
  9
$EXTMAX
 10
420
 20
297
  9
$LIMMIN
 10
0
 20
0
  9
$LIMMAX
 10
420
 20
297
  9
$LTSCALE
 40
1
  0
ENDSEC
  0
SECTION
  2
TABLES
  0
TABLE
  2
LTYPE
 70
     9
  0
LTYPE
  2
CONTINUOUS
 70
    64
  3
実線
 72
    65
 73
     0
 40
0.0
  0
LTYPE
  2
DASHED1
 70
    64
  3
--  --  --  --  --  --  --  --  
 72
    65
 73
     2
 40
2.5
 49
1.25
 49
-1.25
  0
LTYPE
  2
DASHED2
 70
    64
  3
----    ----    ----    ----    
 72
    65
 73
     2
 40
5.0
 49
2.5
 49
-2.5
  0
LTYPE
  2
DASHED3
 70
    64
  3
------  ------  ------  ------  
 72
    65
 73
     2
 40
5.0
 49
3.75
 49
-1.25
  0
LTYPE
  2
CENTER1
 70
    64
  3
----- - ----- - ----- - ----- - 
 72
    65
 73
     4
 40
10.0
 49
6.25
 49
-1.25
 49
1.25
 49
-1.25
  0
LTYPE
  2
CENTER2
 70
    64
  3
----------  --  ----------  --  
 72
    65
 73
     4
 40
20.0
 49
12.5
 49
-2.5
 49
2.5
 49
-2.5
  0
LTYPE
  2
PHANTOM1
 70
    64
  3
--- - - --- - - --- - - --- - - 
 72
    65
 73
     6
 40
10.0
 49
3.25
 49
-1.25
 49
1.25
 49
-1.25
 49
1.25
 49
-1.25
  0
LTYPE
  2
PHANTOM2
 70
    64
  3
--------  -  -  --------  -  -  
 72
    65
 73
     6
 40
20.0
 49
10.0
 49
-2.5
 49
1.25
 49
-2.5
 49
1.25
 49
-2.5
  0
LTYPE
  2
DOT
 70
    64
  3
-   -   -   -   -   -   -   -   
 72
    65
 73
     2
 40
2.5
 49
0.625
 49
-1.875
  0
LTYPE
  2
DUMMY
 70
    64
  3
ダミー
 72
    65
 73
     0
 40
0.0
  0
LTYPE
  2
RAND1
 70
    64
  3
ランダム線1
 72
    65
 73
     4
 40
10.0
 49
1.0
 49
-2.0
 49
3.0
 49
-4.0
  0
LTYPE
  2
RAND2
 70
    64
  3
ランダム線2
 72
    65
 73
     4
 40
14.0
 49
2.0
 49
-3.0
 49
4.0
 49
-5.0
  0
LTYPE
  2
RAND3
 70
    64
  3
ランダム線3
 72
    65
 73
     4
 40
18.0
 49
3.0
 49
-4.0
 49
5.0
 49
-6.0
  0
LTYPE
  2
RAND4
 70
    64
  3
ランダム線4
 72
    65
 73
     4
 40
22.0
 49
4.0
 49
-5.0
 49
6.0
 49
-7.0
  0
LTYPE
  2
RAND5
 70
    64
  3
ランダム線5
 72
    65
 73
     4
 40
26.0
 49
5.0
 49
-6.0
 49
7.0
 49
-8.0
  0
LTYPE
  2
LONG1
 70
    64
  3
----------  --  ----------  --  
 72
    65
 73
     4
 40
40.0
 49
32.5
 49
-2.5
 49
2.5
 49
-2.5
  0
LTYPE
  2
LONG2
 70
    64
  3
--------  -  -  --------  -  -  
 72
    65
 73
     6
 40
40.0
 49
30.0
 49
-2.5
 49
1.25
 49
-2.5
 49
1.25
 49
-2.5
  0
LTYPE
  2
LONG3
 70
    64
  3
+++++++++++++++..+++++++++++++++
 72
    65
 73
     2
 40
40.0
 49
37.5
 49
-2.5
  0
LTYPE
  2
LONG4
 70
    64
  3
+++++++++++++++..+++++++++++++++
 72
    65
 73
     2
 40
80.0
 49
75.0
 49
-5.0
  0
LTYPE
  2
LONG5
 70
    64
  3
----------  --  ----------  --  
 72
    65
 73
     4
 40
60.0
 49
37.5
 49
-7.5
 49
7.5
 49
-7.5
  0
LTYPE
  2
dashed
 70
   64
  3
-------   -------------   ------
 72
   65
 73
    2
 40
7.5
 49
6
 49
-1.5
  0
LTYPE
  2
dashed_spaced
 70
   64
  3
----        --------        ----
 72
   65
 73
    2
 40
12
 49
6
 49
-6
  0
LTYPE
  2
long_dashed_dotted
 70
   64
  3
------------- --- --------------
 72
   65
 73
    4
 40
15.25
 49
12
 49
-1.5
 49
0.25
 49
-1.5
  0
LTYPE
  2
long_dashed_double-dotted
 70
   64
  3
----------- --- --- ------------
 72
   65
 73
    6
 40
17
 49
12
 49
-1.5
 49
0.25
 49
-1.5
 49
0.25
 49
-1.5
  0
LTYPE
  2
long_dashed_triplicate-dotted
 70
   64
  3
--------- --- --- --- ----------
 72
   65
 73
    8
 40
18.75
 49
12
 49
-1.5
 49
0.25
 49
-1.5
 49
0.25
 49
-1.5
 49
0.25
 49
-1.5
  0
LTYPE
  2
dotted
 70
   64
  3
   -       -       -       -    
 72
   65
 73
    2
 40
1.75
 49
0.25
 49
-1.5
  0
LTYPE
  2
chain
 70
   64
  3
-------------- -- --------------
 72
   65
 73
    4
 40
18.5
 49
12
 49
-1.5
 49
3.5
 49
-1.5
  0
LTYPE
  2
chain_double_dash
 70
   64
  3
------------ -- -- -------------
 72
   65
 73
    6
 40
23.5
 49
12
 49
-1.5
 49
3.5
 49
-1.5
 49
3.5
 49
-1.5
  0
LTYPE
  2
dashed_dotted
 70
   64
  3
-----------     -     ----------
 72
   65
 73
    4
 40
9.25
 49
6
 49
-1.5
 49
0.25
 49
-1.5
  0
LTYPE
  2
double-dashed_dotted
 70
   64
  3
------   -----------   -   -----
 72
   65
 73
    6
 40
16.75
 49
6
 49
-1.5
 49
6
 49
-1.5
 49
0.25
 49
-1.5
  0
LTYPE
  2
dashed_double-dotted
 70
   64
  3
---------    -    -    ---------
 72
   65
 73
    6
 40
11
 49
6
 49
-1.5
 49
0.25
 49
-1.5
 49
0.25
 49
-1.5
  0
LTYPE
  2
double-dashed_double-dotted
 70
   64
  3
-----   ---------   -   -   ----
 72
   65
 73
    8
 40
18.5
 49
6
 49
-1.5
 49
6
 49
-1.5
 49
0.25
 49
-1.5
 49
0.25
 49
-1.5
  0
LTYPE
  2
dashed_triplicate-dotted
 70
   64
  3
-------    -    -    -    ------
 72
   65
 73
    8
 40
12.75
 49
6
 49
-1.5
 49
0.25
 49
-1.5
 49
0.25
 49
-1.5
 49
0.25
 49
-1.5
  0
LTYPE
  2
double-dashed_triplicate-dotted
 70
   64
  3
-----  ---------  -  -  -  -----
 72
   65
 73
   10
 40
20.25
 49
6
 49
-1.5
 49
6
 49
-1.5
 49
0.25
 49
-1.5
 49
0.25
 49
-1.5
 49
0.25
 49
-1.5
  0
LTYPE
  2
undefined
 70
   64
  3
--------------------------------
 72
   65
 73
    0
 40
0
  0
ENDTAB
  0
TABLE
  2
STYLE
  5
3
100
AcDbSymbolTable
 70
     1
  0
STYLE
  5
10
100
AcDbSymbolTableRecord
100
AcDbTextStyleTableRecord
  2
STANDARD
 70
     0
 40
0.0
 41
1.0
 50
0.0
 71
     0
 42
0.2
  3
txt
  4
bigfont.shx
  0
STYLE
  5
26
100
AcDbSymbolTableRecord
100
AcDbTextStyleTableRecord
  2
TATEGAKI
 70
    68
 40
0.0
 41
1.0
 50
0.0
 71
     0
 42
1.0
  3
txt
  4
bigfont.shx
  0
ENDTAB
  0
TABLE
  2
LAYER
 70
    9
  0
LAYER
  2
_0-0_
 70
   64
 62
    7
  6
CONTINUOUS
  0
LAYER
  2
_0-1_
 70
   64
 62
    7
  6
CONTINUOUS
  0
LAYER
  2
_1-0_
 70
   64
 62
    7
  6
CONTINUOUS
  0
LAYER
  2
_1-1_
 70
   64
 62
    7
  6
CONTINUOUS
  0
LAYER
  2
_1-2_
 70
   64
 62
    7
  6
CONTINUOUS
  0
LAYER
  2
_1-3_
 70
   64
 62
    7
  6
CONTINUOUS
  0
LAYER
  2
_1-4_
 70
   64
 62
    7
  6
CONTINUOUS
  0
LAYER
  2
_1-5_
 70
   64
 62
    7
  6
CONTINUOUS
  0
LAYER
  2
ADD_LINE
 70
   64
 62
    7
  6
CONTINUOUS
  0
ENDTAB
  0
ENDSEC
  0
SECTION
  2
BLOCKS
  0
ENDSEC
  0
SECTION
  2
ENTITIES
  0
LINE
  8
_1-1_
  6
CONTINUOUS
 62
    7
 10
39.020777521906666
 20
107.14443722286741
 11
37.789677800358959
 21
109.88020613386826
  0
LINE
  8
_1-1_
  6
CONTINUOUS
 62
    7
 10
37.789677800358959
 20
109.88020613386826
 11
42.166925378747891
 21
111.84996321394638
  0
LINE
  8
_1-1_
  6
CONTINUOUS
 62
    7
 10
42.166925378747891
 20
111.84996321394638
 11
43.398012728304479
 21
109.11419430294553
  0
LINE
  8
_1-1_
  6
CONTINUOUS
 62
    7
 10
43.398012728304479
 20
109.11419430294553
 11
39.020777521906666
 21
107.14443722286741
  0
LINE
  8
_1-1_
  6
CONTINUOUS
 62
    7
 10
90.088373132654141
 20
130.12485401050466
 11
88.857285783097552
 21
132.8606229215055
  0
LINE
  8
_1-1_
  6
CONTINUOUS
 62
    7
 10
88.857285783097552
 20
132.8606229215055
 11
93.234520989495365
 21
134.83038000158362
  0
LINE
  8
_1-1_
  6
CONTINUOUS
 62
    7
 10
93.234520989495365
 20
134.83038000158362
 11
94.465608339051954
 21
132.09461109058279
  0
LINE
  8
_1-1_
  6
CONTINUOUS
 62
    7
 10
94.465608339051954
 20
132.09461109058279
 11
90.088373132654141
 21
130.12485401050466
  0
LINE
  8
_1-1_
  6
CONTINUOUS
 62
    7
 10
90.088373132654141
 20
130.12485401050466
 11
93.234520989495365
 21
134.83038000158362
  0
LINE
  8
_1-1_
  6
CONTINUOUS
 62
    7
 10
141.15596874340162
 20
153.10529554212417
 11
139.92488139384503
 21
155.841064453125
  0
LINE
  8
_1-1_
  6
CONTINUOUS
 62
    7
 10
139.92488139384503
 20
155.841064453125
 11
144.30211660024284
 21
157.81080916121201
  0
LINE
  8
_1-1_
  6
CONTINUOUS
 62
    7
 10
144.30211660024284
 20
157.81080916121201
 11
145.53320394979943
 21
155.07504025021115
  0
LINE
  8
_1-1_
  6
CONTINUOUS
 62
    7
 10
145.53320394979943
 20
155.07504025021115
 11
141.15596874340162
 21
153.10529554212417
  0
LINE
  8
_1-1_
  6
CONTINUOUS
 62
    7
 10
141.15596874340162
 20
153.10529554212417
 11
144.30211660024284
 21
157.81080916121201
  0
LINE
  8
_1-1_
  6
CONTINUOUS
 62
    7
 10
192.22356435414909
 20
176.08572470175255
 11
190.9924770045925
 21
178.82149361275339
  0
LINE
  8
_1-1_
  6
CONTINUOUS
 62
    7
 10
190.9924770045925
 20
178.82149361275339
 11
195.36971221099029
 21
180.79123832084039
  0
LINE
  8
_1-1_
  6
CONTINUOUS
 62
    7
 10
195.36971221099029
 20
180.79123832084039
 11
196.60079956054687
 21
178.05546940983953
  0
LINE
  8
_1-1_
  6
CONTINUOUS
 62
    7
 10
196.60079956054687
 20
178.05546940983953
 11
192.22356435414909
 21
176.08572470175255
  0
LINE
  8
_1-1_
  6
CONTINUOUS
 62
    7
 10
192.22356435414909
 20
176.08572470175255
 11
195.36971221099029
 21
180.79123832084039
  0
LINE
  8
_1-2_
  6
CONTINUOUS
 62
    3
 10
41.222125903980157
 20
117.22652126002957
 11
42.550605567725938
 21
117.66827557538008
  0
LINE
  8
_1-2_
  6
CONTINUOUS
 62
    3
 10
39.893200848553647
 20
116.15231075802366
 11
41.104418780352603
 21
116.55506855732686
  0
LINE
  8
_1-2_
  6
CONTINUOUS
 62
    3
 10
41.222125903980157
 20
117.22652126002957
 11
41.104418780352603
 21
116.55506855732686
  0
LINE
  8
_1-2_
  6
CONTINUOUS
 62
    3
 10
39.893200848553647
 20
116.15231075802366
 11
39.512242497624584
 21
114.12874788851352
  0
LINE
  8
_1-2_
  6
CONTINUOUS
 62
    3
 10
42.802103403452293
 20
115.64421782622468
 11
43.181676091374584
 21
115.77043687975085
  0
LINE
  8
_1-2_
  6
CONTINUOUS
 62
    7
 10
42.550605567725938
 20
117.66827557538008
 11
43.181676091374584
 21
115.77043687975085
  0
LINE
  8
_1-2_
  6
CONTINUOUS
 62
    3
 10
42.802103403452293
 20
115.64421782622468
 11
43.874928242451432
 21
112.41792421083193
  0
LINE
  8
_1-2_
  6
CONTINUOUS
 62
    7
 10
43.493524499841641
 20
109.76189278267526
 11
45.011790507548568
 21
110.26675662478885
  0
LINE
  8
_1-2_
  6
CONTINUOUS
 62
    3
 10
42.550605567725938
 20
117.66827557538008
 11
43.181676091374584
 21
115.77043687975085
  0
LINE
  8
_1-2_
  6
CONTINUOUS
 62
    7
 10
43.181676091374584
 20
115.77043687975085
 11
45.011790507548568
 21
110.26675662478885
  0
LINE
  8
ADD_LINE
  6
DOT
 62
    4
 10
42.063050141205679
 20
118.13846072635135
 11
42.738808296822214
 21
118.36316082928633
  0
LINE
  8
ADD_LINE
  6
DOT
 62
    4
 10
42.361289359427786
 20
118.23762223527238
 11
93.234520989495365
 21
134.83038000158362
  0
LINE
  8
_1-2_
  6
CONTINUOUS
 62
    3
 10
92.320651492557019
 20
140.21228274783573
 11
93.651630298511407
 21
140.64639117266682
  0
LINE
  8
_1-2_
  6
CONTINUOUS
 62
    3
 10
90.985565185546875
 20
139.14570576435813
 11
92.199059563714115
 21
139.54149813265414
  0
LINE
  8
_1-2_
  6
CONTINUOUS
 62
    3
 10
92.320651492557019
 20
140.21228274783573
 11
92.199059563714115
 21
139.54149813265414
  0
LINE
  8
_1-2_
  6
CONTINUOUS
 62
    3
 10
90.985565185546875
 20
139.14570576435813
 11
90.593001906936237
 21
137.12436985325169
  0
LINE
  8
_1-2_
  6
CONTINUOUS
 62
    3
 10
93.891498462573907
 20
138.62093538851352
 11
94.27178872598185
 21
138.74496459960937
  0
LINE
  8
_1-2_
  6
CONTINUOUS
 62
    7
 10
93.651630298511407
 20
140.64639117266682
 11
94.27178872598185
 21
138.74496459960937
  0
LINE
  8
_1-2_
  6
CONTINUOUS
 62
    3
 10
93.891498462573907
 20
138.62093538851352
 11
94.94576531487543
 21
135.38851763751057
  0
LINE
  8
_1-2_
  6
CONTINUOUS
 62
    7
 10
93.234520989495365
 20
134.83038000158362
 11
94.549144023173568
 21
132.73472553974875
  0
LINE
  8
_1-2_
  6
CONTINUOUS
 62
    7
 10
94.549144023173568
 20
132.73472553974875
 11
96.070255588840794
 21
133.23085475612331
  0
LINE
  8
_1-2_
  6
CONTINUOUS
 62
    3
 10
29.706635346283775
 20
110.95465170370566
 11
28.734023635451848
 21
115.89666830526816
  0
LINE
  8
_1-2_
  6
CONTINUOUS
 62
    3
 10
31.648963722022813
 20
117.89924827781884
 11
90.593001906936237
 21
137.12436985325169
  0
LINE
  8
_1-2_
  6
CONTINUOUS
 62
    3
 10
29.706635346283775
 20
110.95465170370566
 11
31.179780702333204
 21
111.59792101061022
  0
LINE
  8
_1-2_
  6
CONTINUOUS
 62
    3
 10
32.05602697423987
 20
114.8764739165435
 11
94.94576531487543
 21
135.38851763751057
  0
LINE
  8
_1-2_
  6
CONTINUOUS
 62
    3
 10
31.369195886560391
 20
114.00423616976352
 11
31.179780702333204
 21
111.59792101061022
  0
LINE
  8
_1-2_
  6
CONTINUOUS
 62
    3
 10
93.651630298511407
 20
140.64639117266682
 11
94.27178872598185
 21
138.74496459960937
  0
LINE
  8
_1-2_
  6
CONTINUOUS
 62
    7
 10
94.27178872598185
 20
138.74496459960937
 11
96.070255588840794
 21
133.23085475612331
  0
LINE
  8
_1-2_
  6
CONTINUOUS
 62
    3
 10
143.38824710330448
 20
163.19269953547297
 11
144.71922590925888
 21
163.62683270428633
  0
LINE
  8
_1-2_
  6
CONTINUOUS
 62
    3
 10
142.05316079629435
 20
162.12613492398648
 11
143.26665517446159
 21
162.52193966427365
  0
LINE
  8
_1-2_
  6
CONTINUOUS
 62
    3
 10
143.38824710330448
 20
163.19269953547297
 11
143.26665517446159
 21
162.52193966427365
  0
LINE
  8
_1-2_
  6
CONTINUOUS
 62
    3
 10
142.05316079629435
 20
162.12613492398648
 11
141.6605975176837
 21
160.10479901288008
  0
LINE
  8
_1-2_
  6
CONTINUOUS
 62
    3
 10
144.95909407332138
 20
161.6013645481419
 11
145.33938433672932
 21
161.72540613122891
  0
LINE
  8
_1-2_
  6
CONTINUOUS
 62
    7
 10
144.71922590925888
 20
163.62683270428633
 11
145.33938433672932
 21
161.72540613122891
  0
LINE
  8
_1-2_
  6
CONTINUOUS
 62
    3
 10
144.95909407332138
 20
161.6013645481419
 11
146.01336092562289
 21
158.36895916913008
  0
LINE
  8
_1-2_
  6
CONTINUOUS
 62
    7
 10
144.30211660024284
 20
157.81080916121201
 11
145.61673963392104
 21
155.71516707136826
  0
LINE
  8
_1-2_
  6
CONTINUOUS
 62
    7
 10
145.61673963392104
 20
155.71516707136826
 11
147.13785119958825
 21
156.21128391575169
  0
LINE
  8
_1-2_
  6
CONTINUOUS
 62
    3
 10
80.774243329022397
 20
133.93508086333404
 11
79.801606874208204
 21
138.87709746489654
  0
LINE
  8
_1-2_
  6
CONTINUOUS
 62
    3
 10
82.716546960779141
 20
140.87967743744721
 11
141.6605975176837
 21
160.10479901288008
  0
LINE
  8
_1-2_
  6
CONTINUOUS
 62
    3
 10
80.774243329022397
 20
133.93508086333404
 11
82.247376313080665
 21
134.57835017023859
  0
LINE
  8
_1-2_
  6
CONTINUOUS
 62
    3
 10
83.123634956978464
 20
137.85690307617187
 11
146.01336092562289
 21
158.36895916913008
  0
LINE
  8
_1-2_
  6
CONTINUOUS
 62
    3
 10
82.436791497307865
 20
136.9846653293919
 11
82.247376313080665
 21
134.57835017023859
  0
LINE
  8
_1-2_
  6
CONTINUOUS
 62
    3
 10
144.71922590925888
 20
163.62683270428633
 11
145.33938433672932
 21
161.72540613122891
  0
LINE
  8
_1-2_
  6
CONTINUOUS
 62
    7
 10
145.33938433672932
 20
161.72540613122891
 11
147.13785119958825
 21
156.21128391575169
  0
LINE
  8
_1-2_
  6
CONTINUOUS
 62
    3
 10
194.45584271405195
 20
186.17312869510135
 11
195.78682152000636
 21
186.60726186391472
  0
LINE
  8
_1-2_
  6
CONTINUOUS
 62
    3
 10
193.12075640704182
 20
185.10656408361487
 11
194.33425078520904
 21
185.50236882390203
  0
LINE
  8
_1-2_
  6
CONTINUOUS
 62
    3
 10
194.45584271405195
 20
186.17312869510135
 11
194.33425078520904
 21
185.50236882390203
  0
LINE
  8
_1-2_
  6
CONTINUOUS
 62
    3
 10
193.12075640704182
 20
185.10656408361487
 11
192.72819312843117
 21
183.08522817250847
  0
LINE
  8
_1-2_
  6
CONTINUOUS
 62
    3
 10
196.02668968406886
 20
184.58179370777029
 11
196.40697994747677
 21
184.70583529085727
  0
LINE
  8
_1-2_
  6
CONTINUOUS
 62
    7
 10
195.78682152000636
 20
186.60726186391472
 11
196.40697994747677
 21
184.70583529085727
  0
LINE
  8
_1-2_
  6
CONTINUOUS
 62
    3
 10
196.02668968406886
 20
184.58179370777029
 11
197.08095653637037
 21
181.34938832875847
  0
LINE
  8
_1-2_
  6
CONTINUOUS
 62
    7
 10
195.36971221099029
 20
180.79123832084039
 11
196.68433524466852
 21
178.69559623099664
  0
LINE
  8
_1-2_
  6
CONTINUOUS
 62
    7
 10
196.68433524466852
 20
178.69559623099664
 11
198.20544681033573
 21
179.19171307538008
  0
LINE
  8
_1-2_
  6
CONTINUOUS
 62
    3
 10
131.84181419578761
 20
156.9154976509713
 11
130.86922722893792
 21
161.8575142525338
  0
LINE
  8
_1-2_
  6
CONTINUOUS
 62
    3
 10
131.84181419578761
 20
156.9154976509713
 11
133.31497192382812
 21
157.55879170185813
  0
LINE
  8
_1-2_
  6
CONTINUOUS
 62
    3
 10
134.19120582374367
 20
160.83731986380914
 11
197.08095653637037
 21
181.34938832875847
  0
LINE
  8
_1-2_
  6
CONTINUOUS
 62
    3
 10
133.50438710805534
 20
159.96509448902029
 11
133.31497192382812
 21
157.55879170185813
  0
LINE
  8
_1-2_
  6
CONTINUOUS
 62
    3
 10
195.78682152000636
 20
186.60726186391472
 11
196.40697994747677
 21
184.70583529085727
  0
LINE
  8
_1-2_
  6
CONTINUOUS
 62
    7
 10
196.40697994747677
 20
184.70583529085727
 11
198.20544681033573
 21
179.19171307538008
  0
LINE
  8
_0-0_
  6
CONTINUOUS
 62
    5
 10
12.432428308435391
 20
278.51351351351354
 11
412.43244892842063
 21
278.51351351351354
  0
LINE
  8
_0-0_
  6
CONTINUOUS
 62
    5
 10
412.43244892842063
 20
8.5135135135135158
 11
12.432428308435391
 21
8.5135135135135158
  0
LINE
  8
_0-0_
  6
CONTINUOUS
 62
    5
 10
412.43244892842063
 20
28.513511451515001
 11
12.432415936444272
 21
28.513511451515001
  0
LINE
  8
_0-0_
  6
CONTINUOUS
 62
    5
 10
377.43248192039698
 20
8.5135135135135158
 11
377.43248192039698
 21
28.513511451515001
  0
LINE
  8
_0-0_
  6
CONTINUOUS
 62
    5
 10
142.70271507469386
 20
28.513511451515001
 11
142.70271507469386
 21
8.5135135135135158
  0
LINE
  8
_0-0_
  6
CONTINUOUS
 62
    5
 10
220.54054054054055
 20
28.513511451515001
 11
220.54054054054055
 21
8.5135135135135158
  0
LINE
  8
_0-0_
  6
CONTINUOUS
 62
    5
 10
142.70271507469386
 20
18.513512482514244
 11
220.54054054054055
 21
18.513512482514244
  0
LINE
  8
_0-0_
  6
CONTINUOUS
 62
    5
 10
402.16218690614443
 20
24.324325870823216
 11
389.59456985061234
 21
11.756758303255651
  0
LINE
  8
_0-1_
  6
CONTINUOUS
 62
    7
 10
109.51898110879435
 20
84.39749227987754
 11
125.79819550385346
 21
84.39749227987754
  0
LINE
  8
_0-1_
  6
CONTINUOUS
 62
    7
 10
112.06676998653928
 20
77.397493929476354
 11
125.79819550385346
 21
77.397493929476354
  0
LINE
  8
_0-1_
  6
CONTINUOUS
 62
    7
 10
114.61455886428421
 20
70.397495579075169
 11
125.79819550385346
 21
70.397495579075169
  0
LINE
  8
_0-1_
  6
CONTINUOUS
 62
    7
 10
117.16234774202914
 20
63.397497228673984
 11
125.79819550385346
 21
63.397497228673984
  0
LINE
  8
_0-1_
  6
CONTINUOUS
 62
    7
 10
65.12817795212203
 20
127.29729729729731
 11
57.641985094225078
 21
147.86547274202914
  0
LINE
  8
_1-2_
  6
CONTINUOUS
 62
    3
 10
22.155204979149062
 20
105.19560117979309
 11
43.874928242451432
 21
112.41792421083193
  0
LINE
  8
_1-2_
  6
CONTINUOUS
 62
    3
 10
22.155204979149062
 20
108.35711504961994
 11
39.512242497624584
 21
114.12874788851352
  0
LINE
  8
ADD_LINE
  6
DOT
 62
    4
 10
22.155217351140209
 20
105.19558880780195
 11
42.166925378747891
 21
111.84996321394638
  0
LINE
  8
_1-4_
  6
CONTINUOUS
 62
    7
 10
57.641985094225078
 20
147.86547274202914
 11
54.008492134712839
 21
147.86547274202914
  0
LINE
  8
_1-1_
  6
CONTINUOUS
 62
    7
 10
369.62788349873313
 20
107.14443722286741
 11
370.85897084828974
 21
109.88020613386826
  0
LINE
  8
_1-1_
  6
CONTINUOUS
 62
    7
 10
370.85897084828974
 20
109.88020613386826
 11
366.48173564189193
 21
111.84996321394638
  0
LINE
  8
_1-1_
  6
CONTINUOUS
 62
    7
 10
366.48173564189193
 20
111.84996321394638
 11
365.25062354835308
 21
109.11419430294553
  0
LINE
  8
_1-1_
  6
CONTINUOUS
 62
    7
 10
365.25062354835308
 20
109.11419430294553
 11
369.62788349873313
 21
107.14443722286741
  0
LINE
  8
_1-1_
  6
CONTINUOUS
 62
    7
 10
318.56026314400339
 20
130.12485401050466
 11
319.79137523754224
 21
132.8606229215055
  0
LINE
  8
_1-1_
  6
CONTINUOUS
 62
    7
 10
319.79137523754224
 20
132.8606229215055
 11
315.41411528716219
 21
134.83038000158362
  0
LINE
  8
_1-1_
  6
CONTINUOUS
 62
    7
 10
315.41411528716219
 20
134.83038000158362
 11
314.18305268158787
 21
132.09461109058279
  0
LINE
  8
_1-1_
  6
CONTINUOUS
 62
    7
 10
314.18305268158787
 20
132.09461109058279
 11
318.56026314400339
 21
130.12485401050466
  0
LINE
  8
_1-1_
  6
CONTINUOUS
 62
    7
 10
318.56026314400339
 20
130.12485401050466
 11
315.41411528716219
 21
134.83038000158362
  0
LINE
  8
_1-1_
  6
CONTINUOUS
 62
    7
 10
267.49269227723818
 20
153.10529554212417
 11
268.7237548828125
 21
155.841064453125
  0
LINE
  8
_1-1_
  6
CONTINUOUS
 62
    7
 10
268.7237548828125
 20
155.841064453125
 11
264.34654442039698
 21
157.81080916121201
  0
LINE
  8
_1-1_
  6
CONTINUOUS
 62
    7
 10
264.34654442039698
 20
157.81080916121201
 11
263.11543232685813
 21
155.07504025021115
  0
LINE
  8
_1-1_
  6
CONTINUOUS
 62
    7
 10
263.11543232685813
 20
155.07504025021115
 11
267.49269227723818
 21
153.10529554212417
  0
LINE
  8
_1-1_
  6
CONTINUOUS
 62
    7
 10
267.49269227723818
 20
153.10529554212417
 11
264.34654442039698
 21
157.81080916121201
  0
LINE
  8
_1-1_
  6
CONTINUOUS
 62
    7
 10
216.42507192250847
 20
176.08572470175255
 11
217.65618401604732
 21
178.82149361275339
  0
LINE
  8
_1-1_
  6
CONTINUOUS
 62
    7
 10
217.65618401604732
 20
178.82149361275339
 11
213.27892406566724
 21
180.79123832084039
  0
LINE
  8
_1-1_
  6
CONTINUOUS
 62
    7
 10
213.27892406566724
 20
180.79123832084039
 11
212.04786146009292
 21
178.05546940983953
  0
LINE
  8
_1-1_
  6
CONTINUOUS
 62
    7
 10
212.04786146009292
 20
178.05546940983953
 11
216.42507192250847
 21
176.08572470175255
  0
LINE
  8
_1-1_
  6
CONTINUOUS
 62
    7
 10
216.42507192250847
 20
176.08572470175255
 11
213.27892406566724
 21
180.79123832084039
  0
LINE
  8
_1-2_
  6
CONTINUOUS
 62
    3
 10
367.4265103726774
 20
117.22652126002957
 11
366.09805545291385
 21
117.66827557538008
  0
LINE
  8
_1-2_
  6
CONTINUOUS
 62
    3
 10
368.75546017208615
 20
116.15231075802366
 11
367.54424224028719
 21
116.55506855732686
  0
LINE
  8
_1-2_
  6
CONTINUOUS
 62
    3
 10
367.4265103726774
 20
117.22652126002957
 11
367.54424224028719
 21
116.55506855732686
  0
LINE
  8
_1-2_
  6
CONTINUOUS
 62
    3
 10
368.75546017208615
 20
116.15231075802366
 11
369.13641852301521
 21
114.12874788851352
  0
LINE
  8
_1-2_
  6
CONTINUOUS
 62
    3
 10
365.8465576171875
 20
115.64421782622468
 11
365.46698492926521
 21
115.77043687975085
  0
LINE
  8
_1-2_
  6
CONTINUOUS
 62
    7
 10
366.09805545291385
 20
117.66827557538008
 11
365.46698492926521
 21
115.77043687975085
  0
LINE
  8
_1-2_
  6
CONTINUOUS
 62
    3
 10
365.8465576171875
 20
115.64421782622468
 11
364.77370803420609
 21
112.41792421083193
  0
LINE
  8
_1-2_
  6
CONTINUOUS
 62
    3
 10
366.09805545291385
 20
117.66827557538008
 11
365.46698492926521
 21
115.77043687975085
  0
LINE
  8
_1-2_
  6
CONTINUOUS
 62
    7
 10
365.46698492926521
 20
115.77043687975085
 11
363.63687051309125
 21
110.26675662478885
  0
LINE
  8
ADD_LINE
  6
DOT
 62
    4
 10
366.58561087943411
 20
118.13846072635135
 11
365.90985272381761
 21
118.36316082928633
  0
LINE
  8
ADD_LINE
  6
DOT
 62
    4
 10
366.28734691722974
 20
118.23762223527238
 11
315.41411528716219
 21
134.83038000158362
  0
LINE
  8
_1-2_
  6
CONTINUOUS
 62
    3
 10
316.32800952808276
 20
140.21228274783573
 11
314.99703072212839
 21
140.64639117266682
  0
LINE
  8
_1-2_
  6
CONTINUOUS
 62
    3
 10
317.66309583509292
 20
139.14570576435813
 11
316.44960145692568
 21
139.54149813265414
  0
LINE
  8
_1-2_
  6
CONTINUOUS
 62
    3
 10
316.32800952808276
 20
140.21228274783573
 11
316.44960145692568
 21
139.54149813265414
  0
LINE
  8
_1-2_
  6
CONTINUOUS
 62
    3
 10
317.66309583509292
 20
139.14570576435813
 11
318.0556343697213
 21
137.12436985325169
  0
LINE
  8
_1-2_
  6
CONTINUOUS
 62
    3
 10
314.75716255806589
 20
138.62093538851352
 11
314.37684755067568
 21
138.74496459960937
  0
LINE
  8
_1-2_
  6
CONTINUOUS
 62
    7
 10
314.99703072212839
 20
140.64639117266682
 11
314.37684755067568
 21
138.74496459960937
  0
LINE
  8
_1-2_
  6
CONTINUOUS
 62
    3
 10
314.75716255806589
 20
138.62093538851352
 11
313.70287096178214
 21
135.38851763751057
  0
LINE
  8
_1-2_
  6
CONTINUOUS
 62
    7
 10
315.41411528716219
 20
134.83038000158362
 11
314.09951699746625
 21
132.73472553974875
  0
LINE
  8
_1-2_
  6
CONTINUOUS
 62
    7
 10
314.09951699746625
 20
132.73472553974875
 11
312.57840543179901
 21
133.23085475612331
  0
LINE
  8
_1-2_
  6
CONTINUOUS
 62
    3
 10
378.9420133023649
 20
110.95465170370566
 11
379.91462501319683
 21
115.89666830526816
  0
LINE
  8
_1-2_
  6
CONTINUOUS
 62
    3
 10
376.99968492662589
 20
117.89924827781884
 11
318.0556343697213
 21
137.12436985325169
  0
LINE
  8
_1-2_
  6
CONTINUOUS
 62
    3
 10
378.9420133023649
 20
110.95465170370566
 11
377.46885557432432
 21
111.59792101061022
  0
LINE
  8
_1-2_
  6
CONTINUOUS
 62
    3
 10
376.5926216744088
 20
114.8764739165435
 11
313.70287096178214
 21
135.38851763751057
  0
LINE
  8
_1-2_
  6
CONTINUOUS
 62
    3
 10
377.27946513407943
 20
114.00423616976352
 11
377.46885557432432
 21
111.59792101061022
  0
LINE
  8
_1-2_
  6
CONTINUOUS
 62
    3
 10
314.99703072212839
 20
140.64639117266682
 11
314.37684755067568
 21
138.74496459960937
  0
LINE
  8
_1-2_
  6
CONTINUOUS
 62
    7
 10
314.37684755067568
 20
138.74496459960937
 11
312.57840543179901
 21
133.23085475612331
  0
LINE
  8
_1-2_
  6
CONTINUOUS
 62
    3
 10
265.26038917335308
 20
163.19269953547297
 11
263.92941036739865
 21
163.62683270428633
  0
LINE
  8
_1-2_
  6
CONTINUOUS
 62
    3
 10
266.59547548036318
 20
162.12613492398648
 11
265.38198110219594
 21
162.52193966427365
  0
LINE
  8
_1-2_
  6
CONTINUOUS
 62
    3
 10
265.26038917335308
 20
163.19269953547297
 11
265.38198110219594
 21
162.52193966427365
  0
LINE
  8
_1-2_
  6
CONTINUOUS
 62
    3
 10
266.59547548036318
 20
162.12613492398648
 11
266.98806350295609
 21
160.10479901288008
  0
LINE
  8
_1-2_
  6
CONTINUOUS
 62
    3
 10
263.68954220333615
 20
161.6013645481419
 11
263.30927668391047
 21
161.72540613122891
  0
LINE
  8
_1-2_
  6
CONTINUOUS
 62
    7
 10
263.92941036739865
 20
163.62683270428633
 11
263.30927668391047
 21
161.72540613122891
  0
LINE
  8
_1-2_
  6
CONTINUOUS
 62
    3
 10
263.68954220333615
 20
161.6013645481419
 11
262.63530009501693
 21
158.36895916913008
  0
LINE
  8
_1-2_
  6
CONTINUOUS
 62
    7
 10
264.34654442039698
 20
157.81080916121201
 11
263.03189664273651
 21
155.71516707136826
  0
LINE
  8
_1-2_
  6
CONTINUOUS
 62
    7
 10
263.03189664273651
 20
155.71516707136826
 11
261.51078507706927
 21
156.21128391575169
  0
LINE
  8
_1-2_
  6
CONTINUOUS
 62
    3
 10
327.87439294763516
 20
133.93508086333404
 11
328.84702940244932
 21
138.87709746489654
  0
LINE
  8
_1-2_
  6
CONTINUOUS
 62
    3
 10
325.93208931587839
 20
140.87967743744721
 11
266.98806350295609
 21
160.10479901288008
  0
LINE
  8
_1-2_
  6
CONTINUOUS
 62
    3
 10
327.87439294763516
 20
133.93508086333404
 11
326.40128470755911
 21
134.57835017023859
  0
LINE
  8
_1-2_
  6
CONTINUOUS
 62
    3
 10
325.52500131967906
 20
137.85690307617187
 11
262.63530009501693
 21
158.36895916913008
  0
LINE
  8
_1-2_
  6
CONTINUOUS
 62
    3
 10
326.21184477934969
 20
136.9846653293919
 11
326.40128470755911
 21
134.57835017023859
  0
LINE
  8
_1-2_
  6
CONTINUOUS
 62
    3
 10
263.92941036739865
 20
163.62683270428633
 11
263.30927668391047
 21
161.72540613122891
  0
LINE
  8
_1-2_
  6
CONTINUOUS
 62
    7
 10
263.30927668391047
 20
161.72540613122891
 11
261.51078507706927
 21
156.21128391575169
  0
LINE
  8
_1-2_
  6
CONTINUOUS
 62
    3
 10
214.19281830658784
 20
186.17312869510135
 11
212.86183950063347
 21
186.60726186391472
  0
LINE
  8
_1-2_
  6
CONTINUOUS
 62
    3
 10
215.527904613598
 20
185.10656408361487
 11
214.31441023543076
 21
185.50236882390203
  0
LINE
  8
_1-2_
  6
CONTINUOUS
 62
    3
 10
214.19281830658784
 20
186.17312869510135
 11
214.31441023543076
 21
185.50236882390203
  0
LINE
  8
_1-2_
  6
CONTINUOUS
 62
    3
 10
215.527904613598
 20
185.10656408361487
 11
215.92044314822635
 21
183.08522817250847
  0
LINE
  8
_1-2_
  6
CONTINUOUS
 62
    3
 10
212.62197133657097
 20
184.58179370777029
 11
212.24165632918076
 21
184.70583529085727
  0
LINE
  8
_1-2_
  6
CONTINUOUS
 62
    7
 10
212.86183950063347
 20
186.60726186391472
 11
212.24165632918076
 21
184.70583529085727
  0
LINE
  8
_1-2_
  6
CONTINUOUS
 62
    3
 10
212.62197133657097
 20
184.58179370777029
 11
211.56767974028716
 21
181.34938832875847
  0
LINE
  8
_1-2_
  6
CONTINUOUS
 62
    7
 10
213.27892406566724
 20
180.79123832084039
 11
211.9643257759713
 21
178.69559623099664
  0
LINE
  8
_1-2_
  6
CONTINUOUS
 62
    7
 10
211.9643257759713
 20
178.69559623099664
 11
210.44321421030406
 21
179.19171307538008
  0
LINE
  8
_1-2_
  6
CONTINUOUS
 62
    3
 10
276.80682208086995
 20
156.9154976509713
 11
277.77940904771958
 21
161.8575142525338
  0
LINE
  8
_1-2_
  6
CONTINUOUS
 62
    3
 10
276.80682208086995
 20
156.9154976509713
 11
275.33366435282943
 21
157.55879170185813
  0
LINE
  8
_1-2_
  6
CONTINUOUS
 62
    3
 10
274.45743045291385
 20
160.83731986380914
 11
211.56767974028716
 21
181.34938832875847
  0
LINE
  8
_1-2_
  6
CONTINUOUS
 62
    3
 10
275.14427391258448
 20
159.96509448902029
 11
275.33366435282943
 21
157.55879170185813
  0
LINE
  8
_1-2_
  6
CONTINUOUS
 62
    3
 10
212.86183950063347
 20
186.60726186391472
 11
212.24165632918076
 21
184.70583529085727
  0
LINE
  8
_1-2_
  6
CONTINUOUS
 62
    7
 10
212.24165632918076
 20
184.70583529085727
 11
210.44321421030406
 21
179.19171307538008
  0
LINE
  8
_1-2_
  6
CONTINUOUS
 62
    3
 10
386.49343129750849
 20
105.19560117979309
 11
364.77370803420609
 21
112.41792421083193
  0
LINE
  8
_1-2_
  6
CONTINUOUS
 62
    3
 10
386.49343129750849
 20
108.35711504961994
 11
369.13641852301521
 21
114.12874788851352
  0
LINE
  8
ADD_LINE
  6
DOT
 62
    4
 10
386.49343129750849
 20
105.19558880780195
 11
366.48173564189193
 21
111.84996321394638
  0
LINE
  8
_1-0_
  6
CONTINUOUS
 62
    7
 10
22.155204979149062
 20
97.581073657886407
 11
204.32429958034209
 21
179.55718169341216
  0
LINE
  8
_1-0_
  6
CONTINUOUS
 62
    7
 10
386.49343129750849
 20
97.581073657886407
 11
204.32429958034209
 21
179.55718169341216
  0
LINE
  8
_1-1_
  6
CONTINUOUS
 62
    7
 10
217.65618401604732
 20
178.82149361275339
 11
213.27892406566724
 21
180.79123832084039
  0
LINE
  8
_1-1_
  6
CONTINUOUS
 62
    7
 10
213.27892406566724
 20
180.79123832084039
 11
212.04786146009292
 21
178.05546940983953
  0
LINE
  8
_1-2_
  6
CONTINUOUS
 62
    3
 10
214.19281830658784
 20
186.17312869510135
 11
212.86183950063347
 21
186.60726186391472
  0
LINE
  8
_1-2_
  6
CONTINUOUS
 62
    3
 10
215.527904613598
 20
185.10656408361487
 11
214.31441023543076
 21
185.50236882390203
  0
LINE
  8
_1-2_
  6
CONTINUOUS
 62
    3
 10
214.19281830658784
 20
186.17312869510135
 11
214.31441023543076
 21
185.50236882390203
  0
LINE
  8
_1-2_
  6
CONTINUOUS
 62
    3
 10
215.527904613598
 20
185.10656408361487
 11
215.92044314822635
 21
183.08522817250847
  0
LINE
  8
_1-2_
  6
CONTINUOUS
 62
    3
 10
212.62197133657097
 20
184.58179370777029
 11
212.24165632918076
 21
184.70583529085727
  0
LINE
  8
_1-2_
  6
CONTINUOUS
 62
    7
 10
212.86183950063347
 20
186.60726186391472
 11
212.24165632918076
 21
184.70583529085727
  0
LINE
  8
_1-2_
  6
CONTINUOUS
 62
    3
 10
212.62197133657097
 20
184.58179370777029
 11
211.56767974028716
 21
181.34938832875847
  0
LINE
  8
_1-2_
  6
CONTINUOUS
 62
    7
 10
213.27892406566724
 20
180.79123832084039
 11
211.9643257759713
 21
178.69559623099664
  0
LINE
  8
_1-2_
  6
CONTINUOUS
 62
    7
 10
211.9643257759713
 20
178.69559623099664
 11
210.44321421030406
 21
179.19171307538008
  0
LINE
  8
_1-2_
  6
CONTINUOUS
 62
    3
 10
212.86183950063347
 20
186.60726186391472
 11
212.24165632918076
 21
184.70583529085727
  0
LINE
  8
_1-2_
  6
CONTINUOUS
 62
    7
 10
212.24165632918076
 20
184.70583529085727
 11
210.44321421030406
 21
179.19171307538008
  0
LINE
  8
_1-0_
  6
CONTINUOUS
 62
    7
 10
386.49343129750849
 20
99.554938239020274
 11
218.32432102512669
 21
175.23104281038852
  0
LINE
  8
_1-0_
  6
CONTINUOUS
 62
    7
 10
386.49343129750849
 20
98.896971006651185
 11
218.32432102512669
 21
174.57306320602831
  0
LINE
  8
_1-0_
  6
CONTINUOUS
 62
    7
 10
204.32432432432432
 20
180.87306667018581
 11
204.3243119523332
 21
180.87306667018581
  0
LINE
  8
_1-0_
  6
CONTINUOUS
 62
    7
 10
22.155204979149062
 20
99.554932053024714
 11
190.32431525153083
 21
175.23104281038852
  0
LINE
  8
_1-0_
  6
CONTINUOUS
 62
    7
 10
22.155204979149062
 20
98.896977192646759
 11
190.32431525153083
 21
174.57307557801943
  0
LINE
  8
_1-0_
  6
CONTINUOUS
 62
    7
 10
204.32429958034209
 20
180.87306667018581
 11
204.3243119523332
 21
180.87306667018581
  0
LINE
  8
_1-3_
  6
CONTINUOUS
 62
    7
 10
190.32431525153083
 20
174.57307557801943
 11
204.32429958034209
 21
180.87307904217695
  0
LINE
  8
_1-3_
  6
CONTINUOUS
 62
    7
 10
218.32432102512669
 20
174.57306320602831
 11
204.32429958034209
 21
180.87307904217695
  0
LINE
  8
_1-3_
  6
CONTINUOUS
 62
    7
 10
218.32432102512669
 20
175.23104281038852
 11
204.32429958034209
 21
181.53104627454604
  0
LINE
  8
_1-3_
  6
CONTINUOUS
 62
    7
 10
190.32431525153083
 20
175.23104281038852
 11
204.32429958034209
 21
181.53104627454604
  0
LINE
  8
_1-2_
  6
CONTINUOUS
 62
    3
 10
133.78416731550888
 20
163.86011896906672
 11
192.72819312843117
 21
183.08522817250847
  0
LINE
  8
_1-2_
  6
CONTINUOUS
 62
    3
 10
274.86446896114865
 20
163.86011896906672
 11
215.92044314822635
 21
183.08522817250847
  0
LINE
  8
_1-3_
  6
CONTINUOUS
 62
    3
 10
187.21153465477198
 20
184.44147058435391
 11
186.2812970135663
 21
187.29358569995779
  0
LINE
  8
_1-3_
  6
CONTINUOUS
 62
    3
 10
186.2812970135663
 20
187.29358569995779
 11
203.39407431112755
 21
192.8750734071474
  0
LINE
  8
_1-3_
  6
CONTINUOUS
 62
    3
 10
203.39407431112755
 20
192.8750734071474
 11
204.32432432432432
 21
190.02294591955237
  0
LINE
  8
_1-3_
  6
CONTINUOUS
 62
    3
 10
204.32432432432432
 20
190.02294591955237
 11
187.21153465477198
 21
184.44147058435391
  0
LINE
  8
_1-3_
  6
CONTINUOUS
 62
    3
 10
187.21153465477198
 20
184.44147058435391
 11
203.39407431112755
 21
192.8750734071474
  0
LINE
  8
_1-3_
  6
CONTINUOUS
 62
    3
 10
204.32432432432432
 20
190.02294591955237
 11
205.25457433752112
 21
192.8750734071474
  0
LINE
  8
_1-3_
  6
CONTINUOUS
 62
    3
 10
205.25457433752112
 20
192.8750734071474
 11
222.36736400707349
 21
187.29359807194891
  0
LINE
  8
_1-3_
  6
CONTINUOUS
 62
    3
 10
222.36736400707349
 20
187.29359807194891
 11
221.43711399387669
 21
184.44147058435391
  0
LINE
  8
_1-3_
  6
CONTINUOUS
 62
    3
 10
204.32432432432432
 20
190.02294591955237
 11
222.36736400707349
 21
187.29359807194891
  0
LINE
  8
_1-3_
  6
CONTINUOUS
 62
    2
 10
204.32432432432432
 20
194.04159133498734
 11
184.54956467087206
 21
187.59187440614443
  0
LINE
  8
_1-3_
  6
CONTINUOUS
 62
    2
 10
204.32432432432432
 20
194.04159133498734
 11
224.09909634976776
 21
187.59188677813557
  0
LINE
  8
_1-3_
  6
CONTINUOUS
 62
    2
 10
181.10245575775971
 20
182.68092387431378
 11
184.14597794816302
 21
181.99849721547722
  0
LINE
  8
_1-3_
  6
CONTINUOUS
 62
    2
 10
185.6658646867082
 20
184.16932389542865
 11
181.10245575775971
 21
182.68092387431378
  0
LINE
  8
_1-3_
  6
CONTINUOUS
 62
    2
 10
184.54956467087206
 20
187.59187440614443
 11
185.6658646867082
 21
184.16932389542865
  0
LINE
  8
_1-3_
  6
CONTINUOUS
 62
    2
 10
227.54620526288008
 20
182.6809362463049
 11
224.5624521616343
 21
182.27890839447846
  0
LINE
  8
_1-3_
  6
CONTINUOUS
 62
    2
 10
222.98279633393159
 20
184.16932389542865
 11
227.54620526288008
 21
182.6809362463049
  0
LINE
  8
_1-3_
  6
CONTINUOUS
 62
    7
 10
187.60102967958193
 20
184.56849381730365
 11
188.53127969277872
 21
181.71636632970862
  0
LINE
  8
_1-3_
  6
CONTINUOUS
 62
    7
 10
190.45315716717695
 20
185.49874383050044
 11
191.38340718037375
 21
182.64661634290542
  0
LINE
  8
_1-3_
  6
CONTINUOUS
 62
    7
 10
221.03876062341641
 20
184.57137649123734
 11
220.10851061021961
 21
181.71924900364232
  0
LINE
  8
_1-3_
  6
CONTINUOUS
 62
    7
 10
218.18662076383026
 20
185.50162650443414
 11
217.25637075063347
 21
182.64949901683912
  0
LINE
  8
_1-3_
  6
CONTINUOUS
 62
    7
 10
217.40377065297722
 20
183.10142310889992
 11
218.14579319309544
 21
182.35940056878169
  0
LINE
  8
_1-3_
  6
CONTINUOUS
 62
    7
 10
217.61246139938768
 20
183.74126537426099
 11
219.40501445048565
 21
181.94869995117187
  0
LINE
  8
_1-3_
  6
CONTINUOUS
 62
    7
 10
217.82115214579815
 20
184.38109526763091
 11
220.2006077122044
 21
182.00162732923354
  0
LINE
  8
_1-3_
  6
CONTINUOUS
 62
    7
 10
218.02984289220862
 20
185.02092516100086
 11
220.40929845861487
 21
182.64145722260346
  0
LINE
  8
_1-3_
  6
CONTINUOUS
 62
    7
 10
218.499755859375
 20
185.3995080896326
 11
220.61798920502534
 21
183.28128711597341
  0
LINE
  8
_1-3_
  6
CONTINUOUS
 62
    7
 10
219.75897711676521
 20
184.98879510003169
 11
220.82665520745357
 21
183.92111700934333
  0
LINE
  8
_1-3_
  6
CONTINUOUS
 62
    7
 10
221.01819837415542
 20
184.57809448242187
 11
221.03534595386404
 21
184.56094690271328
  0
LINE
  8
_1-3_
  6
CONTINUOUS
 62
    7
 10
219.95353904930323
 20
181.76978858741555
 11
220.20798141891893
 21
182.02423095703125
  0
LINE
  8
_1-3_
  6
CONTINUOUS
 62
    7
 10
219.31370915593328
 20
181.97847933382602
 11
220.61868203652872
 21
183.28346458641261
  0
LINE
  8
_1-3_
  6
CONTINUOUS
 62
    7
 10
218.67387926256336
 20
182.18717008023648
 11
221.02940739812078
 21
184.54271058778505
  0
LINE
  8
_1-3_
  6
CONTINUOUS
 62
    7
 10
218.03402462521117
 20
182.39586082664698
 11
220.41350493559966
 21
184.77532876504435
  0
LINE
  8
_1-3_
  6
CONTINUOUS
 62
    7
 10
217.39419473184122
 20
182.6045392010663
 11
219.77367504222974
 21
184.9840071394637
  0
LINE
  8
_1-3_
  6
CONTINUOUS
 62
    7
 10
217.5786116316512
 20
183.63751385663008
 11
219.13382040487755
 21
185.19269788587417
  0
LINE
  8
_1-3_
  6
CONTINUOUS
 62
    7
 10
217.98933699324326
 20
184.89675985800255
 11
218.49396576752534
 21
185.40138863228464
  0
LINE
  8
_1-3_
  6
CONTINUOUS
 62
    7
 10
191.01015657991977
 20
182.52487595016893
 11
191.32154722471495
 21
182.83626659496412
  0
LINE
  8
_1-3_
  6
CONTINUOUS
 62
    7
 10
189.75092295053844
 20
182.114162960568
 11
191.11286885029563
 21
183.47610886032518
  0
LINE
  8
_1-3_
  6
CONTINUOUS
 62
    7
 10
188.52472253747891
 20
181.73648318728885
 11
190.90417810388516
 21
184.11595112568625
  0
LINE
  8
_1-3_
  6
CONTINUOUS
 62
    7
 10
188.31603179106841
 20
182.37633782464107
 11
190.69548735747466
 21
184.75579339104732
  0
LINE
  8
_1-3_
  6
CONTINUOUS
 62
    7
 10
188.10734104465794
 20
183.01616771801099
 11
190.48679661106419
 21
185.39562328441724
  0
LINE
  8
_1-3_
  6
CONTINUOUS
 62
    7
 10
187.89865029824747
 20
183.65600998337206
 11
189.39688605231208
 21
185.15424573743667
  0
LINE
  8
_1-3_
  6
CONTINUOUS
 62
    7
 10
187.68995955183701
 20
184.29585224873313
 11
188.13762767894849
 21
184.74352037584461
  0
LINE
  8
_1-3_
  6
CONTINUOUS
 62
    7
 10
188.2606671307538
 20
182.54606917097763
 11
188.95286766258448
 21
181.85386863914698
  0
LINE
  8
_1-3_
  6
CONTINUOUS
 62
    7
 10
187.84996651314401
 20
183.80527805637669
 11
189.59268518396328
 21
182.06255938555745
  0
LINE
  8
_1-3_
  6
CONTINUOUS
 62
    7
 10
187.85305951092695
 20
184.65070569837417
 11
190.2325150773332
 21
182.27123775997677
  0
LINE
  8
_1-3_
  6
CONTINUOUS
 62
    7
 10
188.49288940429687
 20
184.85939644478464
 11
190.87234497070312
 21
182.47992850638727
  0
LINE
  8
_1-3_
  6
CONTINUOUS
 62
    7
 10
189.13270692567568
 20
185.06807481920399
 11
191.30074990762247
 21
182.90003183725719
  0
LINE
  8
_1-3_
  6
CONTINUOUS
 62
    7
 10
189.77253681904563
 20
185.27676556561445
 11
190.89004929001268
 21
184.15926546663852
  0
LINE
  8
_1-3_
  6
CONTINUOUS
 62
    7
 10
190.41237908440669
 20
185.48545631202492
 11
190.47933630041175
 21
185.41849909601987
  0
LINE
  8
_1-4_
  6
CONTINUOUS
 62
    7
 10
188.54617557010135
 20
187.17214223500847
 11
176.94425428235854
 21
219.04815673828125
  0
LINE
  8
_1-4_
  6
CONTINUOUS
 62
    7
 10
219.16108827333193
 20
183.0691198400549
 11
230.154369457348
 21
213.27293602195948
  0
LINE
  8
_1-4_
  6
CONTINUOUS
 62
    7
 10
178.83085921004013
 20
239.01533796980576
 11
174.83085838524073
 21
239.01533796980576
  0
LINE
  8
_1-4_
  6
CONTINUOUS
 62
    7
 10
176.94425428235854
 20
219.04815673828125
 11
172.94425345755914
 21
219.04815673828125
  0
LINE
  8
_1-4_
  6
CONTINUOUS
 62
    7
 10
230.154369457348
 20
213.27293602195948
 11
234.15435791015625
 21
213.27293602195948
  0
LINE
  8
_1-4_
  6
CONTINUOUS
 62
    7
 10
196.16820051863388
 20
191.38139054581927
 11
178.83085921004013
 21
239.01533796980576
  0
LINE
  8
_1-3_
  6
CONTINUOUS
 62
    7
 10
91.956587095518373
 20
132.64974233266472
 11
111.5496826171875
 21
78.818157299144858
  0
LINE
  8
_1-5_
  6
DASHED1
 62
    7
 10
191.79275925095018
 20
187.93713956265836
 11
192.50250326620568
 21
187.82412142366977
  0
LINE
  8
_1-5_
  6
DASHED1
 62
    7
 10
192.50250326620568
 20
187.82412142366977
 11
191.97880925358953
 21
187.36671653953761
  0
LINE
  8
_1-5_
  6
DASHED1
 62
    7
 10
216.59852723817568
 20
187.23233197186445
 11
216.18636672561234
 21
187.69597233952703
  0
LINE
  8
_1-5_
  6
DASHED1
 62
    7
 10
216.18636672561234
 20
187.69597233952703
 11
216.78457724081505
 21
187.80275499498524
  0
LINE
  8
_1-5_
  6
DASHED1
 62
    7
 10
186.62151439769849
 20
186.25047838365711
 11
191.79275925095018
 21
187.93713956265836
  0
LINE
  8
_1-5_
  6
DASHED1
 62
    7
 10
186.80756440033784
 20
185.68005536053633
 11
191.97880925358953
 21
187.36671653953761
  0
LINE
  8
_1-5_
  6
DASHED1
 62
    7
 10
187.00180466110643
 20
186.37450759475297
 11
187.18785466374578
 21
185.80408457163219
  0
LINE
  8
_1-5_
  6
DASHED1
 62
    7
 10
187.38208255252323
 20
186.49853680584883
 11
187.56813255516261
 21
185.92811378272805
  0
LINE
  8
_1-5_
  6
DASHED1
 62
    7
 10
187.76236044394005
 20
186.62256601694469
 11
187.9484104465794
 21
186.05214299382391
  0
LINE
  8
_1-5_
  6
DASHED1
 62
    7
 10
188.14263833535685
 20
186.74659522804055
 11
188.3286883379962
 21
186.17617220491977
  0
LINE
  8
_1-5_
  6
DASHED1
 62
    7
 10
188.52291622677365
 20
186.87062443913641
 11
188.70896622941302
 21
186.30020141601562
  0
LINE
  8
_1-5_
  6
DASHED1
 62
    7
 10
188.90319411819047
 20
186.99465365023227
 11
189.08924412082982
 21
186.42423062711148
  0
LINE
  8
_1-5_
  6
DASHED1
 62
    7
 10
189.28347200960727
 20
187.11868286132812
 11
189.46952201224664
 21
186.54825983820737
  0
LINE
  8
_1-5_
  6
DASHED1
 62
    7
 10
189.66374990102409
 20
187.24271207242398
 11
189.84979990366344
 21
186.67228904930323
  0
LINE
  8
_1-5_
  6
DASHED1
 62
    7
 10
190.04402779244089
 20
187.36674128351987
 11
190.23007779508023
 21
186.79631826039909
  0
LINE
  8
_1-5_
  6
DASHED1
 62
    7
 10
190.42430568385771
 20
187.49077049461573
 11
190.61035568649706
 21
186.92034747149495
  0
LINE
  8
_1-5_
  6
DASHED1
 62
    7
 10
190.80458357527451
 20
187.61479970571159
 11
190.99063357791385
 21
187.04437668259081
  0
LINE
  8
_1-5_
  6
DASHED1
 62
    7
 10
191.1848614666913
 20
187.73882891680745
 11
191.37091146933068
 21
187.16840589368667
  0
LINE
  8
_1-5_
  6
DASHED1
 62
    7
 10
191.56513935810813
 20
187.86285812790331
 11
191.75118936074747
 21
187.29243510478253
  0
LINE
  8
_1-5_
  6
DASHED1
 62
    7
 10
221.60039953283362
 20
186.23203174487966
 11
221.41432478621201
 21
185.66160872175888
  0
LINE
  8
_1-5_
  6
DASHED1
 62
    7
 10
221.22010926942568
 20
186.35608569995779
 11
221.03403452280406
 21
185.78566267683701
  0
LINE
  8
_1-5_
  6
DASHED1
 62
    7
 10
220.83981900601776
 20
186.48013965503591
 11
220.65374425939612
 21
185.90971663191513
  0
LINE
  8
_1-5_
  6
DASHED1
 62
    7
 10
220.45952874260982
 20
186.60419361011404
 11
220.27345399598818
 21
186.03377058699326
  0
LINE
  8
_1-5_
  6
DASHED1
 62
    7
 10
220.07923847920188
 20
186.72824756519216
 11
219.89316373258026
 21
186.15782454207138
  0
LINE
  8
_1-5_
  6
DASHED1
 62
    7
 10
219.69894821579393
 20
186.85230152027029
 11
219.51287346917232
 21
186.28187849714951
  0
LINE
  8
_1-5_
  6
DASHED1
 62
    7
 10
219.31865795238599
 20
186.97635547534841
 11
219.13258320576438
 21
186.40593245222763
  0
LINE
  8
_1-5_
  6
DASHED1
 62
    7
 10
218.93836768897805
 20
187.10040943042654
 11
218.75229294235643
 21
186.52998640730576
  0
LINE
  8
_1-5_
  6
DASHED1
 62
    7
 10
218.5580774255701
 20
187.22446338550466
 11
218.37200267894849
 21
186.65404036238388
  0
LINE
  8
_1-5_
  6
DASHED1
 62
    7
 10
218.17778716216216
 20
187.34851734058279
 11
217.99171241554055
 21
186.77809431746201
  0
LINE
  8
_1-5_
  6
DASHED1
 62
    7
 10
217.79749689875425
 20
187.47257129566091
 11
217.6114221521326
 21
186.90214827254013
  0
LINE
  8
_1-5_
  6
DASHED1
 62
    7
 10
217.4172066353463
 20
187.59662525073904
 11
217.23113188872466
 21
187.02620222761826
  0
LINE
  8
_1-5_
  6
DASHED1
 62
    7
 10
217.03691637193836
 20
187.72067920581716
 11
216.85084162531675
 21
187.15025618269638
  0
LINE
  8
_1-5_
  6
DASHED1
 62
    7
 10
221.9806650522593
 20
186.1080025337838
 11
216.78457724081505
 21
187.80275499498524
  0
LINE
  8
_1-5_
  6
DASHED1
 62
    7
 10
221.79461504961995
 20
185.53757951066302
 11
216.59852723817568
 21
187.23233197186445
  0
LINE
  8
_1-5_
  6
CONTINUOUS
 62
    7
 10
186.62151439769849
 20
186.25047838365711
 11
185.14422442461995
 21
185.76863881703972
  0
LINE
  8
_1-5_
  6
CONTINUOUS
 62
    7
 10
186.80756440033784
 20
185.68005536053633
 11
185.3302744272593
 21
185.19822816591005
  0
LINE
  8
_1-3_
  6
CONTINUOUS
 62
    2
 10
224.09909634976776
 20
187.59188677813557
 11
223.14034126900339
 21
184.65236354518581
  0
LINE
  8
_1-3_
  6
CONTINUOUS
 62
    2
 10
223.14249399546031
 20
184.65904442039698
 11
223.13930202174834
 21
184.64914682749156
  0
LINE
  8
_1-3_
  6
CONTINUOUS
 62
    2
 10
223.13930202174834
 20
184.64914682749156
 11
223.11057425834039
 21
184.56108299461573
  0
LINE
  8
_1-3_
  6
CONTINUOUS
 62
    2
 10
223.11057425834039
 20
184.56108299461573
 11
222.98279633393159
 21
184.16932389542865
  0
LINE
  8
_1-5_
  6
CONTINUOUS
 62
    7
 10
221.9806650522593
 20
186.1080025337838
 11
223.45795502533784
 21
185.62617533915753
  0
LINE
  8
_1-5_
  6
CONTINUOUS
 62
    7
 10
221.79461504961995
 20
185.53757951066302
 11
223.27190502269849
 21
185.05573994404563
  0
LINE
  8
_1-5_
  6
CONTINUOUS
 62
    7
 10
193.59883488835516
 20
177.32054839263091
 11
193.90819652660474
 21
177.26832621806378
  0
LINE
  8
_1-5_
  6
CONTINUOUS
 62
    7
 10
193.90819652660474
 20
177.26832621806378
 11
194.17499851536107
 21
177.48797854861698
  0
LINE
  8
_1-5_
  6
DASHED1
 62
    7
 10
191.9932844832137
 20
182.8455332163218
 11
193.59883488835516
 21
177.32054839263091
  0
LINE
  8
_1-5_
  6
DASHED1
 62
    7
 10
192.56400443412164
 20
183.03168219489021
 11
194.17499851536107
 21
177.48797854861698
  0
LINE
  8
_1-5_
  6
CONTINUOUS
 62
    7
 10
190.31535792995146
 20
188.61956622149495
 11
190.31807976800044
 21
188.61021299619932
  0
LINE
  8
_1-5_
  6
CONTINUOUS
 62
    7
 10
191.15567593961148
 20
185.72788547825169
 11
191.9932844832137
 21
182.8455332163218
  0
LINE
  8
_1-5_
  6
CONTINUOUS
 62
    7
 10
191.72639589051943
 20
185.9140344568201
 11
192.56400443412164
 21
183.03168219489021
  0
LINE
  8
_1-5_
  6
DASHED1
 62
    7
 10
191.72639589051943
 20
185.91402208482899
 11
190.88878734691724
 21
188.79636197476773
  0
LINE
  8
_1-5_
  6
DASHED1
 62
    7
 10
191.15567593961148
 20
185.72787310626057
 11
190.31807976800044
 21
188.61021299619932
  0
LINE
  8
_1-5_
  6
DASHED1
 62
    7
 10
214.39759950380068
 20
178.06370915593328
 11
214.51112489442568
 21
177.47991201039909
  0
LINE
  8
_1-5_
  6
DASHED1
 62
    7
 10
214.51112489442568
 20
177.47991201039909
 11
214.91717364336995
 21
177.73194184174409
  0
LINE
  8
_1-5_
  6
DASHED1
 62
    7
 10
214.39759950380068
 20
178.06370915593328
 11
216.13108866923565
 21
183.0165265057538
  0
LINE
  8
_1-5_
  6
DASHED1
 62
    7
 10
217.12238208667654
 20
185.84875983160896
 11
218.11365076013516
 21
188.680980785473
  0
LINE
  8
_1-5_
  6
DASHED1
 62
    7
 10
214.91717364336995
 20
177.73194184174409
 11
216.70163541226776
 21
182.83043938714107
  0
LINE
  8
_1-5_
  6
DASHED1
 62
    7
 10
217.69292882970862
 20
185.6626727129962
 11
218.68419750316724
 21
188.49489366686024
  0
LINE
  8
_1-5_
  6
CONTINUOUS
 62
    7
 10
217.12238208667654
 20
185.84875983160896
 11
216.13108866923565
 21
183.0165265057538
  0
LINE
  8
_1-5_
  6
CONTINUOUS
 62
    7
 10
216.70163541226776
 20
182.83043938714107
 11
217.69292882970862
 21
185.6626727129962
  0
LINE
  8
_1-5_
  6
DASHED1
 62
    7
 10
192.07705523516682
 20
182.55726582295188
 11
192.64668645085516
 21
182.74713877085094
  0
LINE
  8
_1-5_
  6
DASHED1
 62
    7
 10
192.41217535895271
 20
181.40406015756969
 11
193.02616016284841
 21
181.6087176348712
  0
LINE
  8
_1-5_
  6
DASHED1
 62
    7
 10
192.20354647249789
 20
182.17779211095862
 11
192.7583931587838
 21
182.36274100638727
  0
LINE
  8
_1-5_
  6
DASHED1
 62
    7
 10
192.33003770982899
 20
181.79831839896539
 11
192.87009986671242
 21
181.97833086993245
  0
LINE
  8
_1-5_
  6
DASHED1
 62
    7
 10
192.52388206688136
 20
181.01966239310602
 11
193.09351328256969
 21
181.20953534100508
  0
LINE
  8
_1-5_
  6
DASHED1
 62
    7
 10
192.63558877480997
 20
180.6352522566512
 11
193.20521999049834
 21
180.82512520455026
  0
LINE
  8
_1-5_
  6
DASHED1
 62
    7
 10
192.74729548273862
 20
180.2508544921875
 11
193.31692669842695
 21
180.44072744008659
  0
LINE
  8
_1-5_
  6
DASHED1
 62
    7
 10
192.85900219066724
 20
179.86645672772383
 11
193.42863340635557
 21
180.05632967562289
  0
LINE
  8
_1-5_
  6
DASHED1
 62
    7
 10
192.97070889859586
 20
179.48204659126901
 11
193.54034011428422
 21
179.67191953916807
  0
LINE
  8
_1-5_
  6
DASHED1
 62
    7
 10
193.08241560652451
 20
179.09764882680534
 11
193.65204682221284
 21
179.2875217747044
  0
LINE
  8
_1-5_
  6
DASHED1
 62
    7
 10
193.19412231445312
 20
178.71325106234164
 11
193.76375353014149
 21
178.90312401024073
  0
LINE
  8
_1-5_
  6
DASHED1
 62
    7
 10
193.30582902238177
 20
178.32884092588682
 11
193.8754602380701
 21
178.51871387378591
  0
LINE
  8
_1-5_
  6
DASHED1
 62
    7
 10
193.41753573031039
 20
177.94444316142315
 11
193.98716694599875
 21
178.13431610932221
  0
LINE
  8
_1-5_
  6
DASHED1
 62
    7
 10
193.52924243823904
 20
177.56004539695948
 11
194.09887365392737
 21
177.74991834485854
  0
LINE
  8
_1-5_
  6
DASHED1
 62
    7
 10
216.12708014410896
 20
183.03816511824326
 11
216.68797673405828
 21
182.82448845940669
  0
LINE
  8
_1-5_
  6
DASHED1
 62
    7
 10
215.55254961993245
 20
181.52223741686024
 11
216.39755661423143
 21
181.24663894240922
  0
LINE
  8
_1-5_
  6
DASHED1
 62
    7
 10
216.2694817620355
 20
183.41196008630703
 11
216.83037835198482
 21
183.19828342747044
  0
LINE
  8
_1-5_
  6
DASHED1
 62
    7
 10
215.99890631598396
 20
182.63889622043919
 11
216.56947780299834
 21
182.45280910182643
  0
LINE
  8
_1-5_
  6
DASHED1
 62
    7
 10
215.86674870671453
 20
182.26125356313347
 11
216.43729544974664
 21
182.0751664445207
  0
LINE
  8
_1-5_
  6
DASHED1
 62
    7
 10
215.73456635346284
 20
181.88362327781886
 11
216.30511309649495
 21
181.69753615920609
  0
LINE
  8
_1-5_
  6
DASHED1
 62
    7
 10
215.60240874419341
 20
181.5059806205131
 11
216.17295548722552
 21
181.31989350190034
  0
LINE
  8
_1-5_
  6
DASHED1
 62
    7
 10
215.47022639094175
 20
181.12833796320737
 11
216.04077313397383
 21
180.94225084459461
  0
LINE
  8
_1-5_
  6
DASHED1
 62
    7
 10
215.33804403769005
 20
180.75070767789273
 11
215.9086155247044
 21
180.56462055928
  0
LINE
  8
_1-5_
  6
DASHED1
 62
    7
 10
215.20588642842063
 20
180.37306502058701
 11
215.77643317145271
 21
180.18697790197425
  0
LINE
  8
_1-5_
  6
DASHED1
 62
    7
 10
215.07370407516893
 20
179.99542236328125
 11
215.64425081820102
 21
179.80933524466852
  0
LINE
  8
_1-5_
  6
DASHED1
 62
    7
 10
214.94152172191724
 20
179.61779207796664
 11
215.51209320893159
 21
179.43170495935391
  0
LINE
  8
_1-5_
  6
DASHED1
 62
    7
 10
214.80936411264781
 20
179.24014942066091
 11
215.37991085567992
 21
179.05406230204815
  0
LINE
  8
_1-5_
  6
DASHED1
 62
    7
 10
214.67718175939612
 20
178.8625191353463
 11
215.2477532464105
 21
178.67643201673354
  0
LINE
  8
_1-5_
  6
DASHED1
 62
    7
 10
214.54499940614443
 20
178.48487647804055
 11
215.1155708931588
 21
178.29878935942779
  0
LINE
  8
_1-5_
  6
DASHED1
 62
    7
 10
214.412841796875
 20
178.10723382073482
 11
214.98338853990711
 21
177.92114670212206
  0
LINE
  8
_1-5_
  6
CONTINUOUS
 62
    7
 10
228.08569830817146
 20
185.12769544446792
 11
234.93661416543497
 21
203.95046749630492
  0
LINE
  8
_1-5_
  6
CONTINUOUS
 62
    7
 10
228.08569830817146
 20
185.12769544446792
 11
224.20213029191302
 21
185.25715595967063
  0
LINE
  8
_1-5_
  6
CONTINUOUS
 62
    7
 10
234.93661416543497
 20
203.95046749630492
 11
236.62954794394005
 21
203.95046749630492
  0
LINE
  8
_1-5_
  6
CONTINUOUS
 62
    7
 10
224.20213029191302
 20
185.25715595967063
 11
225.01083786423143
 21
185.43508993612755
  0
LINE
  8
_1-5_
  6
CONTINUOUS
 62
    7
 10
26.258852159654765
 20
88.461858388539909
 11
204.32429958034209
 21
168.59131684174409
  0
LINE
  8
_1-5_
  6
CONTINUOUS
 62
    7
 10
36.107603537069792
 20
66.57574421650655
 11
204.32432432432432
 21
142.27324614653716
  0
LINE
  8
_1-5_
  6
CONTINUOUS
 62
    7
 10
372.54101727459886
 20
66.57574421650655
 11
204.32432432432432
 21
142.27324614653716
  0
LINE
  8
_1-0_
  6
CONTINUOUS
 62
    7
 10
72.26251138223185
 20
109.16350905959671
 11
51.734421188766902
 21
73.607810767921251
  0
LINE
  8
_1-0_
  6
CONTINUOUS
 62
    7
 10
69.142511728647605
 20
107.7595107619827
 11
48.614421535182657
 21
72.203806284311653
  0
LINE
  8
_1-0_
  6
CONTINUOUS
 62
    7
 10
66.022512075063332
 20
106.35551246436867
 11
45.494428067593958
 21
70.799814172693203
  0
LINE
  8
_1-0_
  6
CONTINUOUS
 62
    7
 10
161.03111473289698
 20
149.10937747439823
 11
140.50299979544977
 21
113.55366062473607
  0
LINE
  8
_1-0_
  6
CONTINUOUS
 62
    7
 10
164.15110820048565
 20
150.51337577201227
 11
143.6230180070207
 21
114.95767129434122
  0
LINE
  8
_1-0_
  6
CONTINUOUS
 62
    7
 10
167.27110166807432
 20
151.91737406962628
 11
146.74299910261826
 21
116.36165721996412
  0
LINE
  8
_1-0_
  6
CONTINUOUS
 62
    7
 10
266.79248706714526
 20
140.48063123548354
 11
254.73132984058279
 21
119.59009118982264
  0
LINE
  8
_1-0_
  6
CONTINUOUS
 62
    7
 10
264.95935388513516
 20
141.30553374419341
 11
252.89819665857266
 21
120.41499369853253
  0
LINE
  8
_1-0_
  6
CONTINUOUS
 62
    7
 10
263.126220703125
 20
142.13044862489443
 11
251.0650634765625
 21
121.23990857923354
  0
LINE
  8
_1-5_
  6
CONTINUOUS
 62
    7
 10
335.7767300992399
 20
109.4377342430321
 11
204.32429958034209
 21
168.59131684174409
  0
LINE
  8
_1-5_
  6
CONTINUOUS
 62
    7
 10
362.6216744087838
 20
97.357499406144427
 11
336.41401136243667
 21
109.15095148859798
  0
LINE
  8
_1-5_
  6
CONTINUOUS
 62
    7
 10
336.41401136243667
 20
109.15095148859798
 11
335.7767300992399
 21
109.4377342430321
  0
LINE
  8
_1-0_
  6
CONTINUOUS
 62
    7
 10
343.19213042388094
 20
106.10079791094806
 11
331.13097319731844
 21
85.210257865287161
  0
LINE
  8
_1-0_
  6
CONTINUOUS
 62
    7
 10
345.02526360589104
 20
105.27588303024704
 11
332.96410637932854
 21
84.385349170581719
  0
LINE
  8
_1-0_
  6
CONTINUOUS
 62
    7
 10
346.85837204391896
 20
104.45098052153716
 11
334.79721481735646
 21
83.56045284786741
  0
LINE
  8
_1-5_
  6
CONTINUOUS
 62
    7
 10
111.5496826171875
 20
78.818157299144858
 11
117.16234774202914
 21
63.397497228673984
  0
LINE
  8
_1-5_
  6
CONTINUOUS
 62
    7
 10
362.6216744087838
 20
97.357499406144427
 11
381.73395105310391
 21
88.756973679001277
  0
LINE
  8
_1-5_
  6
CONTINUOUS
 62
    7
 10
195.36971221099029
 20
180.79123832084039
 11
196.60079956054687
 21
178.05546940983953
  0
LINE
  8
_1-5_
  6
CONTINUOUS
 62
    7
 10
218.18662076383026
 20
185.50162650443414
 11
221.01819837415542
 21
184.57809448242187
  0
LINE
  8
_1-5_
  6
CONTINUOUS
 62
    3
 10
204.32432432432432
 20
190.02294591955237
 11
221.43711399387669
 21
184.44147058435391
  0
LINE
  8
_1-2_
  6
CONTINUOUS
 62
    7
 10
365.15511177681589
 20
109.76189278267526
 11
363.63687051309125
 21
110.26675662478885
  0
LINE
  8
_1-5_
  6
CONTINUOUS
 62
    7
 10
366.48173564189193
 20
111.84996321394638
 11
365.15511177681589
 21
109.76189278267526
  0
LINE
  8
_1-5_
  6
CONTINUOUS
 62
    7
 10
366.48173564189193
 20
111.84996321394638
 11
369.62788349873313
 21
107.14443722286741
  0
LINE
  8
_1-5_
  6
CONTINUOUS
 62
    7
 10
42.166913006756772
 20
111.84996321394638
 11
39.020777521906666
 21
107.14443722286741
  0
LINE
  8
_1-5_
  6
CONTINUOUS
 62
    7
 10
43.493524499841641
 20
109.76189278267526
 11
42.166925378747891
 21
111.84996321394638
  0
ARC
  8
_1-2_
  6
CONTINUOUS
 62
    3
 10
33.444399447054479
 20
112.16303644953548
 40
6.01062568458351
 50
107.38015747070314
 51
141.59829711914062
  0
ARC
  8
_1-2_
  6
CONTINUOUS
 62
    3
 10
32.366106187975078
 20
113.92576063001479
 40
0.9999999162313101
 50
108.06419372558594
 51
175.49896240234378
  0
ARC
  8
_1-2_
  6
CONTINUOUS
 62
    3
 10
84.511995057801954
 20
135.14346560916385
 40
6.01062568458351
 50
107.38015747070314
 51
141.59829711914062
  0
ARC
  8
_1-2_
  6
CONTINUOUS
 62
    3
 10
83.433701798722552
 20
136.90618978964318
 40
0.9999999162313101
 50
108.06419372558594
 51
175.49896240234378
  0
ARC
  8
_1-2_
  6
CONTINUOUS
 62
    3
 10
135.57959066854943
 20
158.12389476879224
 40
6.01062568458351
 50
107.38015747070314
 51
141.59829711914062
  0
ARC
  8
_1-2_
  6
CONTINUOUS
 62
    3
 10
134.50129740947003
 20
159.88660657728042
 40
0.9999999162313101
 50
108.06419372558594
 51
175.49896240234378
  0
ARC
  8
_1-2_
  6
CONTINUOUS
 62
    3
 10
375.20423682960308
 20
112.16303644953548
 40
6.01062568458351
 50
38.401657104492202
 51
72.619796752929702
  0
ARC
  8
_1-2_
  6
CONTINUOUS
 62
    3
 10
376.28253008868245
 20
113.92576063001479
 40
0.9999999162313101
 50
4.5005950927734588
 51
71.935363769531278
  0
ARC
  8
_1-2_
  6
CONTINUOUS
 62
    3
 10
324.13666596283787
 20
135.14346560916385
 40
6.01062568458351
 50
38.401657104492202
 51
72.619796752929702
  0
ARC
  8
_1-2_
  6
CONTINUOUS
 62
    3
 10
325.21495922191724
 20
136.90618978964318
 40
0.9999999162313101
 50
4.5005950927734588
 51
71.935363769531278
  0
ARC
  8
_1-2_
  6
CONTINUOUS
 62
    3
 10
273.06904560810813
 20
158.12389476879224
 40
6.01062568458351
 50
38.401657104492202
 51
72.619796752929702
  0
ARC
  8
_1-2_
  6
CONTINUOUS
 62
    3
 10
274.1473388671875
 20
159.88660657728042
 40
0.9999999162313101
 50
4.5005950927734588
 51
71.935363769531278
  0
CIRCLE
  8
_1-0_
  6
CONTINUOUS
 62
    7
 10
24.843994346824843
 20
95.151313575538438
 40
0.2346452265172391
  0
CIRCLE
  8
_1-0_
  6
CONTINUOUS
 62
    7
 10
27.000936559728672
 20
97.142338108372044
 40
0.2346452265172391
  0
CIRCLE
  8
_1-0_
  6
CONTINUOUS
 62
    7
 10
28.660125732421875
 20
96.146825841955248
 40
0.2346452265172391
  0
CIRCLE
  8
_1-0_
  6
CONTINUOUS
 62
    7
 10
26.83502197265625
 20
95.483148935678855
 40
0.2346452265172391
  0
CIRCLE
  8
_1-0_
  6
CONTINUOUS
 62
    7
 10
26.171345066379843
 20
94.653551256334467
 40
0.2346452265172391
  0
CIRCLE
  8
_1-0_
  6
CONTINUOUS
 62
    7
 10
29.821558771906666
 20
95.980905068887253
 40
0.2346452265172391
  0
CIRCLE
  8
_1-0_
  6
CONTINUOUS
 62
    7
 10
30.651150265255495
 20
97.640094241580456
 40
0.2346452265172391
  0
CIRCLE
  8
_1-0_
  6
CONTINUOUS
 62
    7
 10
30.153394132047083
 20
99.962954134554479
 40
0.2346452265172391
  0
CIRCLE
  8
_1-0_
  6
CONTINUOUS
 62
    7
 10
36.956065409892318
 20
100.95846640097129
 40
0.2346452265172391
  0
CIRCLE
  8
_1-0_
  6
CONTINUOUS
 62
    7
 10
33.969528610641902
 20
99.133362641205665
 40
0.2346452265172391
  0
CIRCLE
  8
_1-0_
  6
CONTINUOUS
 62
    7
 10
33.139930931297499
 20
98.137850374788854
 40
0.2346452265172391
  0
CIRCLE
  8
_1-0_
  6
CONTINUOUS
 62
    7
 10
35.628717783335105
 20
99.631118774414063
 40
0.2346452265172391
  0
CIRCLE
  8
_1-0_
  6
CONTINUOUS
 62
    7
 10
37.45382154310073
 20
100.46071645375845
 40
0.2346452265172391
  0
CIRCLE
  8
_1-0_
  6
CONTINUOUS
 62
    7
 10
35.296876237199115
 20
102.11989944045608
 40
0.2346452265172391
  0
CIRCLE
  8
_1-0_
  6
CONTINUOUS
 62
    7
 10
37.45382154310073
 20
102.61766175966005
 40
0.2346452265172391
  0
CIRCLE
  8
_1-0_
  6
CONTINUOUS
 62
    7
 10
38.947089942725938
 20
101.45622872017526
 40
0.2346452265172391
  0
CIRCLE
  8
_1-0_
  6
CONTINUOUS
 62
    7
 10
37.121986182960313
 20
100.46071645375845
 40
0.2346452265172391
  0
CIRCLE
  8
_1-0_
  6
CONTINUOUS
 62
    7
 10
37.45382154310073
 20
99.797039547482058
 40
0.2346452265172391
  0
CIRCLE
  8
_1-0_
  6
CONTINUOUS
 62
    7
 10
41.435876794763516
 20
100.79255181389887
 40
0.2346452265172391
  0
CIRCLE
  8
_1-0_
  6
CONTINUOUS
 62
    7
 10
41.435876794763516
 20
101.62214949324324
 40
0.2346452265172391
  0
CIRCLE
  8
_1-0_
  6
CONTINUOUS
 62
    7
 10
41.601791381835938
 20
102.61766175966005
 40
0.2346452265172391
  0
CIRCLE
  8
_1-0_
  6
CONTINUOUS
 62
    7
 10
41.435876794763516
 20
103.77908861314928
 40
0.2346452265172391
  0
CIRCLE
  8
_1-0_
  6
CONTINUOUS
 62
    7
 10
43.758736687737553
 20
104.44276551942568
 40
0.2346452265172391
  0
CIRCLE
  8
_1-0_
  6
CONTINUOUS
 62
    7
 10
43.92465746080552
 20
103.44725325300887
 40
0.2346452265172391
  0
CIRCLE
  8
_1-0_
  6
CONTINUOUS
 62
    7
 10
43.592822100665131
 20
102.45174098659207
 40
0.2346452265172391
  0
CIRCLE
  8
_1-0_
  6
CONTINUOUS
 62
    7
 10
45.417925860430756
 20
103.77908861314928
 40
0.2346452265172391
  0
CIRCLE
  8
_1-0_
  6
CONTINUOUS
 62
    7
 10
42.763224421320729
 20
104.60868629249367
 40
0.2346452265172391
  0
CIRCLE
  8
_1-0_
  6
CONTINUOUS
 62
    7
 10
48.736304205817135
 20
106.4337900522593
 40
0.2346452265172391
  0
CIRCLE
  8
_1-0_
  6
CONTINUOUS
 62
    7
 10
46.579355806917761
 20
104.94051546663852
 40
0.2346452265172391
  0
CIRCLE
  8
_1-0_
  6
CONTINUOUS
 62
    7
 10
48.736298019821589
 20
106.93153999947214
 40
0.2346452265172391
  0
CIRCLE
  8
_1-0_
  6
CONTINUOUS
 62
    7
 10
50.395487192514793
 20
105.93602773305533
 40
0.2346452265172391
  0
CIRCLE
  8
_1-0_
  6
CONTINUOUS
 62
    7
 10
48.570383432749168
 20
105.27235701277449
 40
0.2346452265172391
  0
CIRCLE
  8
_1-0_
  6
CONTINUOUS
 62
    7
 10
47.90670652647276
 20
104.44275314743454
 40
0.2346452265172391
  0
CIRCLE
  8
_1-0_
  6
CONTINUOUS
 62
    7
 10
51.556920231999584
 20
105.77010695998733
 40
0.2346452265172391
  0
CIRCLE
  8
_1-0_
  6
CONTINUOUS
 62
    7
 10
52.386511725348385
 20
107.42928994668497
 40
0.2346452265172391
  0
CIRCLE
  8
_1-0_
  6
CONTINUOUS
 62
    7
 10
51.888755592140001
 20
109.75215602565457
 40
0.2346452265172391
  0
CIRCLE
  8
_1-0_
  6
CONTINUOUS
 62
    7
 10
58.691426869985207
 20
110.74766829207138
 40
0.2346452265172391
  0
CIRCLE
  8
_1-0_
  6
CONTINUOUS
 62
    7
 10
55.704890070734791
 20
108.92256453230576
 40
0.2346452265172391
  0
CIRCLE
  8
_1-0_
  6
CONTINUOUS
 62
    7
 10
54.875292391390417
 20
107.92705226588895
 40
0.2346452265172391
  0
CIRCLE
  8
_1-0_
  6
CONTINUOUS
 62
    7
 10
57.364079243427994
 20
109.42031447951858
 40
0.2346452265172391
  0
CIRCLE
  8
_1-0_
  6
CONTINUOUS
 62
    7
 10
59.189183003193619
 20
110.24991834485854
 40
0.2346452265172391
  0
CIRCLE
  8
_1-0_
  6
CONTINUOUS
 62
    7
 10
60.682451402818828
 20
111.24543061127534
 40
0.2346452265172391
  0
CIRCLE
  8
_1-0_
  6
CONTINUOUS
 62
    7
 10
58.857347643053203
 20
110.24991834485854
 40
0.2346452265172391
  0
CIRCLE
  8
_1-0_
  6
CONTINUOUS
 62
    7
 10
59.189183003193619
 20
109.58624762457771
 40
0.2346452265172391
  0
CIRCLE
  8
_1-0_
  6
CONTINUOUS
 62
    7
 10
63.171238254856405
 20
110.58174751900339
 40
0.2346452265172391
  0
CIRCLE
  8
_1-0_
  6
CONTINUOUS
 62
    7
 10
62.673475935652448
 20
112.73870519689612
 40
0.2346452265172391
  0
CIRCLE
  8
_1-0_
  6
CONTINUOUS
 62
    7
 10
64.830421241554063
 20
114.72972972972974
 40
0.2346452265172391
  0
CIRCLE
  8
_1-0_
  6
CONTINUOUS
 62
    7
 10
66.489610414247238
 20
113.73421746331293
 40
0.2346452265172391
  0
CIRCLE
  8
_1-0_
  6
CONTINUOUS
 62
    7
 10
64.664506654481613
 20
113.0705467430321
 40
0.2346452265172391
  0
CIRCLE
  8
_1-0_
  6
CONTINUOUS
 62
    7
 10
64.000829748205234
 20
112.24094287769215
 40
0.2346452265172391
  0
CIRCLE
  8
_1-0_
  6
CONTINUOUS
 62
    7
 10
67.651043453732058
 20
113.56829669024494
 40
0.2346452265172391
  0
CIRCLE
  8
_1-0_
  6
CONTINUOUS
 62
    7
 10
68.480634947080887
 20
115.22747967694258
 40
0.2346452265172391
  0
CIRCLE
  8
_1-0_
  6
CONTINUOUS
 62
    7
 10
67.982878813872475
 20
117.55034575591218
 40
0.2346452265172391
  0
CIRCLE
  8
_1-0_
  6
CONTINUOUS
 62
    7
 10
74.78555009171771
 20
118.54585802232897
 40
0.2346452265172391
  0
CIRCLE
  8
_1-0_
  6
CONTINUOUS
 62
    7
 10
71.799013292467293
 20
116.72075426256335
 40
0.2346452265172391
  0
CIRCLE
  8
_1-0_
  6
CONTINUOUS
 62
    7
 10
70.969415613122891
 20
115.72524199614655
 40
0.2346452265172391
  0
CIRCLE
  8
_1-0_
  6
CONTINUOUS
 62
    7
 10
73.458202465160468
 20
117.21850420977619
 40
0.2346452265172391
  0
CIRCLE
  8
_1-0_
  6
CONTINUOUS
 62
    7
 10
75.283306224926093
 20
118.04810807511613
 40
0.2346452265172391
  0
CIRCLE
  8
_1-0_
  6
CONTINUOUS
 62
    7
 10
76.776574624551301
 20
119.04362034153294
 40
0.2346452265172391
  0
CIRCLE
  8
_1-0_
  6
CONTINUOUS
 62
    7
 10
74.951470864785676
 20
118.04810807511613
 40
0.2346452265172391
  0
CIRCLE
  8
_1-0_
  6
CONTINUOUS
 62
    7
 10
75.283306224926093
 20
117.38443735483531
 40
0.2346452265172391
  0
CIRCLE
  8
_1-0_
  6
CONTINUOUS
 62
    7
 10
79.265361476588907
 20
118.37993724926099
 40
0.2346452265172391
  0
CIRCLE
  8
_1-0_
  6
CONTINUOUS
 62
    7
 10
80.094959155933282
 20
121.69831559464738
 40
0.2346452265172391
  0
CIRCLE
  8
_1-0_
  6
CONTINUOUS
 62
    7
 10
82.251904461834883
 20
123.689340127481
 40
0.2346452265172391
  0
CIRCLE
  8
_1-0_
  6
CONTINUOUS
 62
    7
 10
83.911093634528086
 20
122.69382786106419
 40
0.2346452265172391
  0
CIRCLE
  8
_1-0_
  6
CONTINUOUS
 62
    7
 10
82.085989874762461
 20
122.03014476879224
 40
0.2346452265172391
  0
CIRCLE
  8
_1-0_
  6
CONTINUOUS
 62
    7
 10
81.422312968486068
 20
121.20055327544343
 40
0.2346452265172391
  0
CIRCLE
  8
_1-0_
  6
CONTINUOUS
 62
    7
 10
85.072526674012892
 20
122.52790708799621
 40
0.2346452265172391
  0
CIRCLE
  8
_1-0_
  6
CONTINUOUS
 62
    7
 10
85.902118167361706
 20
124.18710244668497
 40
0.2346452265172391
  0
CIRCLE
  8
_1-0_
  6
CONTINUOUS
 62
    7
 10
85.404362034153294
 20
126.50995615366344
 40
0.2346452265172391
  0
CIRCLE
  8
_1-0_
  6
CONTINUOUS
 62
    7
 10
92.207033311998529
 20
127.50546842008025
 40
0.2346452265172391
  0
CIRCLE
  8
_1-0_
  6
CONTINUOUS
 62
    7
 10
89.220496512748099
 20
125.68036466031462
 40
0.2346452265172391
  0
CIRCLE
  8
_1-0_
  6
CONTINUOUS
 62
    7
 10
88.390898833403725
 20
124.68485239389781
 40
0.2346452265172391
  0
CIRCLE
  8
_1-0_
  6
CONTINUOUS
 62
    7
 10
90.879685685441302
 20
126.17812697951859
 40
0.2346452265172391
  0
CIRCLE
  8
_1-0_
  6
CONTINUOUS
 62
    7
 10
92.704789445206927
 20
127.00771847286741
 40
0.2346452265172391
  0
CIRCLE
  8
_1-0_
  6
CONTINUOUS
 62
    7
 10
94.198057844832135
 20
128.00323073928422
 40
0.2346452265172391
  0
CIRCLE
  8
_1-0_
  6
CONTINUOUS
 62
    7
 10
92.37295408506651
 20
127.00771847286741
 40
0.2346452265172391
  0
CIRCLE
  8
_1-0_
  6
CONTINUOUS
 62
    7
 10
92.704789445206927
 20
126.34403538059544
 40
0.2346452265172391
  0
CIRCLE
  8
_1-0_
  6
CONTINUOUS
 62
    7
 10
96.686844696869727
 20
127.33956001900339
 40
0.2346452265172391
  0
CIRCLE
  8
_1-0_
  6
CONTINUOUS
 62
    7
 10
100.33704603040542
 20
129.66242609797297
 40
0.2346452265172391
  0
CIRCLE
  8
_1-0_
  6
CONTINUOUS
 62
    7
 10
102.49399133630702
 20
131.65345063080659
 40
0.2346452265172391
  0
CIRCLE
  8
_1-0_
  6
CONTINUOUS
 62
    7
 10
104.15318669499578
 20
130.65793836438979
 40
0.2346452265172391
  0
CIRCLE
  8
_1-0_
  6
CONTINUOUS
 62
    7
 10
102.3280767492346
 20
129.99426764410896
 40
0.2346452265172391
  0
CIRCLE
  8
_1-0_
  6
CONTINUOUS
 62
    7
 10
101.6643998429582
 20
129.16466377876901
 40
0.2346452265172391
  0
CIRCLE
  8
_1-0_
  6
CONTINUOUS
 62
    7
 10
105.31461973448059
 20
130.4920175913218
 40
0.2346452265172391
  0
CIRCLE
  8
_1-0_
  6
CONTINUOUS
 62
    7
 10
106.1442112278294
 20
132.15120057801943
 40
0.2346452265172391
  0
CIRCLE
  8
_1-0_
  6
CONTINUOUS
 62
    7
 10
105.64644890862543
 20
134.47406665698904
 40
0.2346452265172391
  0
CIRCLE
  8
_1-0_
  6
CONTINUOUS
 62
    7
 10
112.44912637246622
 20
135.46957892340583
 40
0.2346452265172391
  0
CIRCLE
  8
_1-0_
  6
CONTINUOUS
 62
    7
 10
109.46257720122466
 20
133.64447516364021
 40
0.2346452265172391
  0
CIRCLE
  8
_1-0_
  6
CONTINUOUS
 62
    7
 10
108.63298570787585
 20
132.64896289722341
 40
0.2346452265172391
  0
CIRCLE
  8
_1-0_
  6
CONTINUOUS
 62
    7
 10
111.12177255991344
 20
134.14222511085305
 40
0.2346452265172391
  0
CIRCLE
  8
_1-0_
  6
CONTINUOUS
 62
    7
 10
112.94687631967906
 20
134.971828976193
 40
0.2346452265172391
  0
CIRCLE
  8
_1-0_
  6
CONTINUOUS
 62
    7
 10
114.44015090529983
 20
135.96734124260979
 40
0.2346452265172391
  0
CIRCLE
  8
_1-0_
  6
CONTINUOUS
 62
    7
 10
112.61503477354309
 20
134.971828976193
 40
0.2346452265172391
  0
CIRCLE
  8
_1-0_
  6
CONTINUOUS
 62
    7
 10
112.94687631967906
 20
134.30815825591216
 40
0.2346452265172391
  0
CIRCLE
  8
_1-0_
  6
CONTINUOUS
 62
    7
 10
116.92892538534629
 20
135.30365815033784
 40
0.2346452265172391
  0
CIRCLE
  8
_1-0_
  6
CONTINUOUS
 62
    7
 10
118.09037079682221
 20
136.79693273595862
 40
0.2346452265172391
  0
CIRCLE
  8
_1-0_
  6
CONTINUOUS
 62
    7
 10
120.24731610272383
 20
138.78795726879224
 40
0.2346452265172391
  0
CIRCLE
  8
_1-0_
  6
CONTINUOUS
 62
    7
 10
121.90649908942146
 20
137.79244500237542
 40
0.2346452265172391
  0
CIRCLE
  8
_1-0_
  6
CONTINUOUS
 62
    7
 10
120.08140770164697
 20
137.12877428209461
 40
0.2346452265172391
  0
CIRCLE
  8
_1-0_
  6
CONTINUOUS
 62
    7
 10
119.417724609375
 20
136.29917041675466
 40
0.2346452265172391
  0
CIRCLE
  8
_1-0_
  6
CONTINUOUS
 62
    7
 10
123.06793212890625
 20
137.62652422930745
 40
0.2346452265172391
  0
CIRCLE
  8
_1-0_
  6
CONTINUOUS
 62
    7
 10
123.89752362225508
 20
139.28570721600508
 40
0.2346452265172391
  0
CIRCLE
  8
_1-0_
  6
CONTINUOUS
 62
    7
 10
123.39977367504224
 20
141.60857329497466
 40
0.2346452265172391
  0
CIRCLE
  8
_1-0_
  6
CONTINUOUS
 62
    7
 10
130.2024387668919
 20
142.60408556139149
 40
0.2346452265172391
  0
CIRCLE
  8
_1-0_
  6
CONTINUOUS
 62
    7
 10
127.2159143396326
 20
140.77898180162586
 40
0.2346452265172391
  0
CIRCLE
  8
_1-0_
  6
CONTINUOUS
 62
    7
 10
126.38631047429266
 20
139.78346953520904
 40
0.2346452265172391
  0
CIRCLE
  8
_1-0_
  6
CONTINUOUS
 62
    7
 10
128.87509732633023
 20
141.2767317488387
 40
0.2346452265172391
  0
CIRCLE
  8
_1-0_
  6
CONTINUOUS
 62
    7
 10
130.70020108609586
 20
142.10633561417865
 40
0.2346452265172391
  0
CIRCLE
  8
_1-0_
  6
CONTINUOUS
 62
    7
 10
132.19346329972552
 20
143.10184788059544
 40
0.2346452265172391
  0
CIRCLE
  8
_1-0_
  6
CONTINUOUS
 62
    7
 10
130.36837191195102
 20
142.10633561417865
 40
0.2346452265172391
  0
CIRCLE
  8
_1-0_
  6
CONTINUOUS
 62
    7
 10
130.70020108609586
 20
141.44266489389781
 40
0.2346452265172391
  0
CIRCLE
  8
_1-0_
  6
CONTINUOUS
 62
    7
 10
134.68226252375422
 20
142.43816478832349
 40
0.2346452265172391
  0
CIRCLE
  8
_1-0_
  6
CONTINUOUS
 62
    7
 10
134.68223777977198
 20
144.42918932115711
 40
0.2346452265172391
  0
CIRCLE
  8
_1-0_
  6
CONTINUOUS
 62
    7
 10
136.83917071368245
 20
146.42021385399073
 40
0.2346452265172391
  0
CIRCLE
  8
_1-0_
  6
CONTINUOUS
 62
    7
 10
138.4983660723712
 20
145.42470158757391
 40
0.2346452265172391
  0
CIRCLE
  8
_1-0_
  6
CONTINUOUS
 62
    7
 10
136.67326231260557
 20
144.76103086729307
 40
0.2346452265172391
  0
CIRCLE
  8
_1-0_
  6
CONTINUOUS
 62
    7
 10
136.00957922033362
 20
143.93142700195312
 40
0.2346452265172391
  0
CIRCLE
  8
_1-0_
  6
CONTINUOUS
 62
    7
 10
139.65979911185602
 20
145.25878081450591
 40
0.2346452265172391
  0
CIRCLE
  8
_1-0_
  6
CONTINUOUS
 62
    7
 10
140.48939060520482
 20
146.91796380120357
 40
0.2346452265172391
  0
CIRCLE
  8
_1-0_
  6
CONTINUOUS
 62
    7
 10
139.99162828600086
 20
149.24082988017315
 40
0.2346452265172391
  0
CIRCLE
  8
_1-0_
  6
CONTINUOUS
 62
    7
 10
146.79430574984164
 20
150.23634214658995
 40
0.2346452265172391
  0
CIRCLE
  8
_1-0_
  6
CONTINUOUS
 62
    7
 10
143.80776895059122
 20
148.41123838682432
 40
0.2346452265172391
  0
CIRCLE
  8
_1-0_
  6
CONTINUOUS
 62
    7
 10
142.9781774572424
 20
147.41572612040753
 40
0.2346452265172391
  0
CIRCLE
  8
_1-0_
  6
CONTINUOUS
 62
    7
 10
145.46695193728885
 20
148.90898833403716
 40
0.2346452265172391
  0
CIRCLE
  8
_1-0_
  6
CONTINUOUS
 62
    7
 10
147.29206806904563
 20
149.73859219937711
 40
0.2346452265172391
  0
CIRCLE
  8
_1-0_
  6
CONTINUOUS
 62
    7
 10
148.78533028267526
 20
150.73410446579393
 40
0.2346452265172391
  0
CIRCLE
  8
_1-0_
  6
CONTINUOUS
 62
    7
 10
146.96022652290964
 20
149.73859219937711
 40
0.2346452265172391
  0
CIRCLE
  8
_1-0_
  6
CONTINUOUS
 62
    7
 10
147.29206806904563
 20
149.0749214790963
 40
0.2346452265172391
  0
CIRCLE
  8
_1-0_
  6
CONTINUOUS
 62
    7
 10
151.27411713471284
 20
150.07042137352198
 40
0.2346452265172391
  0
CIRCLE
  8
_1-0_
  6
CONTINUOUS
 62
    7
 10
149.11718420080237
 20
152.89104977169552
 40
0.2346452265172391
  0
CIRCLE
  8
_1-0_
  6
CONTINUOUS
 62
    7
 10
151.27411713471284
 20
154.88207430452914
 40
0.2346452265172391
  0
CIRCLE
  8
_1-0_
  6
CONTINUOUS
 62
    7
 10
152.93331249340162
 20
153.88656203811234
 40
0.2346452265172391
  0
CIRCLE
  8
_1-0_
  6
CONTINUOUS
 62
    7
 10
151.10820873363599
 20
153.22287894584039
 40
0.2346452265172391
  0
CIRCLE
  8
_1-0_
  6
CONTINUOUS
 62
    7
 10
150.44452564136404
 20
152.39328745249156
 40
0.2346452265172391
  0
CIRCLE
  8
_1-0_
  6
CONTINUOUS
 62
    7
 10
154.09474553288641
 20
153.72064126504435
 40
0.2346452265172391
  0
CIRCLE
  8
_1-0_
  6
CONTINUOUS
 62
    7
 10
154.92433702623524
 20
155.37983662373313
 40
0.2346452265172391
  0
CIRCLE
  8
_1-0_
  6
CONTINUOUS
 62
    7
 10
161.22925217087206
 20
158.69820259712839
 40
0.2346452265172391
  0
CIRCLE
  8
_1-0_
  6
CONTINUOUS
 62
    7
 10
158.24271537162164
 20
156.87309883736276
 40
0.2346452265172391
  0
CIRCLE
  8
_1-0_
  6
CONTINUOUS
 62
    7
 10
157.41312387827281
 20
155.87758657094597
 40
0.2346452265172391
  0
CIRCLE
  8
_1-0_
  6
CONTINUOUS
 62
    7
 10
159.90189835831927
 20
157.37086115656672
 40
0.2346452265172391
  0
CIRCLE
  8
_1-0_
  6
CONTINUOUS
 62
    7
 10
161.72701449007602
 20
158.20045264991555
 40
0.2346452265172391
  0
CIRCLE
  8
_1-0_
  6
CONTINUOUS
 62
    7
 10
163.22027670370568
 20
159.19596491633234
 40
0.2346452265172391
  0
CIRCLE
  8
_1-0_
  6
CONTINUOUS
 62
    7
 10
161.39517294394005
 20
158.20045264991555
 40
0.2346452265172391
  0
CIRCLE
  8
_1-0_
  6
CONTINUOUS
 62
    7
 10
161.72701449007602
 20
157.53676955764359
 40
0.2346452265172391
  0
CIRCLE
  8
_1-0_
  6
CONTINUOUS
 62
    7
 10
165.70906355574326
 20
158.53229419605154
 40
0.2346452265172391
  0
CIRCLE
  8
_1-0_
  6
CONTINUOUS
 62
    7
 10
170.02295416754646
 20
161.02106867609797
 40
0.2346452265172391
  0
CIRCLE
  8
_1-0_
  6
CONTINUOUS
 62
    7
 10
172.17988710145693
 20
163.01209320893159
 40
0.2346452265172391
  0
CIRCLE
  8
_1-0_
  6
CONTINUOUS
 62
    7
 10
173.8390824601457
 20
162.01658094251479
 40
0.2346452265172391
  0
CIRCLE
  8
_1-0_
  6
CONTINUOUS
 62
    7
 10
172.01397870038008
 20
161.35291022223396
 40
0.2346452265172391
  0
CIRCLE
  8
_1-0_
  6
CONTINUOUS
 62
    7
 10
171.35029560810813
 20
160.52330635689401
 40
0.2346452265172391
  0
CIRCLE
  8
_1-0_
  6
CONTINUOUS
 62
    7
 10
175.0005154996305
 20
161.8506601694468
 40
0.2346452265172391
  0
CIRCLE
  8
_1-0_
  6
CONTINUOUS
 62
    7
 10
175.83010699297932
 20
163.50984315614443
 40
0.2346452265172391
  0
CIRCLE
  8
_1-0_
  6
CONTINUOUS
 62
    7
 10
175.33234467377534
 20
165.83270923511404
 40
0.2346452265172391
  0
CIRCLE
  8
_1-0_
  6
CONTINUOUS
 62
    7
 10
182.13502213761615
 20
166.82822150153083
 40
0.2346452265172391
  0
CIRCLE
  8
_1-0_
  6
CONTINUOUS
 62
    7
 10
179.14848533836573
 20
165.00311774176521
 40
0.2346452265172391
  0
CIRCLE
  8
_1-0_
  6
CONTINUOUS
 62
    7
 10
178.3188938450169
 20
164.00760547534841
 40
0.2346452265172391
  0
CIRCLE
  8
_1-0_
  6
CONTINUOUS
 62
    7
 10
180.80766832506336
 20
165.50086768897805
 40
0.2346452265172391
  0
CIRCLE
  8
_1-0_
  6
CONTINUOUS
 62
    7
 10
182.6327844568201
 20
166.330471554318
 40
0.2346452265172391
  0
CIRCLE
  8
_1-0_
  6
CONTINUOUS
 62
    7
 10
184.12604667044977
 20
167.32598382073482
 40
0.2346452265172391
  0
CIRCLE
  8
_1-0_
  6
CONTINUOUS
 62
    7
 10
182.30094291068414
 20
166.330471554318
 40
0.2346452265172391
  0
CIRCLE
  8
_1-0_
  6
CONTINUOUS
 62
    7
 10
182.6327844568201
 20
165.66680083403716
 40
0.2346452265172391
  0
CIRCLE
  8
_1-0_
  6
CONTINUOUS
 62
    7
 10
186.61483352248734
 20
166.66230072846284
 40
0.2346452265172391
  0
CIRCLE
  8
_1-0_
  6
CONTINUOUS
 62
    7
 10
189.60135794974664
 20
170.97619134026607
 40
0.2346452265172391
  0
CIRCLE
  8
_1-0_
  6
CONTINUOUS
 62
    7
 10
191.26055330843539
 20
169.98067907384925
 40
0.2346452265172391
  0
CIRCLE
  8
_1-0_
  6
CONTINUOUS
 62
    7
 10
189.43544954866977
 20
169.31700835356841
 40
0.2346452265172391
  0
CIRCLE
  8
_1-0_
  6
CONTINUOUS
 62
    7
 10
188.77176645639781
 20
168.48740448822846
 40
0.2346452265172391
  0
CIRCLE
  8
_1-0_
  6
CONTINUOUS
 62
    7
 10
192.42198634792021
 20
169.81475830078125
 40
0.2346452265172391
  0
CIRCLE
  8
_1-0_
  6
CONTINUOUS
 62
    7
 10
193.25157784126901
 20
171.47394128747891
 40
0.2346452265172391
  0
CIRCLE
  8
_1-0_
  6
CONTINUOUS
 62
    7
 10
192.75381552206505
 20
173.79680736644849
 40
0.2346452265172391
  0
CIRCLE
  8
_1-0_
  6
CONTINUOUS
 62
    7
 10
199.55649298590583
 20
174.79231963286529
 40
0.2346452265172391
  0
CIRCLE
  8
_1-0_
  6
CONTINUOUS
 62
    7
 10
196.56995618665542
 20
172.96721587309966
 40
0.2346452265172391
  0
CIRCLE
  8
_1-0_
  6
CONTINUOUS
 62
    7
 10
195.74036469330659
 20
171.97170360668287
 40
0.2346452265172391
  0
CIRCLE
  8
_1-0_
  6
CONTINUOUS
 62
    7
 10
198.22913917335305
 20
173.4649658203125
 40
0.2346452265172391
  0
CIRCLE
  8
_1-0_
  6
CONTINUOUS
 62
    7
 10
200.05425530510982
 20
174.29456968565245
 40
0.2346452265172391
  0
CIRCLE
  8
_1-0_
  6
CONTINUOUS
 62
    7
 10
201.54751751873945
 20
175.29008195206927
 40
0.2346452265172391
  0
CIRCLE
  8
_1-0_
  6
CONTINUOUS
 62
    7
 10
199.72241375897383
 20
174.29456968565245
 40
0.2346452265172391
  0
CIRCLE
  8
_1-0_
  6
CONTINUOUS
 62
    7
 10
200.05425530510982
 20
173.63089896537164
 40
0.2346452265172391
  0
CIRCLE
  8
_1-0_
  6
CONTINUOUS
 62
    7
 10
204.03630437077703
 20
174.62639885979732
 40
0.2346452265172391
  0
CIRCLE
  8
_1-0_
  6
CONTINUOUS
 62
    7
 10
183.34340688344597
 20
168.7676053433805
 40
0.2346452265172391
  0
CIRCLE
  8
_1-0_
  6
CONTINUOUS
 62
    7
 10
194.12813341295399
 20
175.07252048801732
 40
0.2346452265172391
  0
CIRCLE
  8
_1-0_
  6
CONTINUOUS
 62
    7
 10
191.14159661370357
 20
173.24741672825169
 40
0.2346452265172391
  0
CIRCLE
  8
_1-0_
  6
CONTINUOUS
 62
    7
 10
190.31200512035474
 20
172.2519044618349
 40
0.2346452265172391
  0
CIRCLE
  8
_1-0_
  6
CONTINUOUS
 62
    7
 10
192.8007796004012
 20
173.74516667546453
 40
0.2346452265172391
  0
CIRCLE
  8
_1-0_
  6
CONTINUOUS
 62
    7
 10
194.62589573215794
 20
174.57477054080448
 40
0.2346452265172391
  0
CIRCLE
  8
_1-0_
  6
CONTINUOUS
 62
    7
 10
196.11915794578761
 20
175.5702828072213
 40
0.2346452265172391
  0
CIRCLE
  8
_1-0_
  6
CONTINUOUS
 62
    7
 10
194.29405418602198
 20
174.57477054080448
 40
0.2346452265172391
  0
CIRCLE
  8
_1-0_
  6
CONTINUOUS
 62
    7
 10
194.62589573215794
 20
173.91109982052365
 40
0.2346452265172391
  0
CIRCLE
  8
_1-0_
  6
CONTINUOUS
 62
    7
 10
198.60794479782518
 20
174.90659971494932
 40
0.2346452265172391
  0
CIRCLE
  8
_1-0_
  6
CONTINUOUS
 62
    7
 10
176.00543047930745
 20
164.75738525390625
 40
0.2346452265172391
  0
CIRCLE
  8
_1-0_
  6
CONTINUOUS
 62
    7
 10
178.16236341321792
 20
166.74840978673987
 40
0.2346452265172391
  0
CIRCLE
  8
_1-0_
  6
CONTINUOUS
 62
    7
 10
179.82155877190669
 20
165.75289752032307
 40
0.2346452265172391
  0
CIRCLE
  8
_1-0_
  6
CONTINUOUS
 62
    7
 10
177.99645501214107
 20
165.08922680004224
 40
0.2346452265172391
  0
CIRCLE
  8
_1-0_
  6
CONTINUOUS
 62
    7
 10
177.33277191986909
 20
164.25962293470229
 40
0.2346452265172391
  0
CIRCLE
  8
_1-0_
  6
CONTINUOUS
 62
    7
 10
180.98299181139149
 20
165.58697674725508
 40
0.2346452265172391
  0
CIRCLE
  8
_1-0_
  6
CONTINUOUS
 62
    7
 10
181.81258330474029
 20
167.24615973395271
 40
0.2346452265172391
  0
CIRCLE
  8
_1-0_
  6
CONTINUOUS
 62
    7
 10
188.11749844937711
 20
170.56453807933912
 40
0.2346452265172391
  0
CIRCLE
  8
_1-0_
  6
CONTINUOUS
 62
    7
 10
185.13096165012669
 20
168.73943431957349
 40
0.2346452265172391
  0
CIRCLE
  8
_1-0_
  6
CONTINUOUS
 62
    7
 10
184.30137015677789
 20
167.74392205315669
 40
0.2346452265172391
  0
CIRCLE
  8
_1-0_
  6
CONTINUOUS
 62
    7
 10
188.61526076858109
 20
170.06678813212628
 40
0.2346452265172391
  0
CIRCLE
  8
_1-0_
  6
CONTINUOUS
 62
    7
 10
190.10852298221073
 20
171.06230039854307
 40
0.2346452265172391
  0
CIRCLE
  8
_1-0_
  6
CONTINUOUS
 62
    7
 10
188.2834192224451
 20
170.06678813212628
 40
0.2346452265172391
  0
CIRCLE
  8
_1-0_
  6
CONTINUOUS
 62
    7
 10
188.61526076858109
 20
169.40311741184544
 40
0.2346452265172391
  0
CIRCLE
  8
_1-0_
  6
CONTINUOUS
 62
    7
 10
192.59730983424834
 20
170.39861730627112
 40
0.2346452265172391
  0
CIRCLE
  8
_1-0_
  6
CONTINUOUS
 62
    7
 10
233.64812077702703
 20
161.8506601694468
 40
0.2346452265172391
  0
CIRCLE
  8
_1-0_
  6
CONTINUOUS
 62
    7
 10
232.8185540276605
 20
163.50984315614443
 40
0.2346452265172391
  0
CIRCLE
  8
_1-0_
  6
CONTINUOUS
 62
    7
 10
233.31630397487334
 20
165.83270923511404
 40
0.2346452265172391
  0
CIRCLE
  8
_1-0_
  6
CONTINUOUS
 62
    7
 10
226.51363888302367
 20
166.82822150153083
 40
0.2346452265172391
  0
CIRCLE
  8
_1-0_
  6
CONTINUOUS
 62
    7
 10
229.50016331028294
 20
165.00311774176521
 40
0.2346452265172391
  0
CIRCLE
  8
_1-0_
  6
CONTINUOUS
 62
    7
 10
230.32975480363177
 20
164.00760547534841
 40
0.2346452265172391
  0
CIRCLE
  8
_1-0_
  6
CONTINUOUS
 62
    7
 10
227.84098032358531
 20
165.50086768897805
 40
0.2346452265172391
  0
CIRCLE
  8
_1-0_
  6
CONTINUOUS
 62
    7
 10
226.01586419182857
 20
166.330471554318
 40
0.2346452265172391
  0
CIRCLE
  8
_1-0_
  6
CONTINUOUS
 62
    7
 10
224.52258960620779
 20
167.32598382073482
 40
0.2346452265172391
  0
CIRCLE
  8
_1-0_
  6
CONTINUOUS
 62
    7
 10
226.34770573796453
 20
166.330471554318
 40
0.2346452265172391
  0
CIRCLE
  8
_1-0_
  6
CONTINUOUS
 62
    7
 10
226.01586419182857
 20
165.66680083403716
 40
0.2346452265172391
  0
CIRCLE
  8
_1-0_
  6
CONTINUOUS
 62
    7
 10
222.03381512616133
 20
166.66230072846284
 40
0.2346452265172391
  0
CIRCLE
  8
_1-0_
  6
CONTINUOUS
 62
    7
 10
221.2042236328125
 20
168.98516680743245
 40
0.2346452265172391
  0
CIRCLE
  8
_1-0_
  6
CONTINUOUS
 62
    7
 10
219.04729069890203
 20
170.97619134026607
 40
0.2346452265172391
  0
CIRCLE
  8
_1-0_
  6
CONTINUOUS
 62
    7
 10
217.3881077122044
 20
169.98067907384925
 40
0.2346452265172391
  0
CIRCLE
  8
_1-0_
  6
CONTINUOUS
 62
    7
 10
219.21319909997891
 20
169.31700835356841
 40
0.2346452265172391
  0
CIRCLE
  8
_1-0_
  6
CONTINUOUS
 62
    7
 10
219.87688219225086
 20
168.48740448822846
 40
0.2346452265172391
  0
CIRCLE
  8
_1-0_
  6
CONTINUOUS
 62
    7
 10
216.22667467271961
 20
169.81475830078125
 40
0.2346452265172391
  0
CIRCLE
  8
_1-0_
  6
CONTINUOUS
 62
    7
 10
215.39705843538852
 20
171.47394128747891
 40
0.2346452265172391
  0
CIRCLE
  8
_1-0_
  6
CONTINUOUS
 62
    7
 10
226.63258320576438
 20
169.26536766258448
 40
0.2346452265172391
  0
CIRCLE
  8
_1-0_
  6
CONTINUOUS
 62
    7
 10
222.81644254117401
 20
170.26087992900128
 40
0.2346452265172391
  0
CIRCLE
  8
_1-0_
  6
CONTINUOUS
 62
    7
 10
224.64155867293076
 20
169.59720920872044
 40
0.2346452265172391
  0
CIRCLE
  8
_1-0_
  6
CONTINUOUS
 62
    7
 10
225.30524176520271
 20
168.7676053433805
 40
0.2346452265172391
  0
CIRCLE
  8
_1-0_
  6
CONTINUOUS
 62
    7
 10
221.65500950168919
 20
170.09495915593328
 40
0.2346452265172391
  0
CIRCLE
  8
_1-0_
  6
CONTINUOUS
 62
    7
 10
220.82544275232266
 20
171.75414214263091
 40
0.2346452265172391
  0
CIRCLE
  8
_1-0_
  6
CONTINUOUS
 62
    7
 10
218.33664352829393
 20
172.2519044618349
 40
0.2346452265172391
  0
CIRCLE
  8
_1-0_
  6
CONTINUOUS
 62
    7
 10
232.64321816934122
 20
164.75738525390625
 40
0.2346452265172391
  0
CIRCLE
  8
_1-0_
  6
CONTINUOUS
 62
    7
 10
230.48628523543076
 20
166.74840978673987
 40
0.2346452265172391
  0
CIRCLE
  8
_1-0_
  6
CONTINUOUS
 62
    7
 10
228.82710224873313
 20
165.75289752032307
 40
0.2346452265172391
  0
CIRCLE
  8
_1-0_
  6
CONTINUOUS
 62
    7
 10
230.6521936365076
 20
165.08922680004224
 40
0.2346452265172391
  0
CIRCLE
  8
_1-0_
  6
CONTINUOUS
 62
    7
 10
231.31587672877959
 20
164.25962293470229
 40
0.2346452265172391
  0
CIRCLE
  8
_1-0_
  6
CONTINUOUS
 62
    7
 10
227.66566920924834
 20
165.58697674725508
 40
0.2346452265172391
  0
CIRCLE
  8
_1-0_
  6
CONTINUOUS
 62
    7
 10
226.83605297191724
 20
167.24615973395271
 40
0.2346452265172391
  0
CIRCLE
  8
_1-0_
  6
CONTINUOUS
 62
    7
 10
220.53113782728042
 20
170.56453807933912
 40
0.2346452265172391
  0
CIRCLE
  8
_1-0_
  6
CONTINUOUS
 62
    7
 10
223.51768699852198
 20
168.73943431957349
 40
0.2346452265172391
  0
CIRCLE
  8
_1-0_
  6
CONTINUOUS
 62
    7
 10
224.34727849187078
 20
167.74392205315669
 40
0.2346452265172391
  0
CIRCLE
  8
_1-0_
  6
CONTINUOUS
 62
    7
 10
221.85850401182432
 20
169.23718426678633
 40
0.2346452265172391
  0
CIRCLE
  8
_1-0_
  6
CONTINUOUS
 62
    7
 10
220.03338788006758
 20
170.06678813212628
 40
0.2346452265172391
  0
CIRCLE
  8
_1-0_
  6
CONTINUOUS
 62
    7
 10
218.54013803842906
 20
171.06230039854307
 40
0.2346452265172391
  0
CIRCLE
  8
_1-0_
  6
CONTINUOUS
 62
    7
 10
220.36522942620357
 20
170.06678813212628
 40
0.2346452265172391
  0
CIRCLE
  8
_1-0_
  6
CONTINUOUS
 62
    7
 10
220.03338788006758
 20
169.40311741184544
 40
0.2346452265172391
  0
CIRCLE
  8
_1-0_
  6
CONTINUOUS
 62
    7
 10
216.05133881440034
 20
170.39861730627112
 40
0.2346452265172391
  0
CIRCLE
  8
_1-0_
  6
CONTINUOUS
 62
    7
 10
219.22497723553633
 20
168.76190185546875
 40
0.2346452265172391
  0
CIRCLE
  8
_1-0_
  6
CONTINUOUS
 62
    7
 10
219.72272718274917
 20
171.08476793443836
 40
0.2346452265172391
  0
CIRCLE
  8
_1-0_
  6
CONTINUOUS
 62
    7
 10
212.92006209089951
 20
172.08028020085516
 40
0.2346452265172391
  0
CIRCLE
  8
_1-0_
  6
CONTINUOUS
 62
    7
 10
215.9065865181588
 20
170.25517644108953
 40
0.2346452265172391
  0
CIRCLE
  8
_1-0_
  6
CONTINUOUS
 62
    7
 10
216.7361780115076
 20
169.25966417467274
 40
0.2346452265172391
  0
CIRCLE
  8
_1-0_
  6
CONTINUOUS
 62
    7
 10
214.24740353146117
 20
170.75292638830237
 40
0.2346452265172391
  0
CIRCLE
  8
_1-0_
  6
CONTINUOUS
 62
    7
 10
212.4222873997044
 20
171.58253025364232
 40
0.2346452265172391
  0
CIRCLE
  8
_1-0_
  6
CONTINUOUS
 62
    7
 10
210.92901281408362
 20
172.57804252005914
 40
0.2346452265172391
  0
CIRCLE
  8
_1-0_
  6
CONTINUOUS
 62
    7
 10
212.75412894584039
 20
171.58253025364232
 40
0.2346452265172391
  0
CIRCLE
  8
_1-0_
  6
CONTINUOUS
 62
    7
 10
212.4222873997044
 20
170.91885953336148
 40
0.2346452265172391
  0
CIRCLE
  8
_1-0_
  6
CONTINUOUS
 62
    7
 10
208.44023833403716
 20
171.91435942778716
 40
0.2346452265172391
  0
CIRCLE
  8
_1-0_
  6
CONTINUOUS
 62
    7
 10
207.61064684068836
 20
174.23722550675677
 40
0.2346452265172391
  0
CIRCLE
  8
_1-0_
  6
CONTINUOUS
 62
    7
 10
205.45371390677789
 20
176.22825003959039
 40
0.2346452265172391
  0
CIRCLE
  8
_1-0_
  6
CONTINUOUS
 62
    7
 10
203.79453092008023
 20
175.23273777317357
 40
0.2346452265172391
  0
CIRCLE
  8
_1-0_
  6
CONTINUOUS
 62
    7
 10
205.61962230785474
 20
174.56906705289273
 40
0.2346452265172391
  0
CIRCLE
  8
_1-0_
  6
CONTINUOUS
 62
    7
 10
206.28330540012669
 20
173.73946318755279
 40
0.2346452265172391
  0
CIRCLE
  8
_1-0_
  6
CONTINUOUS
 62
    7
 10
202.63309788059544
 20
175.06681700010557
 40
0.2346452265172391
  0
CIRCLE
  8
_1-0_
  6
CONTINUOUS
 62
    7
 10
201.80348164326438
 20
176.72599998680323
 40
0.2346452265172391
  0
CIRCLE
  8
_1-0_
  6
CONTINUOUS
 62
    7
 10
213.03900641364021
 20
174.5174263619088
 40
0.2346452265172391
  0
CIRCLE
  8
_1-0_
  6
CONTINUOUS
 62
    7
 10
210.88207347972974
 20
176.5084508947424
 40
0.2346452265172391
  0
CIRCLE
  8
_1-0_
  6
CONTINUOUS
 62
    7
 10
209.22286574904984
 20
175.5129386283256
 40
0.2346452265172391
  0
CIRCLE
  8
_1-0_
  6
CONTINUOUS
 62
    7
 10
211.04798188080659
 20
174.84926790804477
 40
0.2346452265172391
  0
CIRCLE
  8
_1-0_
  6
CONTINUOUS
 62
    7
 10
211.71166497307857
 20
174.01966404270482
 40
0.2346452265172391
  0
CIRCLE
  8
_1-0_
  6
CONTINUOUS
 62
    7
 10
208.06143270956505
 20
175.3470178552576
 40
0.2346452265172391
  0
CIRCLE
  8
_1-0_
  6
CONTINUOUS
 62
    7
 10
207.23186596019849
 20
177.00620084195523
 40
0.2346452265172391
  0
CIRCLE
  8
_1-0_
  6
CONTINUOUS
 62
    7
 10
204.74306673616977
 20
177.50396316115922
 40
0.2346452265172391
  0
CIRCLE
  8
_1-0_
  6
CONTINUOUS
 62
    7
 10
219.04964137721709
 20
170.00944395323057
 40
0.2346452265172391
  0
CIRCLE
  8
_1-0_
  6
CONTINUOUS
 62
    7
 10
216.89270844330659
 20
172.00046848606419
 40
0.2346452265172391
  0
CIRCLE
  8
_1-0_
  6
CONTINUOUS
 62
    7
 10
215.23352545660896
 20
171.0049562196474
 40
0.2346452265172391
  0
CIRCLE
  8
_1-0_
  6
CONTINUOUS
 62
    7
 10
217.05861684438347
 20
170.34128549936656
 40
0.2346452265172391
  0
CIRCLE
  8
_1-0_
  6
CONTINUOUS
 62
    7
 10
217.72229993665542
 20
169.51168163402662
 40
0.2346452265172391
  0
CIRCLE
  8
_1-0_
  6
CONTINUOUS
 62
    7
 10
214.07209241712417
 20
170.8390354465794
 40
0.2346452265172391
  0
CIRCLE
  8
_1-0_
  6
CONTINUOUS
 62
    7
 10
213.24247617979307
 20
172.49821843327703
 40
0.2346452265172391
  0
CIRCLE
  8
_1-0_
  6
CONTINUOUS
 62
    7
 10
213.74025087098818
 20
174.82108451224664
 40
0.2346452265172391
  0
CIRCLE
  8
_1-0_
  6
CONTINUOUS
 62
    7
 10
206.93756103515625
 20
175.81659677866344
 40
0.2346452265172391
  0
CIRCLE
  8
_1-0_
  6
CONTINUOUS
 62
    7
 10
209.92411020639781
 20
173.99149301889781
 40
0.2346452265172391
  0
CIRCLE
  8
_1-0_
  6
CONTINUOUS
 62
    7
 10
210.75370169974664
 20
172.99598075248102
 40
0.2346452265172391
  0
CIRCLE
  8
_1-0_
  6
CONTINUOUS
 62
    7
 10
208.26492721970018
 20
174.48924296611065
 40
0.2346452265172391
  0
CIRCLE
  8
_1-0_
  6
CONTINUOUS
 62
    7
 10
206.43981108794341
 20
175.3188468314506
 40
0.2346452265172391
  0
CIRCLE
  8
_1-0_
  6
CONTINUOUS
 62
    7
 10
204.94656124630492
 20
176.3143590978674
 40
0.2346452265172391
  0
CIRCLE
  8
_1-0_
  6
CONTINUOUS
 62
    7
 10
206.7716526340794
 20
175.3188468314506
 40
0.2346452265172391
  0
CIRCLE
  8
_1-0_
  6
CONTINUOUS
 62
    7
 10
206.43981108794341
 20
174.65517611116977
 40
0.2346452265172391
  0
CIRCLE
  8
_1-0_
  6
CONTINUOUS
 62
    7
 10
202.4577620222762
 20
175.65067600559544
 40
0.2346452265172391
  0
CIRCLE
  8
_1-0_
  6
CONTINUOUS
 62
    7
 10
250.58287749419344
 20
154.3959664009713
 40
0.2346452265172391
  0
CIRCLE
  8
_1-0_
  6
CONTINUOUS
 62
    7
 10
251.08062744140625
 20
156.71883247994089
 40
0.2346452265172391
  0
CIRCLE
  8
_1-0_
  6
CONTINUOUS
 62
    7
 10
244.27796234955659
 20
157.71434474635768
 40
0.2346452265172391
  0
CIRCLE
  8
_1-0_
  6
CONTINUOUS
 62
    7
 10
247.26448677681589
 20
155.88924098659206
 40
0.2346452265172391
  0
CIRCLE
  8
_1-0_
  6
CONTINUOUS
 62
    7
 10
248.09407827016472
 20
154.89372872017526
 40
0.2346452265172391
  0
CIRCLE
  8
_1-0_
  6
CONTINUOUS
 62
    7
 10
245.60530379011826
 20
156.3869909338049
 40
0.2346452265172391
  0
CIRCLE
  8
_1-0_
  6
CONTINUOUS
 62
    7
 10
243.78018765836151
 20
157.21659479914484
 40
0.2346452265172391
  0
CIRCLE
  8
_1-0_
  6
CONTINUOUS
 62
    7
 10
242.28691307274073
 20
158.21210706556167
 40
0.2346452265172391
  0
CIRCLE
  8
_1-0_
  6
CONTINUOUS
 62
    7
 10
244.11202920449747
 20
157.21659479914484
 40
0.2346452265172391
  0
CIRCLE
  8
_1-0_
  6
CONTINUOUS
 62
    7
 10
243.78018765836151
 20
156.55292407886404
 40
0.2346452265172391
  0
CIRCLE
  8
_1-0_
  6
CONTINUOUS
 62
    7
 10
239.79813859269427
 20
157.54842397328972
 40
0.2346452265172391
  0
CIRCLE
  8
_1-0_
  6
CONTINUOUS
 62
    7
 10
238.96854709934544
 20
159.8712900522593
 40
0.2346452265172391
  0
CIRCLE
  8
_1-0_
  6
CONTINUOUS
 62
    7
 10
236.81161416543497
 20
161.86231458509292
 40
0.2346452265172391
  0
CIRCLE
  8
_1-0_
  6
CONTINUOUS
 62
    7
 10
235.15243117873734
 20
160.86680231867609
 40
0.2346452265172391
  0
CIRCLE
  8
_1-0_
  6
CONTINUOUS
 62
    7
 10
236.97752256651185
 20
160.20313159839529
 40
0.2346452265172391
  0
CIRCLE
  8
_1-0_
  6
CONTINUOUS
 62
    7
 10
237.6412056587838
 20
159.37352773305534
 40
0.2346452265172391
  0
CIRCLE
  8
_1-0_
  6
CONTINUOUS
 62
    7
 10
233.99099813925255
 20
160.70088154560813
 40
0.2346452265172391
  0
CIRCLE
  8
_1-0_
  6
CONTINUOUS
 62
    7
 10
233.16138190192146
 20
162.36006453230576
 40
0.2346452265172391
  0
CIRCLE
  8
_1-0_
  6
CONTINUOUS
 62
    7
 10
244.39690667229732
 20
160.15149090741133
 40
0.2346452265172391
  0
CIRCLE
  8
_1-0_
  6
CONTINUOUS
 62
    7
 10
242.23997373838685
 20
162.14251544024495
 40
0.2346452265172391
  0
CIRCLE
  8
_1-0_
  6
CONTINUOUS
 62
    7
 10
240.58076600770693
 20
161.14700317382812
 40
0.2346452265172391
  0
CIRCLE
  8
_1-0_
  6
CONTINUOUS
 62
    7
 10
242.4058821394637
 20
160.48333245354732
 40
0.2346452265172391
  0
CIRCLE
  8
_1-0_
  6
CONTINUOUS
 62
    7
 10
243.06956523173565
 20
159.65372858820734
 40
0.2346452265172391
  0
CIRCLE
  8
_1-0_
  6
CONTINUOUS
 62
    7
 10
239.41933296822214
 20
160.98108240076016
 40
0.2346452265172391
  0
CIRCLE
  8
_1-0_
  6
CONTINUOUS
 62
    7
 10
238.5897662188556
 20
162.64026538745779
 40
0.2346452265172391
  0
CIRCLE
  8
_1-0_
  6
CONTINUOUS
 62
    7
 10
236.10096699482688
 20
163.13802770666175
 40
0.2346452265172391
  0
CIRCLE
  8
_1-0_
  6
CONTINUOUS
 62
    7
 10
250.40754163587417
 20
155.64350849873313
 40
0.2346452265172391
  0
CIRCLE
  8
_1-0_
  6
CONTINUOUS
 62
    7
 10
248.2506087019637
 20
157.63453303156672
 40
0.2346452265172391
  0
CIRCLE
  8
_1-0_
  6
CONTINUOUS
 62
    7
 10
246.59142571526607
 20
156.63902076514992
 40
0.2346452265172391
  0
CIRCLE
  8
_1-0_
  6
CONTINUOUS
 62
    7
 10
248.41651710304055
 20
155.97535004486909
 40
0.2346452265172391
  0
CIRCLE
  8
_1-0_
  6
CONTINUOUS
 62
    7
 10
249.0802001953125
 20
155.14574617952914
 40
0.2346452265172391
  0
CIRCLE
  8
_1-0_
  6
CONTINUOUS
 62
    7
 10
245.42999267578125
 20
156.47309999208193
 40
0.2346452265172391
  0
CIRCLE
  8
_1-0_
  6
CONTINUOUS
 62
    7
 10
244.60037643845018
 20
158.13228297877956
 40
0.2346452265172391
  0
CIRCLE
  8
_1-0_
  6
CONTINUOUS
 62
    7
 10
245.09815112964529
 20
160.45514905774917
 40
0.2346452265172391
  0
CIRCLE
  8
_1-0_
  6
CONTINUOUS
 62
    7
 10
238.29546129381336
 20
161.45066132416596
 40
0.2346452265172391
  0
CIRCLE
  8
_1-0_
  6
CONTINUOUS
 62
    7
 10
241.28201046505492
 20
159.62555756440034
 40
0.2346452265172391
  0
CIRCLE
  8
_1-0_
  6
CONTINUOUS
 62
    7
 10
242.11160195840372
 20
158.63004529798354
 40
0.2346452265172391
  0
CIRCLE
  8
_1-0_
  6
CONTINUOUS
 62
    7
 10
239.62282747835727
 20
160.12330751161318
 40
0.2346452265172391
  0
CIRCLE
  8
_1-0_
  6
CONTINUOUS
 62
    7
 10
237.79771134660052
 20
160.95291137695312
 40
0.2346452265172391
  0
CIRCLE
  8
_1-0_
  6
CONTINUOUS
 62
    7
 10
236.30446150496201
 20
161.94842364336995
 40
0.2346452265172391
  0
CIRCLE
  8
_1-0_
  6
CONTINUOUS
 62
    7
 10
238.12955289273651
 20
160.95291137695312
 40
0.2346452265172391
  0
CIRCLE
  8
_1-0_
  6
CONTINUOUS
 62
    7
 10
237.79771134660052
 20
160.28924065667232
 40
0.2346452265172391
  0
CIRCLE
  8
_1-0_
  6
CONTINUOUS
 62
    7
 10
233.81566228093328
 20
161.28474055109797
 40
0.2346452265172391
  0
CIRCLE
  8
_1-0_
  6
CONTINUOUS
 62
    7
 10
269.27403630437078
 20
146.3634016707137
 40
0.2346452265172391
  0
CIRCLE
  8
_1-0_
  6
CONTINUOUS
 62
    7
 10
269.77178625158365
 20
148.68626774968328
 40
0.2346452265172391
  0
CIRCLE
  8
_1-0_
  6
CONTINUOUS
 62
    7
 10
262.96912115973396
 20
149.68178001610011
 40
0.2346452265172391
  0
CIRCLE
  8
_1-0_
  6
CONTINUOUS
 62
    7
 10
265.95564558699328
 20
147.85667625633448
 40
0.2346452265172391
  0
CIRCLE
  8
_1-0_
  6
CONTINUOUS
 62
    7
 10
266.78523708034209
 20
146.86116398991766
 40
0.2346452265172391
  0
CIRCLE
  8
_1-0_
  6
CONTINUOUS
 62
    7
 10
264.29646260029563
 20
148.35442620354732
 40
0.2346452265172391
  0
CIRCLE
  8
_1-0_
  6
CONTINUOUS
 62
    7
 10
262.47134646853885
 20
149.18403006888727
 40
0.2346452265172391
  0
CIRCLE
  8
_1-0_
  6
CONTINUOUS
 62
    7
 10
260.97807188291807
 20
150.17954233530406
 40
0.2346452265172391
  0
CIRCLE
  8
_1-0_
  6
CONTINUOUS
 62
    7
 10
262.80318801467484
 20
149.18403006888727
 40
0.2346452265172391
  0
CIRCLE
  8
_1-0_
  6
CONTINUOUS
 62
    7
 10
262.47134646853885
 20
148.52035934860643
 40
0.2346452265172391
  0
CIRCLE
  8
_1-0_
  6
CONTINUOUS
 62
    7
 10
258.48929740287161
 20
149.51585924303211
 40
0.2346452265172391
  0
CIRCLE
  8
_1-0_
  6
CONTINUOUS
 62
    7
 10
257.65970590952281
 20
151.83872532200169
 40
0.2346452265172391
  0
CIRCLE
  8
_1-0_
  6
CONTINUOUS
 62
    7
 10
255.50277297561234
 20
153.82974985483531
 40
0.2346452265172391
  0
CIRCLE
  8
_1-0_
  6
CONTINUOUS
 62
    7
 10
253.84358998891472
 20
152.83423758841852
 40
0.2346452265172391
  0
CIRCLE
  8
_1-0_
  6
CONTINUOUS
 62
    7
 10
255.66868137668919
 20
152.17056686813768
 40
0.2346452265172391
  0
CIRCLE
  8
_1-0_
  6
CONTINUOUS
 62
    7
 10
256.33236446896115
 20
151.34096300279774
 40
0.2346452265172391
  0
CIRCLE
  8
_1-0_
  6
CONTINUOUS
 62
    7
 10
252.68215694942992
 20
152.66831681535052
 40
0.2346452265172391
  0
CIRCLE
  8
_1-0_
  6
CONTINUOUS
 62
    7
 10
251.85254071209883
 20
154.32749980204815
 40
0.2346452265172391
  0
CIRCLE
  8
_1-0_
  6
CONTINUOUS
 62
    7
 10
263.08806548247469
 20
152.11892617715372
 40
0.2346452265172391
  0
CIRCLE
  8
_1-0_
  6
CONTINUOUS
 62
    7
 10
260.93113254856422
 20
154.10995070998734
 40
0.2346452265172391
  0
CIRCLE
  8
_1-0_
  6
CONTINUOUS
 62
    7
 10
259.27192481788433
 20
153.11443844357052
 40
0.2346452265172391
  0
CIRCLE
  8
_1-0_
  6
CONTINUOUS
 62
    7
 10
261.09704094964104
 20
152.45076772328972
 40
0.2346452265172391
  0
CIRCLE
  8
_1-0_
  6
CONTINUOUS
 62
    7
 10
261.76072404191302
 20
151.62116385794977
 40
0.2346452265172391
  0
CIRCLE
  8
_1-0_
  6
CONTINUOUS
 62
    7
 10
258.11049177839953
 20
152.94851767050255
 40
0.2346452265172391
  0
CIRCLE
  8
_1-0_
  6
CONTINUOUS
 62
    7
 10
257.28092502903297
 20
154.60770065720018
 40
0.2346452265172391
  0
CIRCLE
  8
_1-0_
  6
CONTINUOUS
 62
    7
 10
254.79212580500425
 20
155.10546297640414
 40
0.2346452265172391
  0
CIRCLE
  8
_1-0_
  6
CONTINUOUS
 62
    7
 10
269.09870044605151
 20
147.61094376847552
 40
0.2346452265172391
  0
CIRCLE
  8
_1-0_
  6
CONTINUOUS
 62
    7
 10
266.94176751214104
 20
149.60196830130914
 40
0.2346452265172391
  0
CIRCLE
  8
_1-0_
  6
CONTINUOUS
 62
    7
 10
265.28258452544344
 20
148.60645603489232
 40
0.2346452265172391
  0
CIRCLE
  8
_1-0_
  6
CONTINUOUS
 62
    7
 10
267.10767591321792
 20
147.94278531461148
 40
0.2346452265172391
  0
CIRCLE
  8
_1-0_
  6
CONTINUOUS
 62
    7
 10
267.7713590054899
 20
147.11318144927154
 40
0.2346452265172391
  0
CIRCLE
  8
_1-0_
  6
CONTINUOUS
 62
    7
 10
264.12115148595865
 20
148.44053526182432
 40
0.2346452265172391
  0
CIRCLE
  8
_1-0_
  6
CONTINUOUS
 62
    7
 10
263.29153524862755
 20
150.09971824852198
 40
0.2346452265172391
  0
CIRCLE
  8
_1-0_
  6
CONTINUOUS
 62
    7
 10
263.78930993982266
 20
152.42258432749156
 40
0.2346452265172391
  0
CIRCLE
  8
_1-0_
  6
CONTINUOUS
 62
    7
 10
256.98662010399073
 20
153.41809659390836
 40
0.2346452265172391
  0
CIRCLE
  8
_1-0_
  6
CONTINUOUS
 62
    7
 10
259.97316927523229
 20
151.59299283414273
 40
0.2346452265172391
  0
CIRCLE
  8
_1-0_
  6
CONTINUOUS
 62
    7
 10
260.80276076858109
 20
150.59748056772594
 40
0.2346452265172391
  0
CIRCLE
  8
_1-0_
  6
CONTINUOUS
 62
    7
 10
258.31398628853464
 20
152.09074278135557
 40
0.2346452265172391
  0
CIRCLE
  8
_1-0_
  6
CONTINUOUS
 62
    7
 10
256.48887015677786
 20
152.92034664669552
 40
0.2346452265172391
  0
CIRCLE
  8
_1-0_
  6
CONTINUOUS
 62
    7
 10
254.99562031513938
 20
153.91585891311234
 40
0.2346452265172391
  0
CIRCLE
  8
_1-0_
  6
CONTINUOUS
 62
    7
 10
256.82071170291385
 20
152.92034664669552
 40
0.2346452265172391
  0
CIRCLE
  8
_1-0_
  6
CONTINUOUS
 62
    7
 10
256.48887015677786
 20
152.25667592641472
 40
0.2346452265172391
  0
CIRCLE
  8
_1-0_
  6
CONTINUOUS
 62
    7
 10
252.50682109111065
 20
153.25217582084039
 40
0.2346452265172391
  0
CIRCLE
  8
_1-0_
  6
CONTINUOUS
 62
    7
 10
281.63182439030828
 20
140.49344861829604
 40
0.2346452265172391
  0
CIRCLE
  8
_1-0_
  6
CONTINUOUS
 62
    7
 10
282.12957433752115
 20
142.81631469726562
 40
0.2346452265172391
  0
CIRCLE
  8
_1-0_
  6
CONTINUOUS
 62
    7
 10
275.32690924567146
 20
143.81182696368245
 40
0.2346452265172391
  0
CIRCLE
  8
_1-0_
  6
CONTINUOUS
 62
    7
 10
278.31343367293078
 20
141.98672320391682
 40
0.2346452265172391
  0
CIRCLE
  8
_1-0_
  6
CONTINUOUS
 62
    7
 10
279.14302516627959
 20
140.9912109375
 40
0.2346452265172391
  0
CIRCLE
  8
_1-0_
  6
CONTINUOUS
 62
    7
 10
276.65425068623313
 20
142.48447315112966
 40
0.2346452265172391
  0
CIRCLE
  8
_1-0_
  6
CONTINUOUS
 62
    7
 10
274.82913455447635
 20
143.31407701646961
 40
0.2346452265172391
  0
CIRCLE
  8
_1-0_
  6
CONTINUOUS
 62
    7
 10
273.33585996885557
 20
144.30958928288641
 40
0.2346452265172391
  0
CIRCLE
  8
_1-0_
  6
CONTINUOUS
 62
    7
 10
275.16097610061234
 20
143.31407701646961
 40
0.2346452265172391
  0
CIRCLE
  8
_1-0_
  6
CONTINUOUS
 62
    7
 10
274.82913455447635
 20
142.65040629618878
 40
0.2346452265172391
  0
CIRCLE
  8
_1-0_
  6
CONTINUOUS
 62
    7
 10
270.84708548880911
 20
143.64590619061445
 40
0.2346452265172391
  0
CIRCLE
  8
_1-0_
  6
CONTINUOUS
 62
    7
 10
270.01749399546031
 20
145.96877226958404
 40
0.2346452265172391
  0
CIRCLE
  8
_1-0_
  6
CONTINUOUS
 62
    7
 10
267.86056106154984
 20
147.95979680241766
 40
0.2346452265172391
  0
CIRCLE
  8
_1-0_
  6
CONTINUOUS
 62
    7
 10
266.20137807485219
 20
146.96428453600086
 40
0.2346452265172391
  0
CIRCLE
  8
_1-0_
  6
CONTINUOUS
 62
    7
 10
268.02646946262672
 20
146.30061381572003
 40
0.2346452265172391
  0
CIRCLE
  8
_1-0_
  6
CONTINUOUS
 62
    7
 10
268.69015255489865
 20
145.47100995038008
 40
0.2346452265172391
  0
CIRCLE
  8
_1-0_
  6
CONTINUOUS
 62
    7
 10
265.0399450353674
 20
146.79836376293287
 40
0.2346452265172391
  0
CIRCLE
  8
_1-0_
  6
CONTINUOUS
 62
    7
 10
264.21032879803636
 20
148.4575467496305
 40
0.2346452265172391
  0
CIRCLE
  8
_1-0_
  6
CONTINUOUS
 62
    7
 10
275.44585356841219
 20
146.24897312473607
 40
0.2346452265172391
  0
CIRCLE
  8
_1-0_
  6
CONTINUOUS
 62
    7
 10
273.28892063450172
 20
148.23999765756969
 40
0.2346452265172391
  0
CIRCLE
  8
_1-0_
  6
CONTINUOUS
 62
    7
 10
271.62971290382183
 20
147.24448539115289
 40
0.2346452265172391
  0
CIRCLE
  8
_1-0_
  6
CONTINUOUS
 62
    7
 10
273.45482903557854
 20
146.58081467087206
 40
0.2346452265172391
  0
CIRCLE
  8
_1-0_
  6
CONTINUOUS
 62
    7
 10
274.11851212785052
 20
145.75121080553211
 40
0.2346452265172391
  0
CIRCLE
  8
_1-0_
  6
CONTINUOUS
 62
    7
 10
270.46827986433703
 20
147.0785646180849
 40
0.2346452265172391
  0
CIRCLE
  8
_1-0_
  6
CONTINUOUS
 62
    7
 10
269.63871311497047
 20
148.73774760478253
 40
0.2346452265172391
  0
CIRCLE
  8
_1-0_
  6
CONTINUOUS
 62
    7
 10
267.14991389094172
 20
149.23550992398648
 40
0.2346452265172391
  0
CIRCLE
  8
_1-0_
  6
CONTINUOUS
 62
    7
 10
281.45648853198901
 20
141.74099071605787
 40
0.2346452265172391
  0
CIRCLE
  8
_1-0_
  6
CONTINUOUS
 62
    7
 10
279.29955559807854
 20
143.73201524889149
 40
0.2346452265172391
  0
CIRCLE
  8
_1-0_
  6
CONTINUOUS
 62
    7
 10
277.64037261138094
 20
142.73650298247466
 40
0.2346452265172391
  0
CIRCLE
  8
_1-0_
  6
CONTINUOUS
 62
    7
 10
279.46546399915542
 20
142.07283226219386
 40
0.2346452265172391
  0
CIRCLE
  8
_1-0_
  6
CONTINUOUS
 62
    7
 10
280.1291470914274
 20
141.24322839685388
 40
0.2346452265172391
  0
CIRCLE
  8
_1-0_
  6
CONTINUOUS
 62
    7
 10
276.47893957189615
 20
142.57058220940667
 40
0.2346452265172391
  0
CIRCLE
  8
_1-0_
  6
CONTINUOUS
 62
    7
 10
275.64932333456505
 20
144.22976519610432
 40
0.2346452265172391
  0
CIRCLE
  8
_1-0_
  6
CONTINUOUS
 62
    7
 10
276.14709802576016
 20
146.55263127507391
 40
0.2346452265172391
  0
CIRCLE
  8
_1-0_
  6
CONTINUOUS
 62
    7
 10
269.34440818992823
 20
147.54814354149073
 40
0.2346452265172391
  0
CIRCLE
  8
_1-0_
  6
CONTINUOUS
 62
    7
 10
272.33095736116979
 20
145.72303978172511
 40
0.2346452265172391
  0
CIRCLE
  8
_1-0_
  6
CONTINUOUS
 62
    7
 10
273.16054885451859
 20
144.72752751530828
 40
0.2346452265172391
  0
CIRCLE
  8
_1-0_
  6
CONTINUOUS
 62
    7
 10
270.67177437447214
 20
146.22078972893794
 40
0.2346452265172391
  0
CIRCLE
  8
_1-0_
  6
CONTINUOUS
 62
    7
 10
268.84665824271536
 20
147.05039359427789
 40
0.2346452265172391
  0
CIRCLE
  8
_1-0_
  6
CONTINUOUS
 62
    7
 10
267.35340840107688
 20
148.04590586069469
 40
0.2346452265172391
  0
CIRCLE
  8
_1-0_
  6
CONTINUOUS
 62
    7
 10
269.17849978885135
 20
147.05039359427789
 40
0.2346452265172391
  0
CIRCLE
  8
_1-0_
  6
CONTINUOUS
 62
    7
 10
268.84665824271536
 20
146.38672287399706
 40
0.2346452265172391
  0
CIRCLE
  8
_1-0_
  6
CONTINUOUS
 62
    7
 10
264.86460917704818
 20
147.38222276842274
 40
0.2346452265172391
  0
CIRCLE
  8
_1-0_
  6
CONTINUOUS
 62
    7
 10
306.19351773648651
 20
129.5560022302576
 40
0.2346452265172391
  0
CIRCLE
  8
_1-0_
  6
CONTINUOUS
 62
    7
 10
306.69126768369932
 20
131.87886830922722
 40
0.2346452265172391
  0
CIRCLE
  8
_1-0_
  6
CONTINUOUS
 62
    7
 10
299.88860259184969
 20
132.87438057564401
 40
0.2346452265172391
  0
CIRCLE
  8
_1-0_
  6
CONTINUOUS
 62
    7
 10
302.87512701910896
 20
131.04927681587839
 40
0.2346452265172391
  0
CIRCLE
  8
_1-0_
  6
CONTINUOUS
 62
    7
 10
303.70471851245776
 20
130.05376454946159
 40
0.2346452265172391
  0
CIRCLE
  8
_1-0_
  6
CONTINUOUS
 62
    7
 10
301.21594403241136
 20
131.54702676309122
 40
0.2346452265172391
  0
CIRCLE
  8
_1-0_
  6
CONTINUOUS
 62
    7
 10
299.39082790065459
 20
132.37663062843117
 40
0.2346452265172391
  0
CIRCLE
  8
_1-0_
  6
CONTINUOUS
 62
    7
 10
297.8975533150338
 20
133.37214289484797
 40
0.2346452265172391
  0
CIRCLE
  8
_1-0_
  6
CONTINUOUS
 62
    7
 10
299.72266944679058
 20
132.37663062843117
 40
0.2346452265172391
  0
CIRCLE
  8
_1-0_
  6
CONTINUOUS
 62
    7
 10
299.39082790065459
 20
131.71295990815034
 40
0.2346452265172391
  0
CIRCLE
  8
_1-0_
  6
CONTINUOUS
 62
    7
 10
295.40877883498734
 20
132.70845980257602
 40
0.2346452265172391
  0
CIRCLE
  8
_1-0_
  6
CONTINUOUS
 62
    7
 10
294.57918734163854
 20
135.03132588154563
 40
0.2346452265172391
  0
CIRCLE
  8
_1-0_
  6
CONTINUOUS
 62
    7
 10
292.42225440772808
 20
137.02235041437922
 40
0.2346452265172391
  0
CIRCLE
  8
_1-0_
  6
CONTINUOUS
 62
    7
 10
290.76307142103042
 20
136.02683814796242
 40
0.2346452265172391
  0
CIRCLE
  8
_1-0_
  6
CONTINUOUS
 62
    7
 10
292.5881628088049
 20
135.36316742768159
 40
0.2346452265172391
  0
CIRCLE
  8
_1-0_
  6
CONTINUOUS
 62
    7
 10
293.25184590107688
 20
134.53356356234164
 40
0.2346452265172391
  0
CIRCLE
  8
_1-0_
  6
CONTINUOUS
 62
    7
 10
289.60163838154563
 20
135.86091737489443
 40
0.2346452265172391
  0
CIRCLE
  8
_1-0_
  6
CONTINUOUS
 62
    7
 10
288.77202214421453
 20
137.52010036159206
 40
0.2346452265172391
  0
CIRCLE
  8
_1-0_
  6
CONTINUOUS
 62
    7
 10
300.00754691459036
 20
135.31152673669763
 40
0.2346452265172391
  0
CIRCLE
  8
_1-0_
  6
CONTINUOUS
 62
    7
 10
297.8506139806799
 20
137.30255126953125
 40
0.2346452265172391
  0
CIRCLE
  8
_1-0_
  6
CONTINUOUS
 62
    7
 10
296.19140625
 20
136.30703900311445
 40
0.2346452265172391
  0
CIRCLE
  8
_1-0_
  6
CONTINUOUS
 62
    7
 10
298.01652238175677
 20
135.64336828283362
 40
0.2346452265172391
  0
CIRCLE
  8
_1-0_
  6
CONTINUOUS
 62
    7
 10
298.68020547402875
 20
134.81376441749367
 40
0.2346452265172391
  0
CIRCLE
  8
_1-0_
  6
CONTINUOUS
 62
    7
 10
295.02997321051521
 20
136.14111823004646
 40
0.2346452265172391
  0
CIRCLE
  8
_1-0_
  6
CONTINUOUS
 62
    7
 10
294.20040646114865
 20
137.80030121674409
 40
0.2346452265172391
  0
CIRCLE
  8
_1-0_
  6
CONTINUOUS
 62
    7
 10
291.71160723711995
 20
138.29806353594807
 40
0.2346452265172391
  0
CIRCLE
  8
_1-0_
  6
CONTINUOUS
 62
    7
 10
306.01818187816724
 20
130.80354432801943
 40
0.2346452265172391
  0
CIRCLE
  8
_1-0_
  6
CONTINUOUS
 62
    7
 10
303.86124894425677
 20
132.79456886085305
 40
0.2346452265172391
  0
CIRCLE
  8
_1-0_
  6
CONTINUOUS
 62
    7
 10
302.20206595755911
 20
131.79905659443625
 40
0.2346452265172391
  0
CIRCLE
  8
_1-0_
  6
CONTINUOUS
 62
    7
 10
304.02715734533365
 20
131.13538587415542
 40
0.2346452265172391
  0
CIRCLE
  8
_1-0_
  6
CONTINUOUS
 62
    7
 10
304.69084043760557
 20
130.30578200881547
 40
0.2346452265172391
  0
CIRCLE
  8
_1-0_
  6
CONTINUOUS
 62
    7
 10
301.04063291807432
 20
131.63313582136826
 40
0.2346452265172391
  0
CIRCLE
  8
_1-0_
  6
CONTINUOUS
 62
    7
 10
300.21101668074328
 20
133.29231880806589
 40
0.2346452265172391
  0
CIRCLE
  8
_1-0_
  6
CONTINUOUS
 62
    7
 10
300.70879137193839
 20
135.61518488703547
 40
0.2346452265172391
  0
CIRCLE
  8
_1-0_
  6
CONTINUOUS
 62
    7
 10
293.90610153610646
 20
136.61069715345229
 40
0.2346452265172391
  0
CIRCLE
  8
_1-0_
  6
CONTINUOUS
 62
    7
 10
296.89265070734797
 20
134.78559339368667
 40
0.2346452265172391
  0
CIRCLE
  8
_1-0_
  6
CONTINUOUS
 62
    7
 10
297.72224220069683
 20
133.79008112726984
 40
0.2346452265172391
  0
CIRCLE
  8
_1-0_
  6
CONTINUOUS
 62
    7
 10
295.23346772065037
 20
135.28334334089951
 40
0.2346452265172391
  0
CIRCLE
  8
_1-0_
  6
CONTINUOUS
 62
    7
 10
293.40835158889359
 20
136.11294720623945
 40
0.2346452265172391
  0
CIRCLE
  8
_1-0_
  6
CONTINUOUS
 62
    7
 10
291.91510174725511
 20
137.10845947265625
 40
0.2346452265172391
  0
CIRCLE
  8
_1-0_
  6
CONTINUOUS
 62
    7
 10
293.74019313502959
 20
136.11294720623945
 40
0.2346452265172391
  0
CIRCLE
  8
_1-0_
  6
CONTINUOUS
 62
    7
 10
293.40835158889359
 20
135.44927648595862
 40
0.2346452265172391
  0
CIRCLE
  8
_1-0_
  6
CONTINUOUS
 62
    7
 10
289.42630252322635
 20
136.4447763803843
 40
0.2346452265172391
  0
CIRCLE
  8
_1-0_
  6
CONTINUOUS
 62
    7
 10
327.68156309385557
 20
119.93113749736065
 40
0.2346452265172391
  0
CIRCLE
  8
_1-0_
  6
CONTINUOUS
 62
    7
 10
328.17931304106844
 20
122.25400357633025
 40
0.2346452265172391
  0
CIRCLE
  8
_1-0_
  6
CONTINUOUS
 62
    7
 10
321.37664794921875
 20
123.24951584274704
 40
0.2346452265172391
  0
CIRCLE
  8
_1-0_
  6
CONTINUOUS
 62
    7
 10
324.36317237647808
 20
121.42441208298142
 40
0.2346452265172391
  0
CIRCLE
  8
_1-0_
  6
CONTINUOUS
 62
    7
 10
325.19276386982688
 20
120.42889981656462
 40
0.2346452265172391
  0
CIRCLE
  8
_1-0_
  6
CONTINUOUS
 62
    7
 10
322.70398938978042
 20
121.92216203019426
 40
0.2346452265172391
  0
CIRCLE
  8
_1-0_
  6
CONTINUOUS
 62
    7
 10
320.87887325802365
 20
122.75176589553422
 40
0.2346452265172391
  0
CIRCLE
  8
_1-0_
  6
CONTINUOUS
 62
    7
 10
319.38559867240286
 20
123.74727816195102
 40
0.2346452265172391
  0
CIRCLE
  8
_1-0_
  6
CONTINUOUS
 62
    7
 10
321.21071480415964
 20
122.75176589553422
 40
0.2346452265172391
  0
CIRCLE
  8
_1-0_
  6
CONTINUOUS
 62
    7
 10
320.87887325802365
 20
122.08809517525339
 40
0.2346452265172391
  0
CIRCLE
  8
_1-0_
  6
CONTINUOUS
 62
    7
 10
316.89682419235646
 20
123.08359506967906
 40
0.2346452265172391
  0
CIRCLE
  8
_1-0_
  6
CONTINUOUS
 62
    7
 10
316.0672326990076
 20
125.40646114864866
 40
0.2346452265172391
  0
CIRCLE
  8
_1-0_
  6
CONTINUOUS
 62
    7
 10
313.91029976509714
 20
127.39748568148227
 40
0.2346452265172391
  0
CIRCLE
  8
_1-0_
  6
CONTINUOUS
 62
    7
 10
312.25111677839953
 20
126.40197341506547
 40
0.2346452265172391
  0
CIRCLE
  8
_1-0_
  6
CONTINUOUS
 62
    7
 10
314.07620816617401
 20
125.73830269478464
 40
0.2346452265172391
  0
CIRCLE
  8
_1-0_
  6
CONTINUOUS
 62
    7
 10
314.73989125844594
 20
124.90869882944469
 40
0.2346452265172391
  0
CIRCLE
  8
_1-0_
  6
CONTINUOUS
 62
    7
 10
311.08968373891469
 20
126.23605264199747
 40
0.2346452265172391
  0
CIRCLE
  8
_1-0_
  6
CONTINUOUS
 62
    7
 10
310.26006750158365
 20
127.8952356286951
 40
0.2346452265172391
  0
CIRCLE
  8
_1-0_
  6
CONTINUOUS
 62
    7
 10
321.49559227195948
 20
125.68666200380068
 40
0.2346452265172391
  0
CIRCLE
  8
_1-0_
  6
CONTINUOUS
 62
    7
 10
319.33865933804901
 20
127.6776865366343
 40
0.2346452265172391
  0
CIRCLE
  8
_1-0_
  6
CONTINUOUS
 62
    7
 10
317.67945160736912
 20
126.68217427021749
 40
0.2346452265172391
  0
CIRCLE
  8
_1-0_
  6
CONTINUOUS
 62
    7
 10
319.50456773912589
 20
126.01850354993667
 40
0.2346452265172391
  0
CIRCLE
  8
_1-0_
  6
CONTINUOUS
 62
    7
 10
320.16825083139781
 20
125.18889968459672
 40
0.2346452265172391
  0
CIRCLE
  8
_1-0_
  6
CONTINUOUS
 62
    7
 10
316.51801856788433
 20
126.51625349714951
 40
0.2346452265172391
  0
CIRCLE
  8
_1-0_
  6
CONTINUOUS
 62
    7
 10
315.68845181851776
 20
128.17543648384714
 40
0.2346452265172391
  0
CIRCLE
  8
_1-0_
  6
CONTINUOUS
 62
    7
 10
313.19965259448901
 20
128.67319880305109
 40
0.2346452265172391
  0
CIRCLE
  8
_1-0_
  6
CONTINUOUS
 62
    7
 10
327.50622723553636
 20
121.17867959512247
 40
0.2346452265172391
  0
CIRCLE
  8
_1-0_
  6
CONTINUOUS
 62
    7
 10
325.34929430162589
 20
123.16970412795609
 40
0.2346452265172391
  0
CIRCLE
  8
_1-0_
  6
CONTINUOUS
 62
    7
 10
323.69011131492823
 20
122.17419186153928
 40
0.2346452265172391
  0
CIRCLE
  8
_1-0_
  6
CONTINUOUS
 62
    7
 10
325.51520270270271
 20
121.51052114125845
 40
0.2346452265172391
  0
CIRCLE
  8
_1-0_
  6
CONTINUOUS
 62
    7
 10
326.17888579497469
 20
120.6809172759185
 40
0.2346452265172391
  0
CIRCLE
  8
_1-0_
  6
CONTINUOUS
 62
    7
 10
322.52867827544344
 20
122.00827108847129
 40
0.2346452265172391
  0
CIRCLE
  8
_1-0_
  6
CONTINUOUS
 62
    7
 10
321.69906203811234
 20
123.66745407516892
 40
0.2346452265172391
  0
CIRCLE
  8
_1-0_
  6
CONTINUOUS
 62
    7
 10
322.19683672930745
 20
125.99032015413852
 40
0.2346452265172391
  0
CIRCLE
  8
_1-0_
  6
CONTINUOUS
 62
    7
 10
315.39414689347552
 20
126.98583242055533
 40
0.2346452265172391
  0
CIRCLE
  8
_1-0_
  6
CONTINUOUS
 62
    7
 10
318.38069606471709
 20
125.1607286607897
 40
0.2346452265172391
  0
CIRCLE
  8
_1-0_
  6
CONTINUOUS
 62
    7
 10
319.21028755806589
 20
124.16521639437289
 40
0.2346452265172391
  0
CIRCLE
  8
_1-0_
  6
CONTINUOUS
 62
    7
 10
316.72151307801943
 20
125.65847860800254
 40
0.2346452265172391
  0
CIRCLE
  8
_1-0_
  6
CONTINUOUS
 62
    7
 10
314.89639694626271
 20
126.48808247334249
 40
0.2346452265172391
  0
CIRCLE
  8
_1-0_
  6
CONTINUOUS
 62
    7
 10
313.40314710462417
 20
127.4835947397593
 40
0.2346452265172391
  0
CIRCLE
  8
_1-0_
  6
CONTINUOUS
 62
    7
 10
315.22823849239865
 20
126.48808247334249
 40
0.2346452265172391
  0
CIRCLE
  8
_1-0_
  6
CONTINUOUS
 62
    7
 10
314.89639694626271
 20
125.82441175306167
 40
0.2346452265172391
  0
CIRCLE
  8
_1-0_
  6
CONTINUOUS
 62
    7
 10
310.91434788059547
 20
126.81991164748734
 40
0.2346452265172391
  0
CIRCLE
  8
_1-0_
  6
CONTINUOUS
 62
    7
 10
336.85875969964104
 20
115.00680047112543
 40
0.2346452265172391
  0
CIRCLE
  8
_1-0_
  6
CONTINUOUS
 62
    7
 10
337.35650964685391
 20
117.32966655009503
 40
0.2346452265172391
  0
CIRCLE
  8
_1-0_
  6
CONTINUOUS
 62
    7
 10
330.55384455500422
 20
118.32517881651184
 40
0.2346452265172391
  0
CIRCLE
  8
_1-0_
  6
CONTINUOUS
 62
    7
 10
333.54036898226354
 20
116.50007505674621
 40
0.2346452265172391
  0
CIRCLE
  8
_1-0_
  6
CONTINUOUS
 62
    7
 10
334.36996047561234
 20
115.5045627903294
 40
0.2346452265172391
  0
CIRCLE
  8
_1-0_
  6
CONTINUOUS
 62
    7
 10
331.88118599556589
 20
116.99782500395905
 40
0.2346452265172391
  0
CIRCLE
  8
_1-0_
  6
CONTINUOUS
 62
    7
 10
330.05606986380911
 20
117.827428869299
 40
0.2346452265172391
  0
CIRCLE
  8
_1-0_
  6
CONTINUOUS
 62
    7
 10
328.56279527818839
 20
118.82294113571579
 40
0.2346452265172391
  0
CIRCLE
  8
_1-0_
  6
CONTINUOUS
 62
    7
 10
330.3879114099451
 20
117.827428869299
 40
0.2346452265172391
  0
CIRCLE
  8
_1-0_
  6
CONTINUOUS
 62
    7
 10
330.05606986380911
 20
117.16375814901816
 40
0.2346452265172391
  0
CIRCLE
  8
_1-0_
  6
CONTINUOUS
 62
    7
 10
330.67278887774495
 20
120.76232497756546
 40
0.2346452265172391
  0
CIRCLE
  8
_1-0_
  6
CONTINUOUS
 62
    7
 10
329.34544743718328
 20
120.2645626583615
 40
0.2346452265172391
  0
CIRCLE
  8
_1-0_
  6
CONTINUOUS
 62
    7
 10
336.68342384132183
 20
116.25434256888725
 40
0.2346452265172391
  0
CIRCLE
  8
_1-0_
  6
CONTINUOUS
 62
    7
 10
334.52649090741136
 20
118.24536710172087
 40
0.2346452265172391
  0
CIRCLE
  8
_1-0_
  6
CONTINUOUS
 62
    7
 10
332.8673079207137
 20
117.24985483530406
 40
0.2346452265172391
  0
CIRCLE
  8
_1-0_
  6
CONTINUOUS
 62
    7
 10
334.69239930848818
 20
116.58618411502323
 40
0.2346452265172391
  0
CIRCLE
  8
_1-0_
  6
CONTINUOUS
 62
    7
 10
335.35608240076016
 20
115.75658024968328
 40
0.2346452265172391
  0
CIRCLE
  8
_1-0_
  6
CONTINUOUS
 62
    7
 10
331.70587488122891
 20
117.08393406223607
 40
0.2346452265172391
  0
CIRCLE
  8
_1-0_
  6
CONTINUOUS
 62
    7
 10
330.87625864389781
 20
118.74311704893371
 40
0.2346452265172391
  0
CIRCLE
  8
_1-0_
  6
CONTINUOUS
 62
    7
 10
327.55789267050255
 20
120.23639163455448
 40
0.2346452265172391
  0
CIRCLE
  8
_1-0_
  6
CONTINUOUS
 62
    7
 10
328.38748416385135
 20
119.24087936813767
 40
0.2346452265172391
  0
CIRCLE
  8
_1-0_
  6
CONTINUOUS
 62
    7
 10
345.14062005120354
 20
111.42545545423354
 40
0.2346452265172391
  0
CIRCLE
  8
_1-0_
  6
CONTINUOUS
 62
    7
 10
345.63836999841641
 20
113.74832153320312
 40
0.2346452265172391
  0
CIRCLE
  8
_1-0_
  6
CONTINUOUS
 62
    7
 10
338.83570490656672
 20
114.74383379961994
 40
0.2346452265172391
  0
CIRCLE
  8
_1-0_
  6
CONTINUOUS
 62
    7
 10
341.82222933382604
 20
112.91873003985431
 40
0.2346452265172391
  0
CIRCLE
  8
_1-0_
  6
CONTINUOUS
 62
    7
 10
342.65182082717484
 20
111.9232177734375
 40
0.2346452265172391
  0
CIRCLE
  8
_1-0_
  6
CONTINUOUS
 62
    7
 10
340.16304634712839
 20
113.41647998706715
 40
0.2346452265172391
  0
CIRCLE
  8
_1-0_
  6
CONTINUOUS
 62
    7
 10
338.33793021537161
 20
114.2460838524071
 40
0.2346452265172391
  0
CIRCLE
  8
_1-0_
  6
CONTINUOUS
 62
    7
 10
336.84465562975089
 20
115.24159611882391
 40
0.2346452265172391
  0
CIRCLE
  8
_1-0_
  6
CONTINUOUS
 62
    7
 10
338.6697717615076
 20
114.2460838524071
 40
0.2346452265172391
  0
CIRCLE
  8
_1-0_
  6
CONTINUOUS
 62
    7
 10
338.33793021537161
 20
113.58241313212628
 40
0.2346452265172391
  0
CIRCLE
  8
_1-0_
  6
CONTINUOUS
 62
    7
 10
338.95464922930745
 20
117.18097996067357
 40
0.2346452265172391
  0
CIRCLE
  8
_1-0_
  6
CONTINUOUS
 62
    7
 10
337.62730778874578
 20
116.6832176414696
 40
0.2346452265172391
  0
CIRCLE
  8
_1-0_
  6
CONTINUOUS
 62
    7
 10
344.96528419288433
 20
112.67299755199537
 40
0.2346452265172391
  0
CIRCLE
  8
_1-0_
  6
CONTINUOUS
 62
    7
 10
342.80835125897386
 20
114.66402208482897
 40
0.2346452265172391
  0
CIRCLE
  8
_1-0_
  6
CONTINUOUS
 62
    7
 10
341.1491682722762
 20
113.66850981841216
 40
0.2346452265172391
  0
CIRCLE
  8
_1-0_
  6
CONTINUOUS
 62
    7
 10
342.97425966005068
 20
113.00483909813134
 40
0.2346452265172391
  0
CIRCLE
  8
_1-0_
  6
CONTINUOUS
 62
    7
 10
343.63794275232266
 20
112.17523523279139
 40
0.2346452265172391
  0
CIRCLE
  8
_1-0_
  6
CONTINUOUS
 62
    7
 10
339.98773523279141
 20
113.50258904534418
 40
0.2346452265172391
  0
CIRCLE
  8
_1-0_
  6
CONTINUOUS
 62
    7
 10
339.15811899546031
 20
115.16177203204181
 40
0.2346452265172391
  0
CIRCLE
  8
_1-0_
  6
CONTINUOUS
 62
    7
 10
335.83975302206505
 20
116.65504661766259
 40
0.2346452265172391
  0
CIRCLE
  8
_1-0_
  6
CONTINUOUS
 62
    7
 10
336.66934451541385
 20
115.65953435124578
 40
0.2346452265172391
  0
CIRCLE
  8
_1-0_
  6
CONTINUOUS
 62
    7
 10
358.79447318412161
 20
106.72495249155406
 40
0.2346452265172391
  0
CIRCLE
  8
_1-0_
  6
CONTINUOUS
 62
    7
 10
359.29222313133448
 20
109.04781857052366
 40
0.2346452265172391
  0
CIRCLE
  8
_1-0_
  6
CONTINUOUS
 62
    7
 10
352.48955803948479
 20
110.04333083694046
 40
0.2346452265172391
  0
CIRCLE
  8
_1-0_
  6
CONTINUOUS
 62
    7
 10
355.47608246674412
 20
108.21822707717483
 40
0.2346452265172391
  0
CIRCLE
  8
_1-0_
  6
CONTINUOUS
 62
    7
 10
356.30567396009292
 20
107.22271481075803
 40
0.2346452265172391
  0
CIRCLE
  8
_1-0_
  6
CONTINUOUS
 62
    7
 10
353.81689948004646
 20
108.71597702438767
 40
0.2346452265172391
  0
CIRCLE
  8
_1-0_
  6
CONTINUOUS
 62
    7
 10
351.99178334828974
 20
109.54558088972763
 40
0.2346452265172391
  0
CIRCLE
  8
_1-0_
  6
CONTINUOUS
 62
    7
 10
350.49850876266896
 20
110.54109315614443
 40
0.2346452265172391
  0
CIRCLE
  8
_1-0_
  6
CONTINUOUS
 62
    7
 10
352.32362489442568
 20
109.54558088972763
 40
0.2346452265172391
  0
CIRCLE
  8
_1-0_
  6
CONTINUOUS
 62
    7
 10
351.99178334828974
 20
108.8819101694468
 40
0.2346452265172391
  0
CIRCLE
  8
_1-0_
  6
CONTINUOUS
 62
    7
 10
352.60850236222552
 20
112.48047699799409
 40
0.2346452265172391
  0
CIRCLE
  8
_1-0_
  6
CONTINUOUS
 62
    7
 10
351.28116092166385
 20
111.98271467879013
 40
0.2346452265172391
  0
CIRCLE
  8
_1-0_
  6
CONTINUOUS
 62
    7
 10
358.6191373258024
 20
107.97249458931589
 40
0.2346452265172391
  0
CIRCLE
  8
_1-0_
  6
CONTINUOUS
 62
    7
 10
356.46220439189193
 20
109.96351912214951
 40
0.2346452265172391
  0
CIRCLE
  8
_1-0_
  6
CONTINUOUS
 62
    7
 10
354.80302140519427
 20
108.9680068557327
 40
0.2346452265172391
  0
CIRCLE
  8
_1-0_
  6
CONTINUOUS
 62
    7
 10
356.62811279296875
 20
108.30433613545186
 40
0.2346452265172391
  0
CIRCLE
  8
_1-0_
  6
CONTINUOUS
 62
    7
 10
357.29179588524073
 20
107.47473227011191
 40
0.2346452265172391
  0
CIRCLE
  8
_1-0_
  6
CONTINUOUS
 62
    7
 10
353.64158836570948
 20
108.8020860826647
 40
0.2346452265172391
  0
CIRCLE
  8
_1-0_
  6
CONTINUOUS
 62
    7
 10
352.81197212837839
 20
110.46126906936233
 40
0.2346452265172391
  0
CIRCLE
  8
_1-0_
  6
CONTINUOUS
 62
    7
 10
349.49360615498313
 20
111.95454365498311
 40
0.2346452265172391
  0
CIRCLE
  8
_1-0_
  6
CONTINUOUS
 62
    7
 10
350.32319764833193
 20
110.9590313885663
 40
0.2346452265172391
  0
CIRCLE
  8
_1-0_
  6
CONTINUOUS
 62
    7
 10
369.76231755437078
 20
100.45759871199324
 40
0.2346452265172391
  0
CIRCLE
  8
_1-0_
  6
CONTINUOUS
 62
    7
 10
370.26006750158365
 20
102.78046479096284
 40
0.2346452265172391
  0
CIRCLE
  8
_1-0_
  6
CONTINUOUS
 62
    7
 10
363.45740240973396
 20
103.77597705737965
 40
0.2346452265172391
  0
CIRCLE
  8
_1-0_
  6
CONTINUOUS
 62
    7
 10
366.44392683699328
 20
101.95087329761402
 40
0.2346452265172391
  0
CIRCLE
  8
_1-0_
  6
CONTINUOUS
 62
    7
 10
367.27351833034209
 20
100.95536103119721
 40
0.2346452265172391
  0
CIRCLE
  8
_1-0_
  6
CONTINUOUS
 62
    7
 10
364.78474385029563
 20
102.44862324482686
 40
0.2346452265172391
  0
CIRCLE
  8
_1-0_
  6
CONTINUOUS
 62
    7
 10
362.95962771853885
 20
103.27822711016681
 40
0.2346452265172391
  0
CIRCLE
  8
_1-0_
  6
CONTINUOUS
 62
    7
 10
361.46635313291807
 20
104.27373937658362
 40
0.2346452265172391
  0
CIRCLE
  8
_1-0_
  6
CONTINUOUS
 62
    7
 10
363.29146926467484
 20
103.27822711016681
 40
0.2346452265172391
  0
CIRCLE
  8
_1-0_
  6
CONTINUOUS
 62
    7
 10
362.95962771853885
 20
102.61455638988599
 40
0.2346452265172391
  0
CIRCLE
  8
_1-0_
  6
CONTINUOUS
 62
    7
 10
363.57634673247469
 20
106.21312321843328
 40
0.2346452265172391
  0
CIRCLE
  8
_1-0_
  6
CONTINUOUS
 62
    7
 10
362.24900529191302
 20
105.71536089922931
 40
0.2346452265172391
  0
CIRCLE
  8
_1-0_
  6
CONTINUOUS
 62
    7
 10
369.58698169605157
 20
101.70514080975508
 40
0.2346452265172391
  0
CIRCLE
  8
_1-0_
  6
CONTINUOUS
 62
    7
 10
367.43004876214104
 20
103.69616534258869
 40
0.2346452265172391
  0
CIRCLE
  8
_1-0_
  6
CONTINUOUS
 62
    7
 10
365.77086577544344
 20
102.70065307617187
 40
0.2346452265172391
  0
CIRCLE
  8
_1-0_
  6
CONTINUOUS
 62
    7
 10
367.59595716321792
 20
102.03698235589106
 40
0.2346452265172391
  0
CIRCLE
  8
_1-0_
  6
CONTINUOUS
 62
    7
 10
368.2596402554899
 20
101.20737849055111
 40
0.2346452265172391
  0
CIRCLE
  8
_1-0_
  6
CONTINUOUS
 62
    7
 10
364.60943273595865
 20
102.53473230310389
 40
0.2346452265172391
  0
CIRCLE
  8
_1-0_
  6
CONTINUOUS
 62
    7
 10
363.77981649862755
 20
104.19391528980152
 40
0.2346452265172391
  0
CIRCLE
  8
_1-0_
  6
CONTINUOUS
 62
    7
 10
360.46145052523229
 20
105.68718987542231
 40
0.2346452265172391
  0
CIRCLE
  8
_1-0_
  6
CONTINUOUS
 62
    7
 10
361.29104201858109
 20
104.6916776090055
 40
0.2346452265172391
  0
CIRCLE
  8
_1-0_
  6
CONTINUOUS
 62
    7
 10
379.83485041437922
 20
96.42858556798987
 40
0.2346452265172391
  0
CIRCLE
  8
_1-0_
  6
CONTINUOUS
 62
    7
 10
380.33260036159209
 20
98.751451646959467
 40
0.2346452265172391
  0
CIRCLE
  8
_1-0_
  6
CONTINUOUS
 62
    7
 10
373.5299352697424
 20
99.746963913376277
 40
0.2346452265172391
  0
CIRCLE
  8
_1-0_
  6
CONTINUOUS
 62
    7
 10
376.51645969700172
 20
97.921860153610652
 40
0.2346452265172391
  0
CIRCLE
  8
_1-0_
  6
CONTINUOUS
 62
    7
 10
377.34605119035052
 20
96.926347887193842
 40
0.2346452265172391
  0
CIRCLE
  8
_1-0_
  6
CONTINUOUS
 62
    7
 10
374.85727671030406
 20
98.41961010082349
 40
0.2346452265172391
  0
CIRCLE
  8
_1-0_
  6
CONTINUOUS
 62
    7
 10
373.03216057854729
 20
99.249213966163438
 40
0.2346452265172391
  0
CIRCLE
  8
_1-0_
  6
CONTINUOUS
 62
    7
 10
371.53888599292657
 20
100.24472623258025
 40
0.2346452265172391
  0
CIRCLE
  8
_1-0_
  6
CONTINUOUS
 62
    7
 10
373.36400212468328
 20
99.249213966163438
 40
0.2346452265172391
  0
CIRCLE
  8
_1-0_
  6
CONTINUOUS
 62
    7
 10
373.03216057854729
 20
98.585543245882604
 40
0.2346452265172391
  0
CIRCLE
  8
_1-0_
  6
CONTINUOUS
 62
    7
 10
373.64887959248313
 20
102.18411007442991
 40
0.2346452265172391
  0
CIRCLE
  8
_1-0_
  6
CONTINUOUS
 62
    7
 10
372.32153815192146
 20
101.68634775522594
 40
0.2346452265172391
  0
CIRCLE
  8
_1-0_
  6
CONTINUOUS
 62
    7
 10
379.65951455606
 20
97.676127665751693
 40
0.2346452265172391
  0
CIRCLE
  8
_1-0_
  6
CONTINUOUS
 62
    7
 10
377.50258162214953
 20
99.667152198585313
 40
0.2346452265172391
  0
CIRCLE
  8
_1-0_
  6
CONTINUOUS
 62
    7
 10
375.84339863545188
 20
98.671639932168503
 40
0.2346452265172391
  0
CIRCLE
  8
_1-0_
  6
CONTINUOUS
 62
    7
 10
377.66849002322635
 20
98.007969211887669
 40
0.2346452265172391
  0
CIRCLE
  8
_1-0_
  6
CONTINUOUS
 62
    7
 10
378.33217311549834
 20
97.178365346547722
 40
0.2346452265172391
  0
CIRCLE
  8
_1-0_
  6
CONTINUOUS
 62
    7
 10
374.68196559596709
 20
98.505719159100508
 40
0.2346452265172391
  0
CIRCLE
  8
_1-0_
  6
CONTINUOUS
 62
    7
 10
373.85234935863599
 20
100.16490214579815
 40
0.2346452265172391
  0
CIRCLE
  8
_1-0_
  6
CONTINUOUS
 62
    7
 10
370.53398338524073
 20
101.65817673141892
 40
0.2346452265172391
  0
CIRCLE
  8
_1-0_
  6
CONTINUOUS
 62
    7
 10
371.36357487858953
 20
100.66266446500212
 40
0.2346452265172391
  0
ARC
  8
_1-5_
  6
CONTINUOUS
 62
    7
 10
185.23750923775339
 20
185.4579781197213
 40
0.52494773993621
 50
108.43473815917969
 51
288.43473815917969
  0
ARC
  8
_1-5_
  6
CONTINUOUS
 62
    7
 10
223.35172910948057
 20
185.35058923669766
 40
0.5298084826082797
 50
253.6175537109375
 51
70.821426391601577
  0
ARC
  8
_1-5_
  6
CONTINUOUS
 62
    7
 10
190.53421845307221
 20
188.68288607210727
 40
0.5657173169625772
 50
17.84393310546875
 51
197.84393310546875
  0
ARC
  8
_1-5_
  6
CONTINUOUS
 62
    7
 10
218.3565376900338
 20
188.59026934649495
 40
0.6031333594708829
 50
343.61056518554693
 51
160.89753723144534
  0
CIRCLE
  8
_1-0_
  6
CONTINUOUS
 62
    7
 10
27.758529250686223
 20
93.895958565376901
 40
0.2346452265172391
  0
CIRCLE
  8
_1-0_
  6
CONTINUOUS
 62
    7
 10
31.574663729281042
 20
93.066367072028086
 40
0.2346452265172391
  0
CIRCLE
  8
_1-0_
  6
CONTINUOUS
 62
    7
 10
33.233852901974245
 20
93.564123205236498
 40
0.2346452265172391
  0
CIRCLE
  8
_1-0_
  6
CONTINUOUS
 62
    7
 10
35.05895666173987
 20
94.393720884580873
 40
0.2346452265172391
  0
CIRCLE
  8
_1-0_
  6
CONTINUOUS
 62
    7
 10
34.727121301599453
 20
94.393720884580873
 40
0.2346452265172391
  0
CIRCLE
  8
_1-0_
  6
CONTINUOUS
 62
    7
 10
35.05895666173987
 20
93.730043978304479
 40
0.2346452265172391
  0
CIRCLE
  8
_1-0_
  6
CONTINUOUS
 62
    7
 10
30.951684487832551
 20
96.450483992293073
 40
0.2346452265172391
  0
CIRCLE
  8
_1-0_
  6
CONTINUOUS
 62
    7
 10
34.76781896642737
 20
95.620892498944258
 40
0.2346452265172391
  0
CIRCLE
  8
_1-0_
  6
CONTINUOUS
 62
    7
 10
36.427008139120574
 20
96.11864863215267
 40
0.2346452265172391
  0
CIRCLE
  8
_1-0_
  6
CONTINUOUS
 62
    7
 10
38.252111898886199
 20
96.948246311497044
 40
0.2346452265172391
  0
CIRCLE
  8
_1-0_
  6
CONTINUOUS
 62
    7
 10
37.920276538745782
 20
96.948246311497044
 40
0.2346452265172391
  0
CIRCLE
  8
_1-0_
  6
CONTINUOUS
 62
    7
 10
38.252111898886199
 20
96.284569405220651
 40
0.2346452265172391
  0
CIRCLE
  8
_1-0_
  6
CONTINUOUS
 62
    7
 10
37.337991869127421
 20
99.483978683884089
 40
0.2346452265172391
  0
CIRCLE
  8
_1-0_
  6
CONTINUOUS
 62
    7
 10
41.15412634772224
 20
98.65438719053526
 40
0.2346452265172391
  0
CIRCLE
  8
_1-0_
  6
CONTINUOUS
 62
    7
 10
42.813315520415443
 20
99.152143323743672
 40
0.2346452265172391
  0
CIRCLE
  8
_1-0_
  6
CONTINUOUS
 62
    7
 10
44.638419280181068
 20
99.981741003088061
 40
0.2346452265172391
  0
CIRCLE
  8
_1-0_
  6
CONTINUOUS
 62
    7
 10
44.306583920040651
 20
99.981741003088061
 40
0.2346452265172391
  0
CIRCLE
  8
_1-0_
  6
CONTINUOUS
 62
    7
 10
44.638419280181068
 20
99.318064096811668
 40
0.2346452265172391
  0
CIRCLE
  8
_1-0_
  6
CONTINUOUS
 62
    7
 10
41.648752367174296
 20
101.3998743005701
 40
0.2346452265172391
  0
CIRCLE
  8
_1-0_
  6
CONTINUOUS
 62
    7
 10
45.464886845769115
 20
100.57028280722129
 40
0.2346452265172391
  0
CIRCLE
  8
_1-0_
  6
CONTINUOUS
 62
    7
 10
47.124076018462318
 20
101.06803894042969
 40
0.2346452265172391
  0
CIRCLE
  8
_1-0_
  6
CONTINUOUS
 62
    7
 10
48.949179778227943
 20
101.89763661977408
 40
0.2346452265172391
  0
CIRCLE
  8
_1-0_
  6
CONTINUOUS
 62
    7
 10
48.617344418087526
 20
101.89763661977408
 40
0.2346452265172391
  0
CIRCLE
  8
_1-0_
  6
CONTINUOUS
 62
    7
 10
48.949179778227943
 20
101.23395971349768
 40
0.2346452265172391
  0
CIRCLE
  8
_1-0_
  6
CONTINUOUS
 62
    7
 10
49.631634274044558
 20
104.59303572371199
 40
0.2346452265172391
  0
CIRCLE
  8
_1-0_
  6
CONTINUOUS
 62
    7
 10
53.447768752639377
 20
103.76343804436762
 40
0.2346452265172391
  0
CIRCLE
  8
_1-0_
  6
CONTINUOUS
 62
    7
 10
55.106957925332551
 20
104.26119417757602
 40
0.2346452265172391
  0
CIRCLE
  8
_1-0_
  6
CONTINUOUS
 62
    7
 10
56.932061685098176
 20
105.09078567092483
 40
0.2346452265172391
  0
CIRCLE
  8
_1-0_
  6
CONTINUOUS
 62
    7
 10
56.60022632495776
 20
105.09078567092483
 40
0.2346452265172391
  0
CIRCLE
  8
_1-0_
  6
CONTINUOUS
 62
    7
 10
56.932061685098176
 20
104.42711495064401
 40
0.2346452265172391
  0
CIRCLE
  8
_1-0_
  6
CONTINUOUS
 62
    7
 10
53.623079866976354
 20
106.98788204708616
 40
0.2346452265172391
  0
CIRCLE
  8
_1-0_
  6
CONTINUOUS
 62
    7
 10
57.439214345571145
 20
106.15829055373733
 40
0.2346452265172391
  0
CIRCLE
  8
_1-0_
  6
CONTINUOUS
 62
    7
 10
59.098403518264377
 20
106.6560528729413
 40
0.2346452265172391
  0
CIRCLE
  8
_1-0_
  6
CONTINUOUS
 62
    7
 10
60.923507278030002
 20
107.48565673828125
 40
0.2346452265172391
  0
CIRCLE
  8
_1-0_
  6
CONTINUOUS
 62
    7
 10
60.591671917889585
 20
107.48565673828125
 40
0.2346452265172391
  0
CIRCLE
  8
_1-0_
  6
CONTINUOUS
 62
    7
 10
60.923507278030002
 20
106.8219736460093
 40
0.2346452265172391
  0
CIRCLE
  8
_1-0_
  6
CONTINUOUS
 62
    7
 10
70.387140222497891
 20
113.21453197582349
 40
0.2346452265172391
  0
CIRCLE
  8
_1-0_
  6
CONTINUOUS
 62
    7
 10
74.20327470109271
 20
112.38494048247466
 40
0.2346452265172391
  0
CIRCLE
  8
_1-0_
  6
CONTINUOUS
 62
    7
 10
75.862463873785885
 20
112.88270280167863
 40
0.2346452265172391
  0
CIRCLE
  8
_1-0_
  6
CONTINUOUS
 62
    7
 10
77.68756763355151
 20
113.71230666701858
 40
0.2346452265172391
  0
CIRCLE
  8
_1-0_
  6
CONTINUOUS
 62
    7
 10
77.355732273411093
 20
113.71230666701858
 40
0.2346452265172391
  0
CIRCLE
  8
_1-0_
  6
CONTINUOUS
 62
    7
 10
77.68756763355151
 20
113.04862357474663
 40
0.2346452265172391
  0
CIRCLE
  8
_1-0_
  6
CONTINUOUS
 62
    7
 10
62.563909582189609
 20
110.02139529666385
 40
0.2346452265172391
  0
CIRCLE
  8
_1-0_
  6
CONTINUOUS
 62
    7
 10
66.380044060784428
 20
109.19180380331504
 40
0.2346452265172391
  0
CIRCLE
  8
_1-0_
  6
CONTINUOUS
 62
    7
 10
68.039233233477603
 20
109.68955375052788
 40
0.2346452265172391
  0
CIRCLE
  8
_1-0_
  6
CONTINUOUS
 62
    7
 10
69.864336993243228
 20
110.51914524387669
 40
0.2346452265172391
  0
CIRCLE
  8
_1-0_
  6
CONTINUOUS
 62
    7
 10
69.532501633102839
 20
110.51914524387669
 40
0.2346452265172391
  0
CIRCLE
  8
_1-0_
  6
CONTINUOUS
 62
    7
 10
69.864336993243228
 20
109.85547452359587
 40
0.2346452265172391
  0
CIRCLE
  8
_1-0_
  6
CONTINUOUS
 62
    7
 10
73.420634914088907
 20
114.3321434227196
 40
0.2346452265172391
  0
CIRCLE
  8
_1-0_
  6
CONTINUOUS
 62
    7
 10
77.236769392683698
 20
113.50255192937078
 40
0.2346452265172391
  0
CIRCLE
  8
_1-0_
  6
CONTINUOUS
 62
    7
 10
78.895958565376901
 20
114.00031424857475
 40
0.2346452265172391
  0
CIRCLE
  8
_1-0_
  6
CONTINUOUS
 62
    7
 10
80.721062325142526
 20
114.8299181139147
 40
0.2346452265172391
  0
CIRCLE
  8
_1-0_
  6
CONTINUOUS
 62
    7
 10
80.389226965002109
 20
114.8299181139147
 40
0.2346452265172391
  0
CIRCLE
  8
_1-0_
  6
CONTINUOUS
 62
    7
 10
80.721062325142526
 20
114.16623502164275
 40
0.2346452265172391
  0
CIRCLE
  8
_1-0_
  6
CONTINUOUS
 62
    7
 10
77.252419961465364
 20
118.48324337521116
 40
0.2346452265172391
  0
CIRCLE
  8
_1-0_
  6
CONTINUOUS
 62
    7
 10
81.068554440060183
 20
117.65365188186233
 40
0.2346452265172391
  0
CIRCLE
  8
_1-0_
  6
CONTINUOUS
 62
    7
 10
82.727743612753386
 20
118.1514142010663
 40
0.2346452265172391
  0
CIRCLE
  8
_1-0_
  6
CONTINUOUS
 62
    7
 10
84.552847372519011
 20
118.98101806640625
 40
0.2346452265172391
  0
CIRCLE
  8
_1-0_
  6
CONTINUOUS
 62
    7
 10
84.221012012378594
 20
118.98101806640625
 40
0.2346452265172391
  0
CIRCLE
  8
_1-0_
  6
CONTINUOUS
 62
    7
 10
84.552847372519011
 20
118.3173349741343
 40
0.2346452265172391
  0
CIRCLE
  8
_1-0_
  6
CONTINUOUS
 62
    7
 10
83.159754985087631
 20
120.55879335145693
 40
0.2346452265172391
  0
CIRCLE
  8
_1-0_
  6
CONTINUOUS
 62
    7
 10
86.975889463682435
 20
119.72920185810811
 40
0.2346452265172391
  0
CIRCLE
  8
_1-0_
  6
CONTINUOUS
 62
    7
 10
88.635078636375638
 20
120.22696417731208
 40
0.2346452265172391
  0
CIRCLE
  8
_1-0_
  6
CONTINUOUS
 62
    7
 10
90.460182396141263
 20
121.05656804265203
 40
0.2346452265172391
  0
CIRCLE
  8
_1-0_
  6
CONTINUOUS
 62
    7
 10
90.128347036000847
 20
121.05656804265203
 40
0.2346452265172391
  0
CIRCLE
  8
_1-0_
  6
CONTINUOUS
 62
    7
 10
90.460182396141263
 20
120.39288495038008
 40
0.2346452265172391
  0
CIRCLE
  8
_1-0_
  6
CONTINUOUS
 62
    7
 10
94.17614086254224
 20
127.42408546241555
 40
0.2346452265172391
  0
CIRCLE
  8
_1-0_
  6
CONTINUOUS
 62
    7
 10
97.992275341137045
 20
126.59449396906673
 40
0.2346452265172391
  0
CIRCLE
  8
_1-0_
  6
CONTINUOUS
 62
    7
 10
99.651464513830248
 20
127.09224391627957
 40
0.2346452265172391
  0
CIRCLE
  8
_1-0_
  6
CONTINUOUS
 62
    7
 10
101.47656827359587
 20
127.92183540962839
 40
0.2346452265172391
  0
CIRCLE
  8
_1-0_
  6
CONTINUOUS
 62
    7
 10
101.14473291345546
 20
127.92183540962839
 40
0.2346452265172391
  0
CIRCLE
  8
_1-0_
  6
CONTINUOUS
 62
    7
 10
101.47656827359587
 20
127.25816468934755
 40
0.2346452265172391
  0
CIRCLE
  8
_1-0_
  6
CONTINUOUS
 62
    7
 10
90.344355815165756
 20
123.75195477459883
 40
0.2346452265172391
  0
CIRCLE
  8
_1-0_
  6
CONTINUOUS
 62
    7
 10
94.16049029376056
 20
122.92236328125
 40
0.2346452265172391
  0
CIRCLE
  8
_1-0_
  6
CONTINUOUS
 62
    7
 10
95.819679466453763
 20
123.42012560045397
 40
0.2346452265172391
  0
CIRCLE
  8
_1-0_
  6
CONTINUOUS
 62
    7
 10
97.644783226219388
 20
124.24972946579392
 40
0.2346452265172391
  0
CIRCLE
  8
_1-0_
  6
CONTINUOUS
 62
    7
 10
97.312947866078972
 20
124.24972946579392
 40
0.2346452265172391
  0
CIRCLE
  8
_1-0_
  6
CONTINUOUS
 62
    7
 10
97.644783226219388
 20
123.58604637352197
 40
0.2346452265172391
  0
CIRCLE
  8
_1-0_
  6
CONTINUOUS
 62
    7
 10
102.95731621819574
 20
128.5416721653294
 40
0.2346452265172391
  0
CIRCLE
  8
_1-0_
  6
CONTINUOUS
 62
    7
 10
106.77345069679055
 20
127.71208067198059
 40
0.2346452265172391
  0
CIRCLE
  8
_1-0_
  6
CONTINUOUS
 62
    7
 10
108.43263368348818
 20
128.20984299118456
 40
0.2346452265172391
  0
CIRCLE
  8
_1-0_
  6
CONTINUOUS
 62
    7
 10
110.25774981524494
 20
129.03944685652451
 40
0.2346452265172391
  0
CIRCLE
  8
_1-0_
  6
CONTINUOUS
 62
    7
 10
109.92590826910896
 20
129.03944685652451
 40
0.2346452265172391
  0
CIRCLE
  8
_1-0_
  6
CONTINUOUS
 62
    7
 10
110.25774981524494
 20
128.37576376425255
 40
0.2346452265172391
  0
CIRCLE
  8
_1-0_
  6
CONTINUOUS
 62
    7
 10
96.41134519834776
 20
126.30647401551943
 40
0.2346452265172391
  0
CIRCLE
  8
_1-0_
  6
CONTINUOUS
 62
    7
 10
100.22747967694258
 20
125.47688252217061
 40
0.2346452265172391
  0
CIRCLE
  8
_1-0_
  6
CONTINUOUS
 62
    7
 10
101.88666884963577
 20
125.97464484137458
 40
0.2346452265172391
  0
CIRCLE
  8
_1-0_
  6
CONTINUOUS
 62
    7
 10
103.71177260940139
 20
126.80424870671453
 40
0.2346452265172391
  0
CIRCLE
  8
_1-0_
  6
CONTINUOUS
 62
    7
 10
103.37993724926099
 20
126.80424870671453
 40
0.2346452265172391
  0
CIRCLE
  8
_1-0_
  6
CONTINUOUS
 62
    7
 10
103.71177260940139
 20
126.14056561444258
 40
0.2346452265172391
  0
CIRCLE
  8
_1-0_
  6
CONTINUOUS
 62
    7
 10
106.6294407200169
 20
132.37347577069258
 40
0.2346452265172391
  0
CIRCLE
  8
_1-0_
  6
CONTINUOUS
 62
    7
 10
110.44556901261613
 20
131.54388427734375
 40
0.2346452265172391
  0
CIRCLE
  8
_1-0_
  6
CONTINUOUS
 62
    7
 10
112.10476437130491
 20
132.04163422455659
 40
0.2346452265172391
  0
CIRCLE
  8
_1-0_
  6
CONTINUOUS
 62
    7
 10
113.9298557590794
 20
132.87122571790542
 40
0.2346452265172391
  0
CIRCLE
  8
_1-0_
  6
CONTINUOUS
 62
    7
 10
113.59802658493454
 20
132.87122571790542
 40
0.2346452265172391
  0
CIRCLE
  8
_1-0_
  6
CONTINUOUS
 62
    7
 10
113.9298557590794
 20
132.20755499762458
 40
0.2346452265172391
  0
CIRCLE
  8
_1-0_
  6
CONTINUOUS
 62
    7
 10
114.45267136032517
 20
134.12970465582771
 40
0.2346452265172391
  0
CIRCLE
  8
_1-0_
  6
CONTINUOUS
 62
    7
 10
118.26879965292441
 20
133.30011316247888
 40
0.2346452265172391
  0
CIRCLE
  8
_1-0_
  6
CONTINUOUS
 62
    7
 10
119.92799501161318
 20
133.79786310969172
 40
0.2346452265172391
  0
CIRCLE
  8
_1-0_
  6
CONTINUOUS
 62
    7
 10
121.75308639938767
 20
134.62745460304055
 40
0.2346452265172391
  0
CIRCLE
  8
_1-0_
  6
CONTINUOUS
 62
    7
 10
121.42125722524283
 20
134.62745460304055
 40
0.2346452265172391
  0
CIRCLE
  8
_1-0_
  6
CONTINUOUS
 62
    7
 10
121.75308639938767
 20
133.96378388275971
 40
0.2346452265172391
  0
CIRCLE
  8
_1-0_
  6
CONTINUOUS
 62
    7
 10
120.83896946262669
 20
136.36490280563768
 40
0.2346452265172391
  0
CIRCLE
  8
_1-0_
  6
CONTINUOUS
 62
    7
 10
124.65511012721707
 20
135.53531131228885
 40
0.2346452265172391
  0
CIRCLE
  8
_1-0_
  6
CONTINUOUS
 62
    7
 10
126.3142931139147
 20
136.03307363149284
 40
0.2346452265172391
  0
CIRCLE
  8
_1-0_
  6
CONTINUOUS
 62
    7
 10
128.13940924567146
 20
136.86267749683279
 40
0.2346452265172391
  0
CIRCLE
  8
_1-0_
  6
CONTINUOUS
 62
    7
 10
127.80756769953548
 20
136.86267749683279
 40
0.2346452265172391
  0
CIRCLE
  8
_1-0_
  6
CONTINUOUS
 62
    7
 10
128.13940924567146
 20
136.19899440456081
 40
0.2346452265172391
  0
CIRCLE
  8
_1-0_
  6
CONTINUOUS
 62
    7
 10
126.58665012668919
 20
138.91942204655828
 40
0.2346452265172391
  0
CIRCLE
  8
_1-0_
  6
CONTINUOUS
 62
    7
 10
130.40279079127956
 20
138.08983055320948
 40
0.2346452265172391
  0
CIRCLE
  8
_1-0_
  6
CONTINUOUS
 62
    7
 10
132.06197377797722
 20
138.58759287241344
 40
0.2346452265172391
  0
CIRCLE
  8
_1-0_
  6
CONTINUOUS
 62
    7
 10
133.88708990973396
 20
139.41719673775339
 40
0.2346452265172391
  0
CIRCLE
  8
_1-0_
  6
CONTINUOUS
 62
    7
 10
133.55524836359797
 20
139.41719673775339
 40
0.2346452265172391
  0
CIRCLE
  8
_1-0_
  6
CONTINUOUS
 62
    7
 10
133.88708990973396
 20
138.75351364548143
 40
0.2346452265172391
  0
CIRCLE
  8
_1-0_
  6
CONTINUOUS
 62
    7
 10
129.77981154983109
 20
141.15464494035052
 40
0.2346452265172391
  0
CIRCLE
  8
_1-0_
  6
CONTINUOUS
 62
    7
 10
133.59593984243034
 20
140.32505344700169
 40
0.2346452265172391
  0
CIRCLE
  8
_1-0_
  6
CONTINUOUS
 62
    7
 10
135.25513520111909
 20
140.82280339421453
 40
0.2346452265172391
  0
CIRCLE
  8
_1-0_
  6
CONTINUOUS
 62
    7
 10
137.08022658889359
 20
141.65239488756336
 40
0.2346452265172391
  0
CIRCLE
  8
_1-0_
  6
CONTINUOUS
 62
    7
 10
136.74839741474875
 20
141.65239488756336
 40
0.2346452265172391
  0
CIRCLE
  8
_1-0_
  6
CONTINUOUS
 62
    7
 10
137.08022658889359
 20
140.98872416728253
 40
0.2346452265172391
  0
CIRCLE
  8
_1-0_
  6
CONTINUOUS
 62
    7
 10
134.40988076699747
 20
143.07052199904984
 40
0.2346452265172391
  0
CIRCLE
  8
_1-0_
  6
CONTINUOUS
 62
    7
 10
138.22600905959672
 20
142.24093050570102
 40
0.2346452265172391
  0
CIRCLE
  8
_1-0_
  6
CONTINUOUS
 62
    7
 10
139.88520441828547
 20
142.738692824905
 40
0.2346452265172391
  0
CIRCLE
  8
_1-0_
  6
CONTINUOUS
 62
    7
 10
141.71029580605997
 20
143.56829669024495
 40
0.2346452265172391
  0
CIRCLE
  8
_1-0_
  6
CONTINUOUS
 62
    7
 10
141.37846663191513
 20
143.56829669024495
 40
0.2346452265172391
  0
CIRCLE
  8
_1-0_
  6
CONTINUOUS
 62
    7
 10
141.71029580605997
 20
142.90461359797297
 40
0.2346452265172391
  0
CIRCLE
  8
_1-0_
  6
CONTINUOUS
 62
    7
 10
138.08201145481419
 20
144.82677562816724
 40
0.2346452265172391
  0
CIRCLE
  8
_1-0_
  6
CONTINUOUS
 62
    7
 10
141.89813974741344
 20
143.99718413481841
 40
0.2346452265172391
  0
CIRCLE
  8
_1-0_
  6
CONTINUOUS
 62
    7
 10
143.55733510610222
 20
144.49493408203125
 40
0.2346452265172391
  0
CIRCLE
  8
_1-0_
  6
CONTINUOUS
 62
    7
 10
145.38242649387669
 20
145.32452557538008
 40
0.2346452265172391
  0
CIRCLE
  8
_1-0_
  6
CONTINUOUS
 62
    7
 10
145.05059731973185
 20
145.32452557538008
 40
0.2346452265172391
  0
CIRCLE
  8
_1-0_
  6
CONTINUOUS
 62
    7
 10
145.38242649387669
 20
144.66085485509925
 40
0.2346452265172391
  0
CIRCLE
  8
_1-0_
  6
CONTINUOUS
 62
    7
 10
143.19104993665542
 20
146.90232560441302
 40
0.2346452265172391
  0
CIRCLE
  8
_1-0_
  6
CONTINUOUS
 62
    7
 10
147.00719060124578
 20
146.07273411106419
 40
0.2346452265172391
  0
CIRCLE
  8
_1-0_
  6
CONTINUOUS
 62
    7
 10
148.66637358794341
 20
146.57048405827703
 40
0.2346452265172391
  0
CIRCLE
  8
_1-0_
  6
CONTINUOUS
 62
    7
 10
150.49148971970018
 20
147.40007555162586
 40
0.2346452265172391
  0
CIRCLE
  8
_1-0_
  6
CONTINUOUS
 62
    7
 10
150.15964817356419
 20
147.40007555162586
 40
0.2346452265172391
  0
CIRCLE
  8
_1-0_
  6
CONTINUOUS
 62
    7
 10
150.49148971970018
 20
146.73640483134503
 40
0.2346452265172391
  0
CIRCLE
  8
_1-0_
  6
CONTINUOUS
 62
    7
 10
146.54388427734375
 20
148.3392333984375
 40
0.2346452265172391
  0
CIRCLE
  8
_1-0_
  6
CONTINUOUS
 62
    7
 10
150.360012569943
 20
147.5096419050887
 40
0.2346452265172391
  0
CIRCLE
  8
_1-0_
  6
CONTINUOUS
 62
    7
 10
152.01920792863177
 20
148.00740422429266
 40
0.2346452265172391
  0
CIRCLE
  8
_1-0_
  6
CONTINUOUS
 62
    7
 10
153.84429931640625
 20
148.8370080896326
 40
0.2346452265172391
  0
CIRCLE
  8
_1-0_
  6
CONTINUOUS
 62
    7
 10
153.51247014226141
 20
148.8370080896326
 40
0.2346452265172391
  0
CIRCLE
  8
_1-0_
  6
CONTINUOUS
 62
    7
 10
153.84429931640625
 20
148.17332499736065
 40
0.2346452265172391
  0
CIRCLE
  8
_1-0_
  6
CONTINUOUS
 62
    7
 10
150.69498422983531
 20
150.41478337468328
 40
0.2346452265172391
  0
CIRCLE
  8
_1-0_
  6
CONTINUOUS
 62
    7
 10
154.51111252243456
 20
149.58519188133448
 40
0.2346452265172391
  0
CIRCLE
  8
_1-0_
  6
CONTINUOUS
 62
    7
 10
156.17030788112331
 20
150.08295420053844
 40
0.2346452265172391
  0
CIRCLE
  8
_1-0_
  6
CONTINUOUS
 62
    7
 10
157.99539926889781
 20
150.91255806587839
 40
0.2346452265172391
  0
CIRCLE
  8
_1-0_
  6
CONTINUOUS
 62
    7
 10
157.66357009475297
 20
150.91255806587839
 40
0.2346452265172391
  0
CIRCLE
  8
_1-0_
  6
CONTINUOUS
 62
    7
 10
157.99539926889781
 20
150.24887497360643
 40
0.2346452265172391
  0
CIRCLE
  8
_1-0_
  6
CONTINUOUS
 62
    7
 10
151.49327458562078
 20
153.28862370671453
 40
0.2346452265172391
  0
CIRCLE
  8
_1-0_
  6
CONTINUOUS
 62
    7
 10
155.30940287822003
 20
152.45903221336573
 40
0.2346452265172391
  0
CIRCLE
  8
_1-0_
  6
CONTINUOUS
 62
    7
 10
156.9685982369088
 20
152.95679453256969
 40
0.2346452265172391
  0
CIRCLE
  8
_1-0_
  6
CONTINUOUS
 62
    7
 10
158.79368962468328
 20
153.78639839790964
 40
0.2346452265172391
  0
CIRCLE
  8
_1-0_
  6
CONTINUOUS
 62
    7
 10
158.46186045053844
 20
153.78639839790964
 40
0.2346452265172391
  0
CIRCLE
  8
_1-0_
  6
CONTINUOUS
 62
    7
 10
158.79368962468328
 20
153.12271530563768
 40
0.2346452265172391
  0
CIRCLE
  8
_1-0_
  6
CONTINUOUS
 62
    7
 10
162.19034555796031
 20
156.00281586518159
 40
0.2346452265172391
  0
CIRCLE
  8
_1-0_
  6
CONTINUOUS
 62
    7
 10
166.00647385055956
 20
155.17322437183279
 40
0.2346452265172391
  0
CIRCLE
  8
_1-0_
  6
CONTINUOUS
 62
    7
 10
167.66566920924831
 20
155.67097431904563
 40
0.2346452265172391
  0
CIRCLE
  8
_1-0_
  6
CONTINUOUS
 62
    7
 10
169.49076059702281
 20
156.50056581239443
 40
0.2346452265172391
  0
CIRCLE
  8
_1-0_
  6
CONTINUOUS
 62
    7
 10
169.15893142287797
 20
156.50056581239443
 40
0.2346452265172391
  0
CIRCLE
  8
_1-0_
  6
CONTINUOUS
 62
    7
 10
169.49076059702281
 20
155.83689509211359
 40
0.2346452265172391
  0
CIRCLE
  8
_1-0_
  6
CONTINUOUS
 62
    7
 10
156.44266489389781
 20
153.76759297138938
 40
0.2346452265172391
  0
CIRCLE
  8
_1-0_
  6
CONTINUOUS
 62
    7
 10
160.25879318649706
 20
152.93800147804055
 40
0.2346452265172391
  0
CIRCLE
  8
_1-0_
  6
CONTINUOUS
 62
    7
 10
161.91798854518581
 20
153.4357637972445
 40
0.2346452265172391
  0
CIRCLE
  8
_1-0_
  6
CONTINUOUS
 62
    7
 10
163.74307993296031
 20
154.26536766258448
 40
0.2346452265172391
  0
CIRCLE
  8
_1-0_
  6
CONTINUOUS
 62
    7
 10
163.41125075881547
 20
154.26536766258448
 40
0.2346452265172391
  0
CIRCLE
  8
_1-0_
  6
CONTINUOUS
 62
    7
 10
163.74307993296031
 20
153.6016845703125
 40
0.2346452265172391
  0
CIRCLE
  8
_1-0_
  6
CONTINUOUS
 62
    7
 10
168.73629183382602
 20
157.91869292388091
 40
0.2346452265172391
  0
CIRCLE
  8
_1-0_
  6
CONTINUOUS
 62
    7
 10
172.55243249841641
 20
157.08910143053211
 40
0.2346452265172391
  0
CIRCLE
  8
_1-0_
  6
CONTINUOUS
 62
    7
 10
174.21161548511404
 20
157.58686374973607
 40
0.2346452265172391
  0
CIRCLE
  8
_1-0_
  6
CONTINUOUS
 62
    7
 10
176.03673161687078
 20
158.41646761507602
 40
0.2346452265172391
  0
CIRCLE
  8
_1-0_
  6
CONTINUOUS
 62
    7
 10
175.70489007073482
 20
158.41646761507602
 40
0.2346452265172391
  0
CIRCLE
  8
_1-0_
  6
CONTINUOUS
 62
    7
 10
176.03673161687078
 20
157.75278452280406
 40
0.2346452265172391
  0
CIRCLE
  8
_1-0_
  6
CONTINUOUS
 62
    7
 10
176.5595224741343
 20
162.38911396748313
 40
0.2346452265172391
  0
CIRCLE
  8
_1-0_
  6
CONTINUOUS
 62
    7
 10
180.37566313872466
 20
161.5595224741343
 40
0.2346452265172391
  0
CIRCLE
  8
_1-0_
  6
CONTINUOUS
 62
    7
 10
182.03484612542232
 20
162.05728479333828
 40
0.2346452265172391
  0
CIRCLE
  8
_1-0_
  6
CONTINUOUS
 62
    7
 10
183.85996225717906
 20
162.88688865867823
 40
0.2346452265172391
  0
CIRCLE
  8
_1-0_
  6
CONTINUOUS
 62
    7
 10
183.52812071104307
 20
162.88688865867823
 40
0.2346452265172391
  0
CIRCLE
  8
_1-0_
  6
CONTINUOUS
 62
    7
 10
183.85996225717906
 20
162.22320556640625
 40
0.2346452265172391
  0
CIRCLE
  8
_1-0_
  6
CONTINUOUS
 62
    7
 10
183.74413567620357
 20
165.90159648173565
 40
0.2346452265172391
  0
CIRCLE
  8
_1-0_
  6
CONTINUOUS
 62
    7
 10
187.56026396880279
 20
165.07200498838682
 40
0.2346452265172391
  0
CIRCLE
  8
_1-0_
  6
CONTINUOUS
 62
    7
 10
189.21945932749156
 20
165.56975493559966
 40
0.2346452265172391
  0
CIRCLE
  8
_1-0_
  6
CONTINUOUS
 62
    7
 10
191.04455071526607
 20
166.39934642894849
 40
0.2346452265172391
  0
CIRCLE
  8
_1-0_
  6
CONTINUOUS
 62
    7
 10
190.7127215411212
 20
166.39934642894849
 40
0.2346452265172391
  0
CIRCLE
  8
_1-0_
  6
CONTINUOUS
 62
    7
 10
191.04455071526607
 20
165.73567570866766
 40
0.2346452265172391
  0
CIRCLE
  8
_1-0_
  6
CONTINUOUS
 62
    7
 10
191.08837230785474
 20
168.7754368137669
 40
0.2346452265172391
  0
CIRCLE
  8
_1-0_
  6
CONTINUOUS
 62
    7
 10
194.9045129724451
 20
167.94584532041807
 40
0.2346452265172391
  0
CIRCLE
  8
_1-0_
  6
CONTINUOUS
 62
    7
 10
196.56369595914273
 20
168.44359526763091
 40
0.2346452265172391
  0
CIRCLE
  8
_1-0_
  6
CONTINUOUS
 62
    7
 10
198.38881209089951
 20
169.27318676097974
 40
0.2346452265172391
  0
CIRCLE
  8
_1-0_
  6
CONTINUOUS
 62
    7
 10
198.05697054476352
 20
169.27318676097974
 40
0.2346452265172391
  0
CIRCLE
  8
_1-0_
  6
CONTINUOUS
 62
    7
 10
198.38881209089951
 20
168.60951604069891
 40
0.2346452265172391
  0
CIRCLE
  8
_1-0_
  6
CONTINUOUS
 62
    7
 10
195.39914517789273
 20
172.12824641047297
 40
0.2346452265172391
  0
CIRCLE
  8
_1-0_
  6
CONTINUOUS
 62
    7
 10
199.21527347049198
 20
171.29865491712417
 40
0.2346452265172391
  0
CIRCLE
  8
_1-0_
  6
CONTINUOUS
 62
    7
 10
200.87446882918076
 20
171.79640486433701
 40
0.2346452265172391
  0
CIRCLE
  8
_1-0_
  6
CONTINUOUS
 62
    7
 10
202.69956021695523
 20
172.62599635768581
 40
0.2346452265172391
  0
CIRCLE
  8
_1-0_
  6
CONTINUOUS
 62
    7
 10
202.36773104281039
 20
172.62599635768581
 40
0.2346452265172391
  0
CIRCLE
  8
_1-0_
  6
CONTINUOUS
 62
    7
 10
202.69956021695523
 20
171.962325637405
 40
0.2346452265172391
  0
CIRCLE
  8
_1-0_
  6
CONTINUOUS
 62
    7
 10
215.72739059860643
 20
168.48340833509292
 40
0.2346452265172391
  0
CIRCLE
  8
_1-0_
  6
CONTINUOUS
 62
    7
 10
217.05473203916807
 20
167.15605452254013
 40
0.2346452265172391
  0
CIRCLE
  8
_1-0_
  6
CONTINUOUS
 62
    7
 10
215.22961590741133
 20
167.98565838788008
 40
0.2346452265172391
  0
CIRCLE
  8
_1-0_
  6
CONTINUOUS
 62
    7
 10
213.73634132179055
 20
168.98117065429687
 40
0.2346452265172391
  0
CIRCLE
  8
_1-0_
  6
CONTINUOUS
 62
    7
 10
215.56145745354732
 20
167.98565838788008
 40
0.2346452265172391
  0
CIRCLE
  8
_1-0_
  6
CONTINUOUS
 62
    7
 10
215.22961590741133
 20
167.32198766759925
 40
0.2346452265172391
  0
CIRCLE
  8
_1-0_
  6
CONTINUOUS
 62
    7
 10
211.24756684174409
 20
168.31748756202492
 40
0.2346452265172391
  0
CIRCLE
  8
_1-0_
  6
CONTINUOUS
 62
    7
 10
210.41797534839529
 20
170.64035364099453
 40
0.2346452265172391
  0
CIRCLE
  8
_1-0_
  6
CONTINUOUS
 62
    7
 10
215.84633492134714
 20
170.92055449614654
 40
0.2346452265172391
  0
CIRCLE
  8
_1-0_
  6
CONTINUOUS
 62
    7
 10
213.68940198743667
 20
172.91157902898016
 40
0.2346452265172391
  0
CIRCLE
  8
_1-0_
  6
CONTINUOUS
 62
    7
 10
212.03019425675677
 20
171.91606676256336
 40
0.2346452265172391
  0
CIRCLE
  8
_1-0_
  6
CONTINUOUS
 62
    7
 10
213.85531038851352
 20
171.25239604228253
 40
0.2346452265172391
  0
CIRCLE
  8
_1-0_
  6
CONTINUOUS
 62
    7
 10
214.5189934807855
 20
170.42279217694258
 40
0.2346452265172391
  0
CIRCLE
  8
_1-0_
  6
CONTINUOUS
 62
    7
 10
210.86876121727198
 20
171.75014598949537
 40
0.2346452265172391
  0
CIRCLE
  8
_1-0_
  6
CONTINUOUS
 62
    7
 10
218.04085396431589
 20
167.40808435388516
 40
0.2346452265172391
  0
CIRCLE
  8
_1-0_
  6
CONTINUOUS
 62
    7
 10
216.87942092483109
 20
167.24216358081716
 40
0.2346452265172391
  0
CIRCLE
  8
_1-0_
  6
CONTINUOUS
 62
    7
 10
216.0498046875
 20
168.90134656751479
 40
0.2346452265172391
  0
CIRCLE
  8
_1-0_
  6
CONTINUOUS
 62
    7
 10
216.5475793786951
 20
171.22421264648437
 40
0.2346452265172391
  0
CIRCLE
  8
_1-0_
  6
CONTINUOUS
 62
    7
 10
209.74488954286318
 20
172.2197249129012
 40
0.2346452265172391
  0
CIRCLE
  8
_1-0_
  6
CONTINUOUS
 62
    7
 10
212.73143871410474
 20
170.39462115313557
 40
0.2346452265172391
  0
CIRCLE
  8
_1-0_
  6
CONTINUOUS
 62
    7
 10
213.56103020745357
 20
169.39910888671875
 40
0.2346452265172391
  0
CIRCLE
  8
_1-0_
  6
CONTINUOUS
 62
    7
 10
211.07225572740711
 20
170.89237110034841
 40
0.2346452265172391
  0
CIRCLE
  8
_1-0_
  6
CONTINUOUS
 62
    7
 10
209.57898114178633
 20
171.72197496568836
 40
0.2346452265172391
  0
CIRCLE
  8
_1-0_
  6
CONTINUOUS
 62
    7
 10
225.49470643739443
 20
162.97366580447635
 40
0.2346452265172391
  0
CIRCLE
  8
_1-0_
  6
CONTINUOUS
 62
    7
 10
226.82204787795609
 20
161.64631199192357
 40
0.2346452265172391
  0
CIRCLE
  8
_1-0_
  6
CONTINUOUS
 62
    7
 10
224.99693174619932
 20
162.47591585726352
 40
0.2346452265172391
  0
CIRCLE
  8
_1-0_
  6
CONTINUOUS
 62
    7
 10
223.50365716057857
 20
163.47142812368034
 40
0.2346452265172391
  0
CIRCLE
  8
_1-0_
  6
CONTINUOUS
 62
    7
 10
225.32877329233531
 20
162.47591585726352
 40
0.2346452265172391
  0
CIRCLE
  8
_1-0_
  6
CONTINUOUS
 62
    7
 10
224.99693174619932
 20
161.81224513698268
 40
0.2346452265172391
  0
CIRCLE
  8
_1-0_
  6
CONTINUOUS
 62
    7
 10
221.01488268053211
 20
162.80774503140836
 40
0.2346452265172391
  0
CIRCLE
  8
_1-0_
  6
CONTINUOUS
 62
    7
 10
220.18529118718328
 20
165.13061111037797
 40
0.2346452265172391
  0
CIRCLE
  8
_1-0_
  6
CONTINUOUS
 62
    7
 10
225.61365076013516
 20
165.41081196553
 40
0.2346452265172391
  0
CIRCLE
  8
_1-0_
  6
CONTINUOUS
 62
    7
 10
223.45671782622466
 20
167.40183649836359
 40
0.2346452265172391
  0
CIRCLE
  8
_1-0_
  6
CONTINUOUS
 62
    7
 10
221.79751009554477
 20
166.4063242319468
 40
0.2346452265172391
  0
CIRCLE
  8
_1-0_
  6
CONTINUOUS
 62
    7
 10
223.62262622730154
 20
165.74265351166596
 40
0.2346452265172391
  0
CIRCLE
  8
_1-0_
  6
CONTINUOUS
 62
    7
 10
224.28630931957349
 20
164.91304964632602
 40
0.2346452265172391
  0
CIRCLE
  8
_1-0_
  6
CONTINUOUS
 62
    7
 10
220.63607705605997
 20
166.2404034588788
 40
0.2346452265172391
  0
CIRCLE
  8
_1-0_
  6
CONTINUOUS
 62
    7
 10
227.80816980310391
 20
161.89834182326859
 40
0.2346452265172391
  0
CIRCLE
  8
_1-0_
  6
CONTINUOUS
 62
    7
 10
226.64673676361909
 20
161.7324210502006
 40
0.2346452265172391
  0
CIRCLE
  8
_1-0_
  6
CONTINUOUS
 62
    7
 10
225.81712052628802
 20
163.39160403689823
 40
0.2346452265172391
  0
CIRCLE
  8
_1-0_
  6
CONTINUOUS
 62
    7
 10
226.31489521748313
 20
165.71447011586784
 40
0.2346452265172391
  0
CIRCLE
  8
_1-0_
  6
CONTINUOUS
 62
    7
 10
219.5122053816512
 20
166.70998238228464
 40
0.2346452265172391
  0
CIRCLE
  8
_1-0_
  6
CONTINUOUS
 62
    7
 10
222.49875455289276
 20
164.88487862251901
 40
0.2346452265172391
  0
CIRCLE
  8
_1-0_
  6
CONTINUOUS
 62
    7
 10
223.32834604624156
 20
163.88936635610222
 40
0.2346452265172391
  0
CIRCLE
  8
_1-0_
  6
CONTINUOUS
 62
    7
 10
220.8395715661951
 20
165.38262856973185
 40
0.2346452265172391
  0
CIRCLE
  8
_1-0_
  6
CONTINUOUS
 62
    7
 10
219.34629698057432
 20
166.2122324350718
 40
0.2346452265172391
  0
CIRCLE
  8
_1-0_
  6
CONTINUOUS
 62
    7
 10
233.50888638883026
 20
157.71434474635768
 40
0.2346452265172391
  0
CIRCLE
  8
_1-0_
  6
CONTINUOUS
 62
    7
 10
234.8362278293919
 20
156.3869909338049
 40
0.2346452265172391
  0
CIRCLE
  8
_1-0_
  6
CONTINUOUS
 62
    7
 10
233.01111169763516
 20
157.21659479914484
 40
0.2346452265172391
  0
CIRCLE
  8
_1-0_
  6
CONTINUOUS
 62
    7
 10
231.51783711201438
 20
158.21210706556167
 40
0.2346452265172391
  0
CIRCLE
  8
_1-0_
  6
CONTINUOUS
 62
    7
 10
233.34295324377112
 20
157.21659479914484
 40
0.2346452265172391
  0
CIRCLE
  8
_1-0_
  6
CONTINUOUS
 62
    7
 10
233.01111169763516
 20
156.55292407886404
 40
0.2346452265172391
  0
CIRCLE
  8
_1-0_
  6
CONTINUOUS
 62
    7
 10
229.02906263196792
 20
157.54842397328972
 40
0.2346452265172391
  0
CIRCLE
  8
_1-0_
  6
CONTINUOUS
 62
    7
 10
228.19947113861909
 20
159.8712900522593
 40
0.2346452265172391
  0
CIRCLE
  8
_1-0_
  6
CONTINUOUS
 62
    7
 10
233.62783071157097
 20
160.15149090741133
 40
0.2346452265172391
  0
CIRCLE
  8
_1-0_
  6
CONTINUOUS
 62
    7
 10
231.4708977776605
 20
162.14251544024495
 40
0.2346452265172391
  0
CIRCLE
  8
_1-0_
  6
CONTINUOUS
 62
    7
 10
229.8116900469806
 20
161.14700317382812
 40
0.2346452265172391
  0
CIRCLE
  8
_1-0_
  6
CONTINUOUS
 62
    7
 10
231.63680617873734
 20
160.48333245354732
 40
0.2346452265172391
  0
CIRCLE
  8
_1-0_
  6
CONTINUOUS
 62
    7
 10
232.3004892710093
 20
159.65372858820734
 40
0.2346452265172391
  0
CIRCLE
  8
_1-0_
  6
CONTINUOUS
 62
    7
 10
228.65025700749578
 20
160.98108240076016
 40
0.2346452265172391
  0
CIRCLE
  8
_1-0_
  6
CONTINUOUS
 62
    7
 10
235.82234975453972
 20
156.63902076514992
 40
0.2346452265172391
  0
CIRCLE
  8
_1-0_
  6
CONTINUOUS
 62
    7
 10
234.66091671505492
 20
156.47309999208193
 40
0.2346452265172391
  0
CIRCLE
  8
_1-0_
  6
CONTINUOUS
 62
    7
 10
233.83130047772383
 20
158.13228297877956
 40
0.2346452265172391
  0
CIRCLE
  8
_1-0_
  6
CONTINUOUS
 62
    7
 10
234.32907516891893
 20
160.45514905774917
 40
0.2346452265172391
  0
CIRCLE
  8
_1-0_
  6
CONTINUOUS
 62
    7
 10
227.52638533308701
 20
161.45066132416596
 40
0.2346452265172391
  0
CIRCLE
  8
_1-0_
  6
CONTINUOUS
 62
    7
 10
230.51293450432857
 20
159.62555756440034
 40
0.2346452265172391
  0
CIRCLE
  8
_1-0_
  6
CONTINUOUS
 62
    7
 10
231.34252599767737
 20
158.63004529798354
 40
0.2346452265172391
  0
CIRCLE
  8
_1-0_
  6
CONTINUOUS
 62
    7
 10
228.85375151763091
 20
160.12330751161318
 40
0.2346452265172391
  0
CIRCLE
  8
_1-0_
  6
CONTINUOUS
 62
    7
 10
227.36047693201016
 20
160.95291137695312
 40
0.2346452265172391
  0
CIRCLE
  8
_1-0_
  6
CONTINUOUS
 62
    7
 10
246.53196592588685
 20
152.70546990471919
 40
0.2346452265172391
  0
CIRCLE
  8
_1-0_
  6
CONTINUOUS
 62
    7
 10
247.85930736644849
 20
151.37811609216638
 40
0.2346452265172391
  0
CIRCLE
  8
_1-0_
  6
CONTINUOUS
 62
    7
 10
246.03419123469175
 20
152.20771995750636
 40
0.2346452265172391
  0
CIRCLE
  8
_1-0_
  6
CONTINUOUS
 62
    7
 10
244.54091664907097
 20
153.20323222392315
 40
0.2346452265172391
  0
CIRCLE
  8
_1-0_
  6
CONTINUOUS
 62
    7
 10
246.36603278082771
 20
152.20771995750636
 40
0.2346452265172391
  0
CIRCLE
  8
_1-0_
  6
CONTINUOUS
 62
    7
 10
246.03419123469175
 20
151.54404923722552
 40
0.2346452265172391
  0
CIRCLE
  8
_1-0_
  6
CONTINUOUS
 62
    7
 10
242.05214216902451
 20
152.5395491316512
 40
0.2346452265172391
  0
CIRCLE
  8
_1-0_
  6
CONTINUOUS
 62
    7
 10
241.22255067567568
 20
154.86241521062078
 40
0.2346452265172391
  0
CIRCLE
  8
_1-0_
  6
CONTINUOUS
 62
    7
 10
246.65091024862755
 20
155.14261606577281
 40
0.2346452265172391
  0
CIRCLE
  8
_1-0_
  6
CONTINUOUS
 62
    7
 10
244.49397731471709
 20
157.13364059860643
 40
0.2346452265172391
  0
CIRCLE
  8
_1-0_
  6
CONTINUOUS
 62
    7
 10
242.83476958403719
 20
156.13812833218961
 40
0.2346452265172391
  0
CIRCLE
  8
_1-0_
  6
CONTINUOUS
 62
    7
 10
244.65988571579393
 20
155.4744576119088
 40
0.2346452265172391
  0
CIRCLE
  8
_1-0_
  6
CONTINUOUS
 62
    7
 10
245.32356880806589
 20
154.64485374656886
 40
0.2346452265172391
  0
CIRCLE
  8
_1-0_
  6
CONTINUOUS
 62
    7
 10
241.67333654455237
 20
155.97220755912164
 40
0.2346452265172391
  0
CIRCLE
  8
_1-0_
  6
CONTINUOUS
 62
    7
 10
248.8454292915963
 20
151.63014592351141
 40
0.2346452265172391
  0
CIRCLE
  8
_1-0_
  6
CONTINUOUS
 62
    7
 10
247.68399625211151
 20
151.46422515044341
 40
0.2346452265172391
  0
CIRCLE
  8
_1-0_
  6
CONTINUOUS
 62
    7
 10
246.85438001478042
 20
153.12340813714107
 40
0.2346452265172391
  0
CIRCLE
  8
_1-0_
  6
CONTINUOUS
 62
    7
 10
247.35215470597552
 20
155.44627421611065
 40
0.2346452265172391
  0
CIRCLE
  8
_1-0_
  6
CONTINUOUS
 62
    7
 10
240.54946487014359
 20
156.44178648252745
 40
0.2346452265172391
  0
CIRCLE
  8
_1-0_
  6
CONTINUOUS
 62
    7
 10
243.53601404138516
 20
154.61668272276182
 40
0.2346452265172391
  0
CIRCLE
  8
_1-0_
  6
CONTINUOUS
 62
    7
 10
244.36560553473396
 20
153.62117045634503
 40
0.2346452265172391
  0
CIRCLE
  8
_1-0_
  6
CONTINUOUS
 62
    7
 10
241.8768310546875
 20
155.11443266997466
 40
0.2346452265172391
  0
CIRCLE
  8
_1-0_
  6
CONTINUOUS
 62
    7
 10
240.38355646906675
 20
155.94403653531461
 40
0.2346452265172391
  0
CIRCLE
  8
_1-0_
  6
CONTINUOUS
 62
    7
 10
258.0523681640625
 20
148.44793371252112
 40
0.2346452265172391
  0
CIRCLE
  8
_1-0_
  6
CONTINUOUS
 62
    7
 10
259.37970960462417
 20
147.12057989996833
 40
0.2346452265172391
  0
CIRCLE
  8
_1-0_
  6
CONTINUOUS
 62
    7
 10
257.5545934728674
 20
147.95018376530828
 40
0.2346452265172391
  0
CIRCLE
  8
_1-0_
  6
CONTINUOUS
 62
    7
 10
256.06131888724661
 20
148.94569603172511
 40
0.2346452265172391
  0
CIRCLE
  8
_1-0_
  6
CONTINUOUS
 62
    7
 10
257.88643501900339
 20
147.95018376530828
 40
0.2346452265172391
  0
CIRCLE
  8
_1-0_
  6
CONTINUOUS
 62
    7
 10
257.5545934728674
 20
147.28651304502745
 40
0.2346452265172391
  0
CIRCLE
  8
_1-0_
  6
CONTINUOUS
 62
    7
 10
253.57254440720018
 20
148.28201293945313
 40
0.2346452265172391
  0
CIRCLE
  8
_1-0_
  6
CONTINUOUS
 62
    7
 10
252.74295291385135
 20
150.60487901842274
 40
0.2346452265172391
  0
CIRCLE
  8
_1-0_
  6
CONTINUOUS
 62
    7
 10
258.17131248680323
 20
150.88507987357477
 40
0.2346452265172391
  0
CIRCLE
  8
_1-0_
  6
CONTINUOUS
 62
    7
 10
256.01437955289276
 20
152.87610440640836
 40
0.2346452265172391
  0
CIRCLE
  8
_1-0_
  6
CONTINUOUS
 62
    7
 10
254.35517182221284
 20
151.88059213999156
 40
0.2346452265172391
  0
CIRCLE
  8
_1-0_
  6
CONTINUOUS
 62
    7
 10
256.18028795396958
 20
151.21692141971073
 40
0.2346452265172391
  0
CIRCLE
  8
_1-0_
  6
CONTINUOUS
 62
    7
 10
256.84397104624156
 20
150.38731755437078
 40
0.2346452265172391
  0
CIRCLE
  8
_1-0_
  6
CONTINUOUS
 62
    7
 10
253.19373878272805
 20
151.71467136692357
 40
0.2346452265172391
  0
CIRCLE
  8
_1-0_
  6
CONTINUOUS
 62
    7
 10
260.36583152977198
 20
147.37260973131336
 40
0.2346452265172391
  0
CIRCLE
  8
_1-0_
  6
CONTINUOUS
 62
    7
 10
259.20439849028719
 20
147.20668895824537
 40
0.2346452265172391
  0
CIRCLE
  8
_1-0_
  6
CONTINUOUS
 62
    7
 10
258.37478225295609
 20
148.865871944943
 40
0.2346452265172391
  0
CIRCLE
  8
_1-0_
  6
CONTINUOUS
 62
    7
 10
258.8725569441512
 20
151.18873802391261
 40
0.2346452265172391
  0
CIRCLE
  8
_1-0_
  6
CONTINUOUS
 62
    7
 10
252.06986710831927
 20
152.1842502903294
 40
0.2346452265172391
  0
CIRCLE
  8
_1-0_
  6
CONTINUOUS
 62
    7
 10
255.05641627956084
 20
150.35914653056378
 40
0.2346452265172391
  0
CIRCLE
  8
_1-0_
  6
CONTINUOUS
 62
    7
 10
255.88600777290964
 20
149.36363426414698
 40
0.2346452265172391
  0
CIRCLE
  8
_1-0_
  6
CONTINUOUS
 62
    7
 10
253.39723329286318
 20
150.85689647777662
 40
0.2346452265172391
  0
CIRCLE
  8
_1-0_
  6
CONTINUOUS
 62
    7
 10
251.90395870724242
 20
151.68650034311656
 40
0.2346452265172391
  0
CIRCLE
  8
_1-0_
  6
CONTINUOUS
 62
    7
 10
268.07009310335729
 20
143.4390588708826
 40
0.2346452265172391
  0
CIRCLE
  8
_1-0_
  6
CONTINUOUS
 62
    7
 10
269.39743454391896
 20
142.11170505832982
 40
0.2346452265172391
  0
CIRCLE
  8
_1-0_
  6
CONTINUOUS
 62
    7
 10
267.57231841216219
 20
142.94130892366977
 40
0.2346452265172391
  0
CIRCLE
  8
_1-0_
  6
CONTINUOUS
 62
    7
 10
266.07904382654141
 20
143.93682119008659
 40
0.2346452265172391
  0
CIRCLE
  8
_1-0_
  6
CONTINUOUS
 62
    7
 10
267.90415995829818
 20
142.94130892366977
 40
0.2346452265172391
  0
CIRCLE
  8
_1-0_
  6
CONTINUOUS
 62
    7
 10
267.57231841216219
 20
142.27763820338893
 40
0.2346452265172391
  0
CIRCLE
  8
_1-0_
  6
CONTINUOUS
 62
    7
 10
263.59026934649495
 20
143.27313809781461
 40
0.2346452265172391
  0
CIRCLE
  8
_1-0_
  6
CONTINUOUS
 62
    7
 10
262.76067785314615
 20
145.59600417678422
 40
0.2346452265172391
  0
CIRCLE
  8
_1-0_
  6
CONTINUOUS
 62
    7
 10
268.18903742609797
 20
145.87620503193625
 40
0.2346452265172391
  0
CIRCLE
  8
_1-0_
  6
CONTINUOUS
 62
    7
 10
266.0321044921875
 20
147.86722956476984
 40
0.2346452265172391
  0
CIRCLE
  8
_1-0_
  6
CONTINUOUS
 62
    7
 10
264.3728967615076
 20
146.87171729835305
 40
0.2346452265172391
  0
CIRCLE
  8
_1-0_
  6
CONTINUOUS
 62
    7
 10
266.19801289326438
 20
146.20804657807221
 40
0.2346452265172391
  0
CIRCLE
  8
_1-0_
  6
CONTINUOUS
 62
    7
 10
266.86169598553636
 20
145.37844271273227
 40
0.2346452265172391
  0
CIRCLE
  8
_1-0_
  6
CONTINUOUS
 62
    7
 10
263.21146372202281
 20
146.70579652528505
 40
0.2346452265172391
  0
CIRCLE
  8
_1-0_
  6
CONTINUOUS
 62
    7
 10
270.38355646906672
 20
142.36373488967484
 40
0.2346452265172391
  0
CIRCLE
  8
_1-0_
  6
CONTINUOUS
 62
    7
 10
269.22212342958193
 20
142.19781411660685
 40
0.2346452265172391
  0
CIRCLE
  8
_1-0_
  6
CONTINUOUS
 62
    7
 10
268.39250719225083
 20
143.85699710330448
 40
0.2346452265172391
  0
CIRCLE
  8
_1-0_
  6
CONTINUOUS
 62
    7
 10
268.89028188344594
 20
146.17986318227409
 40
0.2346452265172391
  0
CIRCLE
  8
_1-0_
  6
CONTINUOUS
 62
    7
 10
262.08759204761401
 20
147.17537544869089
 40
0.2346452265172391
  0
CIRCLE
  8
_1-0_
  6
CONTINUOUS
 62
    7
 10
265.07414121885557
 20
145.35027168892526
 40
0.2346452265172391
  0
CIRCLE
  8
_1-0_
  6
CONTINUOUS
 62
    7
 10
265.90373271220443
 20
144.35475942250847
 40
0.2346452265172391
  0
CIRCLE
  8
_1-0_
  6
CONTINUOUS
 62
    7
 10
263.41495823215797
 20
145.8480216361381
 40
0.2346452265172391
  0
CIRCLE
  8
_1-0_
  6
CONTINUOUS
 62
    7
 10
261.92168364653719
 20
146.67762550147805
 40
0.2346452265172391
  0
CIRCLE
  8
_1-0_
  6
CONTINUOUS
 62
    7
 10
278.08781804265203
 20
138.43019640123524
 40
0.2346452265172391
  0
CIRCLE
  8
_1-0_
  6
CONTINUOUS
 62
    7
 10
279.4151594832137
 20
137.10284258868245
 40
0.2346452265172391
  0
CIRCLE
  8
_1-0_
  6
CONTINUOUS
 62
    7
 10
277.59004335145693
 20
137.9324464540224
 40
0.2346452265172391
  0
CIRCLE
  8
_1-0_
  6
CONTINUOUS
 62
    7
 10
276.09676876583615
 20
138.92795872043919
 40
0.2346452265172391
  0
CIRCLE
  8
_1-0_
  6
CONTINUOUS
 62
    7
 10
277.92188489759292
 20
137.9324464540224
 40
0.2346452265172391
  0
CIRCLE
  8
_1-0_
  6
CONTINUOUS
 62
    7
 10
277.59004335145693
 20
137.26877573374156
 40
0.2346452265172391
  0
CIRCLE
  8
_1-0_
  6
CONTINUOUS
 62
    7
 10
273.60799428578969
 20
138.26427562816724
 40
0.2346452265172391
  0
CIRCLE
  8
_1-0_
  6
CONTINUOUS
 62
    7
 10
272.77840279244089
 20
140.58714170713682
 40
0.2346452265172391
  0
CIRCLE
  8
_1-0_
  6
CONTINUOUS
 62
    7
 10
278.20676236539276
 20
140.86734256228885
 40
0.2346452265172391
  0
CIRCLE
  8
_1-0_
  6
CONTINUOUS
 62
    7
 10
276.04982943148229
 20
142.85836709512247
 40
0.2346452265172391
  0
CIRCLE
  8
_1-0_
  6
CONTINUOUS
 62
    7
 10
274.3906217008024
 20
141.86285482870568
 40
0.2346452265172391
  0
CIRCLE
  8
_1-0_
  6
CONTINUOUS
 62
    7
 10
276.21573783255911
 20
141.19918410842484
 40
0.2346452265172391
  0
CIRCLE
  8
_1-0_
  6
CONTINUOUS
 62
    7
 10
276.87942092483109
 20
140.3695802430849
 40
0.2346452265172391
  0
CIRCLE
  8
_1-0_
  6
CONTINUOUS
 62
    7
 10
273.22918866131761
 20
141.69693405563768
 40
0.2346452265172391
  0
CIRCLE
  8
_1-0_
  6
CONTINUOUS
 62
    7
 10
280.40128140836151
 20
137.35487242002745
 40
0.2346452265172391
  0
CIRCLE
  8
_1-0_
  6
CONTINUOUS
 62
    7
 10
279.23984836887672
 20
137.18895164695948
 40
0.2346452265172391
  0
CIRCLE
  8
_1-0_
  6
CONTINUOUS
 62
    7
 10
278.41023213154563
 20
138.84813463365711
 40
0.2346452265172391
  0
CIRCLE
  8
_1-0_
  6
CONTINUOUS
 62
    7
 10
278.90800682274073
 20
141.17100071262669
 40
0.2346452265172391
  0
CIRCLE
  8
_1-0_
  6
CONTINUOUS
 62
    7
 10
272.1053169869088
 20
142.16651297904352
 40
0.2346452265172391
  0
CIRCLE
  8
_1-0_
  6
CONTINUOUS
 62
    7
 10
275.09186615815037
 20
140.34140921927789
 40
0.2346452265172391
  0
CIRCLE
  8
_1-0_
  6
CONTINUOUS
 62
    7
 10
275.92145765149917
 20
139.34589695286107
 40
0.2346452265172391
  0
CIRCLE
  8
_1-0_
  6
CONTINUOUS
 62
    7
 10
273.43268317145271
 20
140.83915916649073
 40
0.2346452265172391
  0
CIRCLE
  8
_1-0_
  6
CONTINUOUS
 62
    7
 10
271.93940858583193
 20
141.66876303183068
 40
0.2346452265172391
  0
CIRCLE
  8
_1-0_
  6
CONTINUOUS
 62
    7
 10
285.85158889358109
 20
135.92575898041596
 40
0.2346452265172391
  0
CIRCLE
  8
_1-0_
  6
CONTINUOUS
 62
    7
 10
287.17893033414276
 20
134.59840516786318
 40
0.2346452265172391
  0
CIRCLE
  8
_1-0_
  6
CONTINUOUS
 62
    7
 10
285.35381420238599
 20
135.42800903320312
 40
0.2346452265172391
  0
CIRCLE
  8
_1-0_
  6
CONTINUOUS
 62
    7
 10
283.86053961676521
 20
136.42352129961995
 40
0.2346452265172391
  0
CIRCLE
  8
_1-0_
  6
CONTINUOUS
 62
    7
 10
285.68565574852198
 20
135.42800903320312
 40
0.2346452265172391
  0
CIRCLE
  8
_1-0_
  6
CONTINUOUS
 62
    7
 10
285.35381420238599
 20
134.76433831292229
 40
0.2346452265172391
  0
CIRCLE
  8
_1-0_
  6
CONTINUOUS
 62
    7
 10
281.37176513671875
 20
135.75983820734797
 40
0.2346452265172391
  0
CIRCLE
  8
_1-0_
  6
CONTINUOUS
 62
    7
 10
280.54217364336995
 20
138.08270428631758
 40
0.2346452265172391
  0
CIRCLE
  8
_1-0_
  6
CONTINUOUS
 62
    7
 10
285.97053321632183
 20
138.36290514146961
 40
0.2346452265172391
  0
CIRCLE
  8
_1-0_
  6
CONTINUOUS
 62
    7
 10
283.81360028241136
 20
140.35392967430323
 40
0.2346452265172391
  0
CIRCLE
  8
_1-0_
  6
CONTINUOUS
 62
    7
 10
282.15439255173146
 20
139.35841740788641
 40
0.2346452265172391
  0
CIRCLE
  8
_1-0_
  6
CONTINUOUS
 62
    7
 10
283.97950868348818
 20
138.69474668760557
 40
0.2346452265172391
  0
CIRCLE
  8
_1-0_
  6
CONTINUOUS
 62
    7
 10
284.64319177576016
 20
137.86514282226562
 40
0.2346452265172391
  0
CIRCLE
  8
_1-0_
  6
CONTINUOUS
 62
    7
 10
280.99295951224661
 20
139.19249663481841
 40
0.2346452265172391
  0
CIRCLE
  8
_1-0_
  6
CONTINUOUS
 62
    7
 10
288.16505225929058
 20
134.8504349992082
 40
0.2346452265172391
  0
CIRCLE
  8
_1-0_
  6
CONTINUOUS
 62
    7
 10
287.00361921980578
 20
134.68451422614021
 40
0.2346452265172391
  0
CIRCLE
  8
_1-0_
  6
CONTINUOUS
 62
    7
 10
286.17400298247469
 20
136.34369721283784
 40
0.2346452265172391
  0
CIRCLE
  8
_1-0_
  6
CONTINUOUS
 62
    7
 10
286.67177767366979
 20
138.66656329180745
 40
0.2346452265172391
  0
CIRCLE
  8
_1-0_
  6
CONTINUOUS
 62
    7
 10
279.86908783783787
 20
139.66207555822425
 40
0.2346452265172391
  0
CIRCLE
  8
_1-0_
  6
CONTINUOUS
 62
    7
 10
282.85563700907943
 20
137.83697179845862
 40
0.2346452265172391
  0
CIRCLE
  8
_1-0_
  6
CONTINUOUS
 62
    7
 10
283.68522850242823
 20
136.84145953204182
 40
0.2346452265172391
  0
CIRCLE
  8
_1-0_
  6
CONTINUOUS
 62
    7
 10
281.19645402238177
 20
138.33472174567146
 40
0.2346452265172391
  0
CIRCLE
  8
_1-0_
  6
CONTINUOUS
 62
    7
 10
279.70317943676099
 20
139.16432561101141
 40
0.2346452265172391
  0
CIRCLE
  8
_1-0_
  6
CONTINUOUS
 62
    7
 10
291.11089757970865
 20
133.42132155959672
 40
0.2346452265172391
  0
CIRCLE
  8
_1-0_
  6
CONTINUOUS
 62
    7
 10
292.43823902027026
 20
132.09396774704393
 40
0.2346452265172391
  0
CIRCLE
  8
_1-0_
  6
CONTINUOUS
 62
    7
 10
290.61312288851354
 20
132.92357161238388
 40
0.2346452265172391
  0
CIRCLE
  8
_1-0_
  6
CONTINUOUS
 62
    7
 10
289.11984830289276
 20
133.91908387880068
 40
0.2346452265172391
  0
CIRCLE
  8
_1-0_
  6
CONTINUOUS
 62
    7
 10
290.94496443464953
 20
132.92357161238388
 40
0.2346452265172391
  0
CIRCLE
  8
_1-0_
  6
CONTINUOUS
 62
    7
 10
290.61312288851354
 20
132.25990089210305
 40
0.2346452265172391
  0
CIRCLE
  8
_1-0_
  6
CONTINUOUS
 62
    7
 10
286.6310738228463
 20
133.25540078652872
 40
0.2346452265172391
  0
CIRCLE
  8
_1-0_
  6
CONTINUOUS
 62
    7
 10
285.8014823294975
 20
135.57826686549831
 40
0.2346452265172391
  0
CIRCLE
  8
_1-0_
  6
CONTINUOUS
 62
    7
 10
291.22984190244932
 20
135.85846772065034
 40
0.2346452265172391
  0
CIRCLE
  8
_1-0_
  6
CONTINUOUS
 62
    7
 10
289.07290896853885
 20
137.84949225348396
 40
0.2346452265172391
  0
CIRCLE
  8
_1-0_
  6
CONTINUOUS
 62
    7
 10
287.41370123785896
 20
136.85397998706716
 40
0.2346452265172391
  0
CIRCLE
  8
_1-0_
  6
CONTINUOUS
 62
    7
 10
289.23881736961573
 20
136.19030926678633
 40
0.2346452265172391
  0
CIRCLE
  8
_1-0_
  6
CONTINUOUS
 62
    7
 10
289.90250046188771
 20
135.36070540144638
 40
0.2346452265172391
  0
CIRCLE
  8
_1-0_
  6
CONTINUOUS
 62
    7
 10
286.25226819837417
 20
136.68805921399917
 40
0.2346452265172391
  0
CIRCLE
  8
_1-0_
  6
CONTINUOUS
 62
    7
 10
293.42436094541807
 20
132.34599757838893
 40
0.2346452265172391
  0
CIRCLE
  8
_1-0_
  6
CONTINUOUS
 62
    7
 10
292.26292790593328
 20
132.18007680532097
 40
0.2346452265172391
  0
CIRCLE
  8
_1-0_
  6
CONTINUOUS
 62
    7
 10
291.43331166860219
 20
133.83925979201859
 40
0.2346452265172391
  0
CIRCLE
  8
_1-0_
  6
CONTINUOUS
 62
    7
 10
291.93108635979729
 20
136.16212587098818
 40
0.2346452265172391
  0
CIRCLE
  8
_1-0_
  6
CONTINUOUS
 62
    7
 10
285.12839652396536
 20
137.157638137405
 40
0.2346452265172391
  0
CIRCLE
  8
_1-0_
  6
CONTINUOUS
 62
    7
 10
288.11494569520693
 20
135.33253437763938
 40
0.2346452265172391
  0
CIRCLE
  8
_1-0_
  6
CONTINUOUS
 62
    7
 10
288.94453718855578
 20
134.33702211122255
 40
0.2346452265172391
  0
CIRCLE
  8
_1-0_
  6
CONTINUOUS
 62
    7
 10
286.45576270850933
 20
135.83028432485222
 40
0.2346452265172391
  0
CIRCLE
  8
_1-0_
  6
CONTINUOUS
 62
    7
 10
284.96248812288854
 20
136.65988819019216
 40
0.2346452265172391
  0
CIRCLE
  8
_1-0_
  6
CONTINUOUS
 62
    7
 10
305.13573723870354
 20
126.6593479465794
 40
0.2346452265172391
  0
CIRCLE
  8
_1-0_
  6
CONTINUOUS
 62
    7
 10
306.46307867926521
 20
125.33199413402662
 40
0.2346452265172391
  0
CIRCLE
  8
_1-0_
  6
CONTINUOUS
 62
    7
 10
304.63796254750844
 20
126.16159799936656
 40
0.2346452265172391
  0
CIRCLE
  8
_1-0_
  6
CONTINUOUS
 62
    7
 10
303.14468796188771
 20
127.15711026578337
 40
0.2346452265172391
  0
CIRCLE
  8
_1-0_
  6
CONTINUOUS
 62
    7
 10
304.96980409364443
 20
126.16159799936656
 40
0.2346452265172391
  0
CIRCLE
  8
_1-0_
  6
CONTINUOUS
 62
    7
 10
304.63796254750844
 20
125.49792727908573
 40
0.2346452265172391
  0
CIRCLE
  8
_1-0_
  6
CONTINUOUS
 62
    7
 10
300.65591348184125
 20
126.49342717351141
 40
0.2346452265172391
  0
CIRCLE
  8
_1-0_
  6
CONTINUOUS
 62
    7
 10
299.8263219884924
 20
128.81629325248102
 40
0.2346452265172391
  0
CIRCLE
  8
_1-0_
  6
CONTINUOUS
 62
    7
 10
305.25468156144427
 20
129.09649410763302
 40
0.2346452265172391
  0
CIRCLE
  8
_1-0_
  6
CONTINUOUS
 62
    7
 10
303.0977486275338
 20
131.08751864046664
 40
0.2346452265172391
  0
CIRCLE
  8
_1-0_
  6
CONTINUOUS
 62
    7
 10
301.43854089685391
 20
130.09200637404984
 40
0.2346452265172391
  0
CIRCLE
  8
_1-0_
  6
CONTINUOUS
 62
    7
 10
303.26365702861068
 20
129.42833565376901
 40
0.2346452265172391
  0
CIRCLE
  8
_1-0_
  6
CONTINUOUS
 62
    7
 10
303.9273401208826
 20
128.59873178842906
 40
0.2346452265172391
  0
CIRCLE
  8
_1-0_
  6
CONTINUOUS
 62
    7
 10
300.27710785736912
 20
129.92608560098185
 40
0.2346452265172391
  0
CIRCLE
  8
_1-0_
  6
CONTINUOUS
 62
    7
 10
307.44920060441302
 20
125.58402396537163
 40
0.2346452265172391
  0
CIRCLE
  8
_1-0_
  6
CONTINUOUS
 62
    7
 10
306.28776756492823
 20
125.41810319230363
 40
0.2346452265172391
  0
CIRCLE
  8
_1-0_
  6
CONTINUOUS
 62
    7
 10
305.45815132759714
 20
127.07728617900128
 40
0.2346452265172391
  0
CIRCLE
  8
_1-0_
  6
CONTINUOUS
 62
    7
 10
305.95592601879224
 20
129.40015225797086
 40
0.2346452265172391
  0
CIRCLE
  8
_1-0_
  6
CONTINUOUS
 62
    7
 10
299.15323618296031
 20
130.39566452438768
 40
0.2346452265172391
  0
CIRCLE
  8
_1-0_
  6
CONTINUOUS
 62
    7
 10
302.13978535420188
 20
128.57056076462206
 40
0.2346452265172391
  0
CIRCLE
  8
_1-0_
  6
CONTINUOUS
 62
    7
 10
302.96937684755068
 20
127.57504849820525
 40
0.2346452265172391
  0
CIRCLE
  8
_1-0_
  6
CONTINUOUS
 62
    7
 10
300.48060236750422
 20
129.0683107118349
 40
0.2346452265172391
  0
CIRCLE
  8
_1-0_
  6
CONTINUOUS
 62
    7
 10
298.98732778188344
 20
129.89791457717484
 40
0.2346452265172391
  0
CIRCLE
  8
_1-0_
  6
CONTINUOUS
 62
    7
 10
316.90657332136828
 20
122.15136553790119
 40
0.2346452265172391
  0
CIRCLE
  8
_1-0_
  6
CONTINUOUS
 62
    7
 10
318.2339147619299
 20
120.8240117253484
 40
0.2346452265172391
  0
CIRCLE
  8
_1-0_
  6
CONTINUOUS
 62
    7
 10
316.40879863017318
 20
121.65361559068835
 40
0.2346452265172391
  0
CIRCLE
  8
_1-0_
  6
CONTINUOUS
 62
    7
 10
314.9155240445524
 20
122.64912785710516
 40
0.2346452265172391
  0
CIRCLE
  8
_1-0_
  6
CONTINUOUS
 62
    7
 10
316.74064017630911
 20
121.65361559068835
 40
0.2346452265172391
  0
CIRCLE
  8
_1-0_
  6
CONTINUOUS
 62
    7
 10
316.40879863017318
 20
120.98994487040753
 40
0.2346452265172391
  0
CIRCLE
  8
_1-0_
  6
CONTINUOUS
 62
    7
 10
312.42674956450594
 20
121.9854447648332
 40
0.2346452265172391
  0
CIRCLE
  8
_1-0_
  6
CONTINUOUS
 62
    7
 10
311.59715807115714
 20
124.3083108438028
 40
0.2346452265172391
  0
CIRCLE
  8
_1-0_
  6
CONTINUOUS
 62
    7
 10
317.02551764410896
 20
124.58851169895482
 40
0.2346452265172391
  0
CIRCLE
  8
_1-0_
  6
CONTINUOUS
 62
    7
 10
314.86858471019849
 20
126.57953623178844
 40
0.2346452265172391
  0
CIRCLE
  8
_1-0_
  6
CONTINUOUS
 62
    7
 10
313.20937697951859
 20
125.58402396537163
 40
0.2346452265172391
  0
CIRCLE
  8
_1-0_
  6
CONTINUOUS
 62
    7
 10
315.03449311127537
 20
124.92035324509079
 40
0.2346452265172391
  0
CIRCLE
  8
_1-0_
  6
CONTINUOUS
 62
    7
 10
315.69817620354729
 20
124.09074937975085
 40
0.2346452265172391
  0
CIRCLE
  8
_1-0_
  6
CONTINUOUS
 62
    7
 10
312.0479439400338
 20
125.41810319230363
 40
0.2346452265172391
  0
CIRCLE
  8
_1-0_
  6
CONTINUOUS
 62
    7
 10
319.22003668707771
 20
121.07604155669343
 40
0.2346452265172391
  0
CIRCLE
  8
_1-0_
  6
CONTINUOUS
 62
    7
 10
318.05860364759292
 20
120.91012078362543
 40
0.2346452265172391
  0
CIRCLE
  8
_1-0_
  6
CONTINUOUS
 62
    7
 10
317.22898741026182
 20
122.56930377032306
 40
0.2346452265172391
  0
CIRCLE
  8
_1-0_
  6
CONTINUOUS
 62
    7
 10
317.72676210145693
 20
124.89216984929266
 40
0.2346452265172391
  0
CIRCLE
  8
_1-0_
  6
CONTINUOUS
 62
    7
 10
310.924072265625
 20
125.88768211570947
 40
0.2346452265172391
  0
CIRCLE
  8
_1-0_
  6
CONTINUOUS
 62
    7
 10
313.91062143686656
 20
124.06257835594384
 40
0.2346452265172391
  0
CIRCLE
  8
_1-0_
  6
CONTINUOUS
 62
    7
 10
314.74021293021536
 20
123.06706608952703
 40
0.2346452265172391
  0
CIRCLE
  8
_1-0_
  6
CONTINUOUS
 62
    7
 10
312.25143845016896
 20
124.56032830315668
 40
0.2346452265172391
  0
CIRCLE
  8
_1-0_
  6
CONTINUOUS
 62
    7
 10
310.75816386454818
 20
125.38993216849663
 40
0.2346452265172391
  0
CIRCLE
  8
_1-0_
  6
CONTINUOUS
 62
    7
 10
322.41631585198479
 20
118.14427556218328
 40
0.2346452265172391
  0
CIRCLE
  8
_1-0_
  6
CONTINUOUS
 62
    7
 10
323.74365729254646
 20
116.8169217496305
 40
0.2346452265172391
  0
CIRCLE
  8
_1-0_
  6
CONTINUOUS
 62
    7
 10
321.91854116078969
 20
117.64652561497044
 40
0.2346452265172391
  0
CIRCLE
  8
_1-0_
  6
CONTINUOUS
 62
    7
 10
320.42526657516896
 20
118.64203788138725
 40
0.2346452265172391
  0
CIRCLE
  8
_1-0_
  6
CONTINUOUS
 62
    7
 10
322.25038270692568
 20
117.64652561497044
 40
0.2346452265172391
  0
CIRCLE
  8
_1-0_
  6
CONTINUOUS
 62
    7
 10
321.91854116078969
 20
116.98285489468962
 40
0.2346452265172391
  0
CIRCLE
  8
_1-0_
  6
CONTINUOUS
 62
    7
 10
317.9364920951225
 20
117.9783547891153
 40
0.2346452265172391
  0
CIRCLE
  8
_1-0_
  6
CONTINUOUS
 62
    7
 10
317.10690060177365
 20
120.30122086808488
 40
0.2346452265172391
  0
CIRCLE
  8
_1-0_
  6
CONTINUOUS
 62
    7
 10
322.53526017472552
 20
120.58142172323691
 40
0.2346452265172391
  0
CIRCLE
  8
_1-0_
  6
CONTINUOUS
 62
    7
 10
320.37832724081505
 20
122.57244625607053
 40
0.2346452265172391
  0
CIRCLE
  8
_1-0_
  6
CONTINUOUS
 62
    7
 10
318.71911951013516
 20
121.57693398965372
 40
0.2346452265172391
  0
CIRCLE
  8
_1-0_
  6
CONTINUOUS
 62
    7
 10
320.54423564189193
 20
120.91326326937289
 40
0.2346452265172391
  0
CIRCLE
  8
_1-0_
  6
CONTINUOUS
 62
    7
 10
321.20791873416385
 20
120.08365940403294
 40
0.2346452265172391
  0
CIRCLE
  8
_1-0_
  6
CONTINUOUS
 62
    7
 10
317.55768647065037
 20
121.41101321658573
 40
0.2346452265172391
  0
CIRCLE
  8
_1-0_
  6
CONTINUOUS
 62
    7
 10
324.72977921769427
 20
117.06895158097551
 40
0.2346452265172391
  0
CIRCLE
  8
_1-0_
  6
CONTINUOUS
 62
    7
 10
323.56834617820948
 20
116.90303080790753
 40
0.2346452265172391
  0
CIRCLE
  8
_1-0_
  6
CONTINUOUS
 62
    7
 10
322.73872994087839
 20
118.56221379460516
 40
0.2346452265172391
  0
CIRCLE
  8
_1-0_
  6
CONTINUOUS
 62
    7
 10
323.23650463207349
 20
120.88507987357475
 40
0.2346452265172391
  0
CIRCLE
  8
_1-0_
  6
CONTINUOUS
 62
    7
 10
316.43381479624156
 20
121.88059213999156
 40
0.2346452265172391
  0
CIRCLE
  8
_1-0_
  6
CONTINUOUS
 62
    7
 10
319.42036396748313
 20
120.05548838022594
 40
0.2346452265172391
  0
CIRCLE
  8
_1-0_
  6
CONTINUOUS
 62
    7
 10
320.24995546083193
 20
119.05997611380913
 40
0.2346452265172391
  0
CIRCLE
  8
_1-0_
  6
CONTINUOUS
 62
    7
 10
317.76118098078547
 20
120.55323832743878
 40
0.2346452265172391
  0
CIRCLE
  8
_1-0_
  6
CONTINUOUS
 62
    7
 10
316.26790639516469
 20
121.38284219277872
 40
0.2346452265172391
  0
CIRCLE
  8
_1-0_
  6
CONTINUOUS
 62
    7
 10
343.70403392894849
 20
108.62741831186656
 40
0.2346452265172391
  0
CIRCLE
  8
_1-0_
  6
CONTINUOUS
 62
    7
 10
345.03137536951016
 20
107.30006449931378
 40
0.2346452265172391
  0
CIRCLE
  8
_1-0_
  6
CONTINUOUS
 62
    7
 10
343.20625923775339
 20
108.12966836465372
 40
0.2346452265172391
  0
CIRCLE
  8
_1-0_
  6
CONTINUOUS
 62
    7
 10
341.7129846521326
 20
109.12518063107053
 40
0.2346452265172391
  0
CIRCLE
  8
_1-0_
  6
CONTINUOUS
 62
    7
 10
343.53810078388938
 20
108.12966836465372
 40
0.2346452265172391
  0
CIRCLE
  8
_1-0_
  6
CONTINUOUS
 62
    7
 10
343.20625923775339
 20
107.46599764437289
 40
0.2346452265172391
  0
CIRCLE
  8
_1-0_
  6
CONTINUOUS
 62
    7
 10
339.22421017208615
 20
108.46149753879857
 40
0.2346452265172391
  0
CIRCLE
  8
_1-0_
  6
CONTINUOUS
 62
    7
 10
338.39461867873734
 20
110.78436361776816
 40
0.2346452265172391
  0
CIRCLE
  8
_1-0_
  6
CONTINUOUS
 62
    7
 10
343.82297825168922
 20
111.0645644729202
 40
0.2346452265172391
  0
CIRCLE
  8
_1-0_
  6
CONTINUOUS
 62
    7
 10
341.66604531777875
 20
113.0555890057538
 40
0.2346452265172391
  0
CIRCLE
  8
_1-0_
  6
CONTINUOUS
 62
    7
 10
340.00683758709886
 20
112.06007673933701
 40
0.2346452265172391
  0
CIRCLE
  8
_1-0_
  6
CONTINUOUS
 62
    7
 10
341.83195371885557
 20
111.39640601905617
 40
0.2346452265172391
  0
CIRCLE
  8
_1-0_
  6
CONTINUOUS
 62
    7
 10
342.49563681112755
 20
110.56680215371622
 40
0.2346452265172391
  0
CIRCLE
  8
_1-0_
  6
CONTINUOUS
 62
    7
 10
338.84540454761407
 20
111.89415596626901
 40
0.2346452265172391
  0
CIRCLE
  8
_1-0_
  6
CONTINUOUS
 62
    7
 10
346.01749729465797
 20
107.55209433065879
 40
0.2346452265172391
  0
CIRCLE
  8
_1-0_
  6
CONTINUOUS
 62
    7
 10
344.85606425517318
 20
107.38617355759079
 40
0.2346452265172391
  0
CIRCLE
  8
_1-0_
  6
CONTINUOUS
 62
    7
 10
344.02644801784209
 20
109.04535654428844
 40
0.2346452265172391
  0
CIRCLE
  8
_1-0_
  6
CONTINUOUS
 62
    7
 10
344.52422270903719
 20
111.36822262325803
 40
0.2346452265172391
  0
CIRCLE
  8
_1-0_
  6
CONTINUOUS
 62
    7
 10
337.72153287320526
 20
112.36373488967483
 40
0.2346452265172391
  0
CIRCLE
  8
_1-0_
  6
CONTINUOUS
 62
    7
 10
340.70808204444683
 20
110.53863112990921
 40
0.2346452265172391
  0
CIRCLE
  8
_1-0_
  6
CONTINUOUS
 62
    7
 10
341.53767353779563
 20
109.54311886349241
 40
0.2346452265172391
  0
CIRCLE
  8
_1-0_
  6
CONTINUOUS
 62
    7
 10
339.04889905774917
 20
111.03638107712204
 40
0.2346452265172391
  0
CIRCLE
  8
_1-0_
  6
CONTINUOUS
 62
    7
 10
337.55562447212839
 20
111.86598494246201
 40
0.2346452265172391
  0
CIRCLE
  8
_1-0_
  6
CONTINUOUS
 62
    7
 10
333.68628424567146
 20
113.63629315350508
 40
0.2346452265172391
  0
CIRCLE
  8
_1-0_
  6
CONTINUOUS
 62
    7
 10
335.01362568623313
 20
112.30893934095229
 40
0.2346452265172391
  0
CIRCLE
  8
_1-0_
  6
CONTINUOUS
 62
    7
 10
333.18850955447635
 20
113.13854320629224
 40
0.2346452265172391
  0
CIRCLE
  8
_1-0_
  6
CONTINUOUS
 62
    7
 10
331.69523496885557
 20
114.13405547270904
 40
0.2346452265172391
  0
CIRCLE
  8
_1-0_
  6
CONTINUOUS
 62
    7
 10
333.52035110061234
 20
113.13854320629224
 40
0.2346452265172391
  0
CIRCLE
  8
_1-0_
  6
CONTINUOUS
 62
    7
 10
333.18850955447635
 20
112.47487248601141
 40
0.2346452265172391
  0
CIRCLE
  8
_1-0_
  6
CONTINUOUS
 62
    7
 10
329.20646048880911
 20
113.47037238043708
 40
0.2346452265172391
  0
CIRCLE
  8
_1-0_
  6
CONTINUOUS
 62
    7
 10
328.37686899546031
 20
115.79323845940668
 40
0.2346452265172391
  0
CIRCLE
  8
_1-0_
  6
CONTINUOUS
 62
    7
 10
333.80522856841219
 20
116.07343931455871
 40
0.2346452265172391
  0
CIRCLE
  8
_1-0_
  6
CONTINUOUS
 62
    7
 10
331.64829563450172
 20
118.06446384739232
 40
0.2346452265172391
  0
CIRCLE
  8
_1-0_
  6
CONTINUOUS
 62
    7
 10
329.98908790382183
 20
117.06895158097551
 40
0.2346452265172391
  0
CIRCLE
  8
_1-0_
  6
CONTINUOUS
 62
    7
 10
331.81420403557854
 20
116.40528086069469
 40
0.2346452265172391
  0
CIRCLE
  8
_1-0_
  6
CONTINUOUS
 62
    7
 10
332.47788712785052
 20
115.57567699535474
 40
0.2346452265172391
  0
CIRCLE
  8
_1-0_
  6
CONTINUOUS
 62
    7
 10
328.82765486433703
 20
116.90303080790753
 40
0.2346452265172391
  0
CIRCLE
  8
_1-0_
  6
CONTINUOUS
 62
    7
 10
335.99974761138094
 20
112.56096917229731
 40
0.2346452265172391
  0
CIRCLE
  8
_1-0_
  6
CONTINUOUS
 62
    7
 10
334.83831457189615
 20
112.39504839922931
 40
0.2346452265172391
  0
CIRCLE
  8
_1-0_
  6
CONTINUOUS
 62
    7
 10
334.00869833456505
 20
114.05423138592695
 40
0.2346452265172391
  0
CIRCLE
  8
_1-0_
  6
CONTINUOUS
 62
    7
 10
334.50647302576016
 20
116.37709746489655
 40
0.2346452265172391
  0
CIRCLE
  8
_1-0_
  6
CONTINUOUS
 62
    7
 10
327.70378318992823
 20
117.37260973131335
 40
0.2346452265172391
  0
CIRCLE
  8
_1-0_
  6
CONTINUOUS
 62
    7
 10
330.69033236116979
 20
115.54750597154772
 40
0.2346452265172391
  0
CIRCLE
  8
_1-0_
  6
CONTINUOUS
 62
    7
 10
331.51992385451859
 20
114.55199370513093
 40
0.2346452265172391
  0
CIRCLE
  8
_1-0_
  6
CONTINUOUS
 62
    7
 10
329.03114937447214
 20
116.04525591876056
 40
0.2346452265172391
  0
CIRCLE
  8
_1-0_
  6
CONTINUOUS
 62
    7
 10
327.53787478885135
 20
116.87485978410051
 40
0.2346452265172391
  0
CIRCLE
  8
_1-0_
  6
CONTINUOUS
 62
    7
 10
355.72532860008448
 20
103.8689896867082
 40
0.2346452265172391
  0
CIRCLE
  8
_1-0_
  6
CONTINUOUS
 62
    7
 10
357.05267004064615
 20
102.54163587415542
 40
0.2346452265172391
  0
CIRCLE
  8
_1-0_
  6
CONTINUOUS
 62
    7
 10
355.22755390888938
 20
103.37123973949537
 40
0.2346452265172391
  0
CIRCLE
  8
_1-0_
  6
CONTINUOUS
 62
    7
 10
353.73427932326859
 20
104.36675200591216
 40
0.2346452265172391
  0
CIRCLE
  8
_1-0_
  6
CONTINUOUS
 62
    7
 10
355.55939545502537
 20
103.37123973949537
 40
0.2346452265172391
  0
CIRCLE
  8
_1-0_
  6
CONTINUOUS
 62
    7
 10
355.22755390888938
 20
102.70756901921453
 40
0.2346452265172391
  0
CIRCLE
  8
_1-0_
  6
CONTINUOUS
 62
    7
 10
351.24550484322214
 20
103.70306891364021
 40
0.2346452265172391
  0
CIRCLE
  8
_1-0_
  6
CONTINUOUS
 62
    7
 10
350.41591334987334
 20
106.02593499260981
 40
0.2346452265172391
  0
CIRCLE
  8
_1-0_
  6
CONTINUOUS
 62
    7
 10
355.84427292282521
 20
106.30613584776184
 40
0.2346452265172391
  0
CIRCLE
  8
_1-0_
  6
CONTINUOUS
 62
    7
 10
353.68733998891474
 20
108.29716038059544
 40
0.2346452265172391
  0
CIRCLE
  8
_1-0_
  6
CONTINUOUS
 62
    7
 10
352.02813225823479
 20
107.30164811417863
 40
0.2346452265172391
  0
CIRCLE
  8
_1-0_
  6
CONTINUOUS
 62
    7
 10
353.85324838999156
 20
106.63797739389781
 40
0.2346452265172391
  0
CIRCLE
  8
_1-0_
  6
CONTINUOUS
 62
    7
 10
354.51693148226354
 20
105.80837352855787
 40
0.2346452265172391
  0
CIRCLE
  8
_1-0_
  6
CONTINUOUS
 62
    7
 10
350.86669921875
 20
107.13572734111065
 40
0.2346452265172391
  0
CIRCLE
  8
_1-0_
  6
CONTINUOUS
 62
    7
 10
358.03879196579396
 20
102.79366570550043
 40
0.2346452265172391
  0
CIRCLE
  8
_1-0_
  6
CONTINUOUS
 62
    7
 10
356.87735892630911
 20
102.62774493243244
 40
0.2346452265172391
  0
CIRCLE
  8
_1-0_
  6
CONTINUOUS
 62
    7
 10
356.04774268897808
 20
104.28692791913008
 40
0.2346452265172391
  0
CIRCLE
  8
_1-0_
  6
CONTINUOUS
 62
    7
 10
356.54551738017318
 20
106.60979399809966
 40
0.2346452265172391
  0
CIRCLE
  8
_1-0_
  6
CONTINUOUS
 62
    7
 10
349.74282754434125
 20
107.60530626451647
 40
0.2346452265172391
  0
CIRCLE
  8
_1-0_
  6
CONTINUOUS
 62
    7
 10
352.72937671558282
 20
105.78020250475085
 40
0.2346452265172391
  0
CIRCLE
  8
_1-0_
  6
CONTINUOUS
 62
    7
 10
353.55896820893162
 20
104.78469023833404
 40
0.2346452265172391
  0
CIRCLE
  8
_1-0_
  6
CONTINUOUS
 62
    7
 10
351.07019372888516
 20
106.27795245196369
 40
0.2346452265172391
  0
CIRCLE
  8
_1-0_
  6
CONTINUOUS
 62
    7
 10
349.57691914326438
 20
107.10755631730363
 40
0.2346452265172391
  0
CIRCLE
  8
_1-0_
  6
CONTINUOUS
 62
    7
 10
361.48552971917229
 20
100.36277977195947
 40
0.2346452265172391
  0
CIRCLE
  8
_1-0_
  6
CONTINUOUS
 62
    7
 10
362.81287115973396
 20
99.03542595940668
 40
0.2346452265172391
  0
CIRCLE
  8
_1-0_
  6
CONTINUOUS
 62
    7
 10
360.98775502797724
 20
99.865029824746628
 40
0.2346452265172391
  0
CIRCLE
  8
_1-0_
  6
CONTINUOUS
 62
    7
 10
359.49448044235646
 20
100.86054209116344
 40
0.2346452265172391
  0
CIRCLE
  8
_1-0_
  6
CONTINUOUS
 62
    7
 10
361.31959657411318
 20
99.865029824746628
 40
0.2346452265172391
  0
CIRCLE
  8
_1-0_
  6
CONTINUOUS
 62
    7
 10
360.98775502797724
 20
99.201359104465794
 40
0.2346452265172391
  0
CIRCLE
  8
_1-0_
  6
CONTINUOUS
 62
    7
 10
357.00570596231
 20
100.19685899889147
 40
0.2346452265172391
  0
CIRCLE
  8
_1-0_
  6
CONTINUOUS
 62
    7
 10
356.17611446896115
 20
102.51972507786107
 40
0.2346452265172391
  0
CIRCLE
  8
_1-0_
  6
CONTINUOUS
 62
    7
 10
361.60447404191302
 20
102.7999259330131
 40
0.2346452265172391
  0
CIRCLE
  8
_1-0_
  6
CONTINUOUS
 62
    7
 10
359.44754110800255
 20
104.79095046584671
 40
0.2346452265172391
  0
CIRCLE
  8
_1-0_
  6
CONTINUOUS
 62
    7
 10
357.78833337732266
 20
103.79543819942991
 40
0.2346452265172391
  0
CIRCLE
  8
_1-0_
  6
CONTINUOUS
 62
    7
 10
359.61344950907943
 20
103.13176747914908
 40
0.2346452265172391
  0
CIRCLE
  8
_1-0_
  6
CONTINUOUS
 62
    7
 10
360.27713260135135
 20
102.30216361380913
 40
0.2346452265172391
  0
CIRCLE
  8
_1-0_
  6
CONTINUOUS
 62
    7
 10
356.62690033783787
 20
103.62951742636191
 40
0.2346452265172391
  0
CIRCLE
  8
_1-0_
  6
CONTINUOUS
 62
    7
 10
363.79899308488177
 20
99.287455790751693
 40
0.2346452265172391
  0
CIRCLE
  8
_1-0_
  6
CONTINUOUS
 62
    7
 10
362.63756004539698
 20
99.121535017683698
 40
0.2346452265172391
  0
CIRCLE
  8
_1-0_
  6
CONTINUOUS
 62
    7
 10
361.80794380806589
 20
100.78071800438134
 40
0.2346452265172391
  0
CIRCLE
  8
_1-0_
  6
CONTINUOUS
 62
    7
 10
362.30571849926099
 20
103.10358408335094
 40
0.2346452265172391
  0
CIRCLE
  8
_1-0_
  6
CONTINUOUS
 62
    7
 10
355.50302866342906
 20
104.09909634976775
 40
0.2346452265172391
  0
CIRCLE
  8
_1-0_
  6
CONTINUOUS
 62
    7
 10
358.48957783467063
 20
102.27399259000212
 40
0.2346452265172391
  0
CIRCLE
  8
_1-0_
  6
CONTINUOUS
 62
    7
 10
359.31916932801943
 20
101.27848032358531
 40
0.2346452265172391
  0
CIRCLE
  8
_1-0_
  6
CONTINUOUS
 62
    7
 10
356.83039484797297
 20
102.77174253721496
 40
0.2346452265172391
  0
CIRCLE
  8
_1-0_
  6
CONTINUOUS
 62
    7
 10
355.33712026235224
 20
103.60134640255491
 40
0.2346452265172391
  0
CIRCLE
  8
_1-0_
  6
CONTINUOUS
 62
    7
 10
370.751953125
 20
96.856576043206303
 40
0.2346452265172391
  0
CIRCLE
  8
_1-0_
  6
CONTINUOUS
 62
    7
 10
372.07929456556167
 20
95.529222230653517
 40
0.2346452265172391
  0
CIRCLE
  8
_1-0_
  6
CONTINUOUS
 62
    7
 10
370.2541784338049
 20
96.358826095993464
 40
0.2346452265172391
  0
CIRCLE
  8
_1-0_
  6
CONTINUOUS
 62
    7
 10
368.76090384818411
 20
97.35433836241026
 40
0.2346452265172391
  0
CIRCLE
  8
_1-0_
  6
CONTINUOUS
 62
    7
 10
370.58601997994089
 20
96.358826095993464
 40
0.2346452265172391
  0
CIRCLE
  8
_1-0_
  6
CONTINUOUS
 62
    7
 10
370.2541784338049
 20
95.695155375712631
 40
0.2346452265172391
  0
CIRCLE
  8
_1-0_
  6
CONTINUOUS
 62
    7
 10
366.27212936813771
 20
96.690655270138308
 40
0.2346452265172391
  0
CIRCLE
  8
_1-0_
  6
CONTINUOUS
 62
    7
 10
365.44253787478885
 20
99.013521349107904
 40
0.2346452265172391
  0
CIRCLE
  8
_1-0_
  6
CONTINUOUS
 62
    7
 10
370.87089744774073
 20
99.293722204259936
 40
0.2346452265172391
  0
CIRCLE
  8
_1-0_
  6
CONTINUOUS
 62
    7
 10
368.71396451383026
 20
101.28474673709354
 40
0.2346452265172391
  0
CIRCLE
  8
_1-0_
  6
CONTINUOUS
 62
    7
 10
367.05475678315037
 20
100.28923447067673
 40
0.2346452265172391
  0
CIRCLE
  8
_1-0_
  6
CONTINUOUS
 62
    7
 10
368.87987291490714
 20
99.625563750395912
 40
0.2346452265172391
  0
CIRCLE
  8
_1-0_
  6
CONTINUOUS
 62
    7
 10
369.54355600717906
 20
98.795959885055964
 40
0.2346452265172391
  0
CIRCLE
  8
_1-0_
  6
CONTINUOUS
 62
    7
 10
365.89332374366558
 20
100.12331369760875
 40
0.2346452265172391
  0
CIRCLE
  8
_1-0_
  6
CONTINUOUS
 62
    7
 10
373.06541649070948
 20
95.781252061998529
 40
0.2346452265172391
  0
CIRCLE
  8
_1-0_
  6
CONTINUOUS
 62
    7
 10
371.90398345122469
 20
95.615331288930534
 40
0.2346452265172391
  0
CIRCLE
  8
_1-0_
  6
CONTINUOUS
 62
    7
 10
371.07436721389359
 20
97.274514275628178
 40
0.2346452265172391
  0
CIRCLE
  8
_1-0_
  6
CONTINUOUS
 62
    7
 10
371.5721419050887
 20
99.59738035459776
 40
0.2346452265172391
  0
CIRCLE
  8
_1-0_
  6
CONTINUOUS
 62
    7
 10
364.76945206925677
 20
100.59289262101457
 40
0.2346452265172391
  0
CIRCLE
  8
_1-0_
  6
CONTINUOUS
 62
    7
 10
367.75600124049834
 20
98.767788861248945
 40
0.2346452265172391
  0
CIRCLE
  8
_1-0_
  6
CONTINUOUS
 62
    7
 10
368.58559273384714
 20
97.772276594832135
 40
0.2346452265172391
  0
CIRCLE
  8
_1-0_
  6
CONTINUOUS
 62
    7
 10
366.09681825380068
 20
99.265538808461784
 40
0.2346452265172391
  0
CIRCLE
  8
_1-0_
  6
CONTINUOUS
 62
    7
 10
364.6035436681799
 20
100.09514267380173
 40
0.2346452265172391
  0
CIRCLE
  8
_1-0_
  6
CONTINUOUS
 62
    7
 10
383.27411548511407
 20
94.101698591902448
 40
0.2346452265172391
  0
CIRCLE
  8
_1-0_
  6
CONTINUOUS
 62
    7
 10
384.60145692567568
 20
92.774344779349661
 40
0.2346452265172391
  0
CIRCLE
  8
_1-0_
  6
CONTINUOUS
 62
    7
 10
382.77634079391896
 20
93.603948644689623
 40
0.2346452265172391
  0
CIRCLE
  8
_1-0_
  6
CONTINUOUS
 62
    7
 10
381.28306620829818
 20
94.599460911106419
 40
0.2346452265172391
  0
CIRCLE
  8
_1-0_
  6
CONTINUOUS
 62
    7
 10
383.1081823400549
 20
93.603948644689623
 40
0.2346452265172391
  0
CIRCLE
  8
_1-0_
  6
CONTINUOUS
 62
    7
 10
382.77634079391896
 20
92.94027792440879
 40
0.2346452265172391
  0
CIRCLE
  8
_1-0_
  6
CONTINUOUS
 62
    7
 10
378.79429172825172
 20
93.935777818834467
 40
0.2346452265172391
  0
CIRCLE
  8
_1-0_
  6
CONTINUOUS
 62
    7
 10
377.96470023490292
 20
96.258643897804063
 40
0.2346452265172391
  0
CIRCLE
  8
_1-0_
  6
CONTINUOUS
 62
    7
 10
383.39305980785474
 20
96.538844752956081
 40
0.2346452265172391
  0
CIRCLE
  8
_1-0_
  6
CONTINUOUS
 62
    7
 10
381.23612687394427
 20
98.529869285789701
 40
0.2346452265172391
  0
CIRCLE
  8
_1-0_
  6
CONTINUOUS
 62
    7
 10
379.57691914326438
 20
97.534357019372891
 40
0.2346452265172391
  0
CIRCLE
  8
_1-0_
  6
CONTINUOUS
 62
    7
 10
381.40203527502115
 20
96.870686299092071
 40
0.2346452265172391
  0
CIRCLE
  8
_1-0_
  6
CONTINUOUS
 62
    7
 10
382.06571836729307
 20
96.041082433752123
 40
0.2346452265172391
  0
CIRCLE
  8
_1-0_
  6
CONTINUOUS
 62
    7
 10
378.41548610377959
 20
97.36843624630491
 40
0.2346452265172391
  0
CIRCLE
  8
_1-0_
  6
CONTINUOUS
 62
    7
 10
385.58757885082349
 20
93.026374610694688
 40
0.2346452265172391
  0
CIRCLE
  8
_1-0_
  6
CONTINUOUS
 62
    7
 10
384.4261458113387
 20
92.860453837626693
 40
0.2346452265172391
  0
CIRCLE
  8
_1-0_
  6
CONTINUOUS
 62
    7
 10
383.5965295740076
 20
94.519636824324323
 40
0.2346452265172391
  0
CIRCLE
  8
_1-0_
  6
CONTINUOUS
 62
    7
 10
384.09430426520271
 20
96.842502903293919
 40
0.2346452265172391
  0
CIRCLE
  8
_1-0_
  6
CONTINUOUS
 62
    7
 10
377.29161442937078
 20
97.838015169710729
 40
0.2346452265172391
  0
CIRCLE
  8
_1-0_
  6
CONTINUOUS
 62
    7
 10
380.27816360061234
 20
96.012911409945104
 40
0.2346452265172391
  0
CIRCLE
  8
_1-0_
  6
CONTINUOUS
 62
    7
 10
381.10775509396115
 20
95.017399143528294
 40
0.2346452265172391
  0
CIRCLE
  8
_1-0_
  6
CONTINUOUS
 62
    7
 10
378.61898061391474
 20
96.510661357157943
 40
0.2346452265172391
  0
CIRCLE
  8
_1-0_
  6
CONTINUOUS
 62
    7
 10
377.12570602829396
 20
97.340265222497891
 40
0.2346452265172391
  0
CIRCLE
  8
_1-0_
  6
CONTINUOUS
 62
    7
 10
380.26878563133448
 20
92.599033665012669
 40
0.2346452265172391
  0
CIRCLE
  8
_1-0_
  6
CONTINUOUS
 62
    7
 10
381.59612707189615
 20
91.271679852459883
 40
0.2346452265172391
  0
CIRCLE
  8
_1-0_
  6
CONTINUOUS
 62
    7
 10
379.77101094013938
 20
92.101283717799831
 40
0.2346452265172391
  0
CIRCLE
  8
_1-0_
  6
CONTINUOUS
 62
    7
 10
378.27773635451859
 20
93.096795984216641
 40
0.2346452265172391
  0
CIRCLE
  8
_1-0_
  6
CONTINUOUS
 62
    7
 10
380.10285248627537
 20
92.101283717799831
 40
0.2346452265172391
  0
CIRCLE
  8
_1-0_
  6
CONTINUOUS
 62
    7
 10
379.77101094013938
 20
91.437612997519011
 40
0.2346452265172391
  0
CIRCLE
  8
_1-0_
  6
CONTINUOUS
 62
    7
 10
375.78896187447214
 20
92.433112891944688
 40
0.2346452265172391
  0
CIRCLE
  8
_1-0_
  6
CONTINUOUS
 62
    7
 10
374.95937038112334
 20
94.755978970914285
 40
0.2346452265172391
  0
CIRCLE
  8
_1-0_
  6
CONTINUOUS
 62
    7
 10
380.38772995407521
 20
95.036179826066302
 40
0.2346452265172391
  0
CIRCLE
  8
_1-0_
  6
CONTINUOUS
 62
    7
 10
378.23079702016474
 20
97.027204358899922
 40
0.2346452265172391
  0
CIRCLE
  8
_1-0_
  6
CONTINUOUS
 62
    7
 10
376.57158928948479
 20
96.031692092483112
 40
0.2346452265172391
  0
CIRCLE
  8
_1-0_
  6
CONTINUOUS
 62
    7
 10
378.39670542124156
 20
95.368021372202293
 40
0.2346452265172391
  0
CIRCLE
  8
_1-0_
  6
CONTINUOUS
 62
    7
 10
379.06038851351354
 20
94.538417506862331
 40
0.2346452265172391
  0
CIRCLE
  8
_1-0_
  6
CONTINUOUS
 62
    7
 10
375.41015625
 20
95.865771319415117
 40
0.2346452265172391
  0
CIRCLE
  8
_1-0_
  6
CONTINUOUS
 62
    7
 10
382.58224899704396
 20
91.52370968380491
 40
0.2346452265172391
  0
CIRCLE
  8
_1-0_
  6
CONTINUOUS
 62
    7
 10
381.42081595755917
 20
91.357788910736915
 40
0.2346452265172391
  0
CIRCLE
  8
_1-0_
  6
CONTINUOUS
 62
    7
 10
380.59119972022808
 20
93.016971897434544
 40
0.2346452265172391
  0
CIRCLE
  8
_1-0_
  6
CONTINUOUS
 62
    7
 10
381.08897441142318
 20
95.339837976404141
 40
0.2346452265172391
  0
CIRCLE
  8
_1-0_
  6
CONTINUOUS
 62
    7
 10
374.28628457559125
 20
96.335350242820951
 40
0.2346452265172391
  0
CIRCLE
  8
_1-0_
  6
CONTINUOUS
 62
    7
 10
377.27283374683282
 20
94.510246483055326
 40
0.2346452265172391
  0
CIRCLE
  8
_1-0_
  6
CONTINUOUS
 62
    7
 10
378.10242524018162
 20
93.514734216638516
 40
0.2346452265172391
  0
CIRCLE
  8
_1-0_
  6
CONTINUOUS
 62
    7
 10
375.61365076013516
 20
95.007996430268165
 40
0.2346452265172391
  0
CIRCLE
  8
_1-0_
  6
CONTINUOUS
 62
    7
 10
374.12037617451438
 20
95.837600295608112
 40
0.2346452265172391
  0
TEXT
  8
_0-0_
 62
    7
 10
147.56756962956609
 20
22.702702702702709
 40
2.5
 41
1
 50
0
  1
図名
  0
TEXT
  8
_0-0_
 62
    7
 10
147.56756962956609
 20
12.972972972972968
 40
2.5
 41
1
 50
0
  1
縮尺
  0
TEXT
  8
_0-0_
 62
    7
 10
382.77784605284
 20
21.243871740392734
 40
2.5
 41
1
 50
0
  1
ＮＯ
  0
TEXT
  8
_0-0_
 62
    7
 10
20.270270012520456
 20
22.702702702702709
 40
2.5
 41
1
 50
0
  1
Ｆ形
  0
TEXT
  8
_0-0_
 62
    7
 10
389.99062615471917
 20
16.178650211643514
 40
2.5
 41
1
 50
0
  1
Ｆ
  0
TEXT
  8
_0-0_
 62
    7
 10
171.37221877639359
 20
12.362518826046511
 40
2.5
 41
1
 50
0
  1
1/5
  0
TEXT
  8
_0-1_
 62
    7
 10
41.891723323512736
 20
146.17057181693414
 40
2.5
 41
1
 50
0
  1
桟瓦
  0
TEXT
  8
_0-1_
 62
    7
 10
132.28468405233849
 20
82.509105785472983
 40
2.5
 41
1
 50
0
  1
瓦桟
  0
TEXT
  8
_1-4_
 62
    7
 10
161.7856061780775
 20
238.03097286739867
 40
2.5
 41
1
 50
0
  1
メタル棟
  0
TEXT
  8
_1-4_
 62
    7
 10
145.62216887602938
 20
217.78705493823904
 40
2.5
 41
1
 50
0
  1
棟止木　15ｘ90
  0
TEXT
  8
_1-4_
 62
    7
 10
45.397582698512736
 20
13.77361400707349
 40
2.5
 41
1
 50
0
  1
棟　2
  0
TEXT
  8
_1-4_
 62
    7
 10
31.231870393495313
 20
18.589955922719582
 40
2.5
 41
1
 50
0
  1
ＲＣ
  0
TEXT
  8
_1-5_
 62
    7
 10
132.78473312790331
 20
61.360609724714948
 40
2.5
 41
1
 50
0
  1
パーライト系モルタル　　ｔ＝50
  0
TEXT
  8
_1-4_
 62
    7
 10
400.49358058620146
 20
14.232232892835469
 40
2.5
 41
1
 50
0
  1
26
  0
LINE
  8
_1-5_
  6
DASHED1
 62
    7
 10
22.155204979149062
 20
98.239028518264362
 11
204.32433669631547
 21
180.21514892578125
  0
LINE
  8
_1-5_
  6
DASHED1
 62
    7
 10
204.32433669631547
 20
180.21514892578125
 11
249.92040441610405
 21
159.69689830609016
  0
LINE
  8
_1-5_
  6
DASHED1
 62
    7
 10
204.32433664423908
 20
179.88617321183008
 11
249.79729491238589
 21
159.42332189977142
  0
LINE
  8
_1-5_
  6
DASHED1
 62
    7
 10
204.32433664423908
 20
179.88617321183008
 11
158.72826283298389
 21
159.36793612872353
  0
LINE
  8
_1-5_
  6
DASHED1
 62
    7
 10
249.79729491238589
 20
159.42332189977142
 11
295.39337028858517
 21
138.90508829431801
  0
LINE
  8
_1-5_
  6
DASHED1
 62
    7
 10
295.39337028858517
 20
138.90508829431801
 11
386.11277522344938
 21
98.081356698047671
  0
POINT
  8
_1-5_
 62
    7
 10
180.03987258382278
 20
112.00878932780446
  0
POINT
  8
_1-5_
 62
    7
 10
225.63595011584763
 20
132.52701814253155
  0
LINE
  8
_1-5_
  6
CONTINUOUS
 62
    7
 10
180.03987258382278
 20
112.00878932780446
 11
162.02779672246018
 21
152.03563642573351
  0
LINE
  8
_1-5_
  6
CONTINUOUS
 62
    7
 10
225.63595011584763
 20
132.52701814253155
 11
207.62387425448503
 21
172.5538652404606
  0
LINE
  8
_1-5_
  6
CONTINUOUS
 62
    7
 10
180.03987258382278
 20
112.00878932780446
 11
225.63595011584763
 21
132.52701814253155
  0
TEXT
  8
_1-5_
 62
    7
 10
200.922876154237
 20
121.95443092993598
 40
2.5
 41
1
 50
24.227738970000019
  1
250
  0
POINT
  8
_1-5_
 62
    7
 10
184.82955186312171
 20
136.8933991785843
  0
POINT
  8
_1-5_
 62
    7
 10
230.42562812743157
 20
116.37516754672076
  0
LINE
  8
_1-5_
  6
CONTINUOUS
 62
    7
 10
184.82955186312171
 20
136.8933991785843
 11
202.69814626860096
 21
176.60139194648997
  0
LINE
  8
_1-5_
  6
CONTINUOUS
 62
    7
 10
230.42562812743157
 20
116.37516754672076
 11
248.29422253291079
 21
156.08316031462641
  0
LINE
  8
_1-5_
  6
CONTINUOUS
 62
    7
 10
184.82955186312171
 20
136.8933991785843
 11
230.42562812743157
 21
116.37516754672076
  0
TEXT
  8
_1-5_
 62
    7
 10
206.12291945168354
 20
127.85967781149063
 40
2.5
 41
1
 50
-24.227742510000017
  1
250
  0
TEXT
  8
_1-0_
 62
    7
 10
145.59559722043363
 20
79.146520601331389
 40
2.5
 41
1
 50
0
  1
※　地域により瓦桟木の大きさは、異なります
  0
TEXT
  8
_1-5_
 62
    7
 10
238.9262390136719
 20
202.89993698532518
 40
2.5
 41
1
 50
0
  1
ステンレススクリュウ釘
  0
TEXT
  8
_1-0_
 62
    7
 10
145.18139744458665
 20
82.330598786488679
 40
2.5
 41
1
 50
0
  1
15×21　（防腐処理）
  0
TEXT
  8
_0-1_
 62
    7
 10
132.28468199033995
 20
75.005196236275339
 40
2.5
 41
1
 50
0
  1
縦桟
  0
TEXT
  8
_0-1_
 62
    7
 10
132.26184312889501
 20
69.17521961456363
 40
2.5
 41
1
 50
0
  1
ルーフィング
  0
TEXT
  8
_1-5_
 62
    7
 10
153.04678637180396
 20
47.128041368221943
 40
2.5
 41
1
 50
0
  1
棟部分のルーフィングは、両方向へそれぞれ250ｍｍ以上重ね合わせること。
  0
TEXT
  8
_1-5_
 62
    7
 10
153.13457802087493
 20
43.016717367218973
 40
2.5
 41
1
 50
0
  1
隅棟部分のルーフィングは、重ね貼りの上に両方向へそれぞれ250ｍｍ以上増し貼りをすること。
  0
TEXT
  8
_1-4_
 62
    7
 10
235.86155630798365
 20
211.67424370364424
 40
2.5
 41
1
 50
0
  1
シーラー
  0
ENDSEC
  0
EOF
