  0
SECTION
  2
HEADER
  9
$ACADVER
  1
AC1009
  9
$INSBASE
 10
0
 20
0
 30
0
  9
$EXTMIN
 10
0
 20
0
  9
$EXTMAX
 10
420
 20
297
  9
$LIMMIN
 10
0
 20
0
  9
$LIMMAX
 10
420
 20
297
  9
$LTSCALE
 40
1
  0
ENDSEC
  0
SECTION
  2
TABLES
  0
TABLE
  2
LTYPE
 70
     9
  0
LTYPE
  2
CONTINUOUS
 70
    64
  3
実線
 72
    65
 73
     0
 40
0.0
  0
LTYPE
  2
DASHED1
 70
    64
  3
--  --  --  --  --  --  --  --  
 72
    65
 73
     2
 40
2.5
 49
1.25
 49
-1.25
  0
LTYPE
  2
DASHED2
 70
    64
  3
----    ----    ----    ----    
 72
    65
 73
     2
 40
5.0
 49
2.5
 49
-2.5
  0
LTYPE
  2
DASHED3
 70
    64
  3
------  ------  ------  ------  
 72
    65
 73
     2
 40
5.0
 49
3.75
 49
-1.25
  0
LTYPE
  2
CENTER1
 70
    64
  3
----- - ----- - ----- - ----- - 
 72
    65
 73
     4
 40
10.0
 49
6.25
 49
-1.25
 49
1.25
 49
-1.25
  0
LTYPE
  2
CENTER2
 70
    64
  3
----------  --  ----------  --  
 72
    65
 73
     4
 40
20.0
 49
12.5
 49
-2.5
 49
2.5
 49
-2.5
  0
LTYPE
  2
PHANTOM1
 70
    64
  3
--- - - --- - - --- - - --- - - 
 72
    65
 73
     6
 40
10.0
 49
3.25
 49
-1.25
 49
1.25
 49
-1.25
 49
1.25
 49
-1.25
  0
LTYPE
  2
PHANTOM2
 70
    64
  3
--------  -  -  --------  -  -  
 72
    65
 73
     6
 40
20.0
 49
10.0
 49
-2.5
 49
1.25
 49
-2.5
 49
1.25
 49
-2.5
  0
LTYPE
  2
DOT
 70
    64
  3
-   -   -   -   -   -   -   -   
 72
    65
 73
     2
 40
2.5
 49
0.625
 49
-1.875
  0
LTYPE
  2
DUMMY
 70
    64
  3
ダミー
 72
    65
 73
     0
 40
0.0
  0
LTYPE
  2
RAND1
 70
    64
  3
ランダム線1
 72
    65
 73
     4
 40
10.0
 49
1.0
 49
-2.0
 49
3.0
 49
-4.0
  0
LTYPE
  2
RAND2
 70
    64
  3
ランダム線2
 72
    65
 73
     4
 40
14.0
 49
2.0
 49
-3.0
 49
4.0
 49
-5.0
  0
LTYPE
  2
RAND3
 70
    64
  3
ランダム線3
 72
    65
 73
     4
 40
18.0
 49
3.0
 49
-4.0
 49
5.0
 49
-6.0
  0
LTYPE
  2
RAND4
 70
    64
  3
ランダム線4
 72
    65
 73
     4
 40
22.0
 49
4.0
 49
-5.0
 49
6.0
 49
-7.0
  0
LTYPE
  2
RAND5
 70
    64
  3
ランダム線5
 72
    65
 73
     4
 40
26.0
 49
5.0
 49
-6.0
 49
7.0
 49
-8.0
  0
LTYPE
  2
LONG1
 70
    64
  3
----------  --  ----------  --  
 72
    65
 73
     4
 40
40.0
 49
32.5
 49
-2.5
 49
2.5
 49
-2.5
  0
LTYPE
  2
LONG2
 70
    64
  3
--------  -  -  --------  -  -  
 72
    65
 73
     6
 40
40.0
 49
30.0
 49
-2.5
 49
1.25
 49
-2.5
 49
1.25
 49
-2.5
  0
LTYPE
  2
LONG3
 70
    64
  3
+++++++++++++++..+++++++++++++++
 72
    65
 73
     2
 40
40.0
 49
37.5
 49
-2.5
  0
LTYPE
  2
LONG4
 70
    64
  3
+++++++++++++++..+++++++++++++++
 72
    65
 73
     2
 40
80.0
 49
75.0
 49
-5.0
  0
LTYPE
  2
LONG5
 70
    64
  3
----------  --  ----------  --  
 72
    65
 73
     4
 40
60.0
 49
37.5
 49
-7.5
 49
7.5
 49
-7.5
  0
LTYPE
  2
dashed
 70
   64
  3
-------   -------------   ------
 72
   65
 73
    2
 40
7.5
 49
6
 49
-1.5
  0
LTYPE
  2
dashed_spaced
 70
   64
  3
----        --------        ----
 72
   65
 73
    2
 40
12
 49
6
 49
-6
  0
LTYPE
  2
long_dashed_dotted
 70
   64
  3
------------- --- --------------
 72
   65
 73
    4
 40
15.25
 49
12
 49
-1.5
 49
0.25
 49
-1.5
  0
LTYPE
  2
long_dashed_double-dotted
 70
   64
  3
----------- --- --- ------------
 72
   65
 73
    6
 40
17
 49
12
 49
-1.5
 49
0.25
 49
-1.5
 49
0.25
 49
-1.5
  0
LTYPE
  2
long_dashed_triplicate-dotted
 70
   64
  3
--------- --- --- --- ----------
 72
   65
 73
    8
 40
18.75
 49
12
 49
-1.5
 49
0.25
 49
-1.5
 49
0.25
 49
-1.5
 49
0.25
 49
-1.5
  0
LTYPE
  2
dotted
 70
   64
  3
   -       -       -       -    
 72
   65
 73
    2
 40
1.75
 49
0.25
 49
-1.5
  0
LTYPE
  2
chain
 70
   64
  3
-------------- -- --------------
 72
   65
 73
    4
 40
18.5
 49
12
 49
-1.5
 49
3.5
 49
-1.5
  0
LTYPE
  2
chain_double_dash
 70
   64
  3
------------ -- -- -------------
 72
   65
 73
    6
 40
23.5
 49
12
 49
-1.5
 49
3.5
 49
-1.5
 49
3.5
 49
-1.5
  0
LTYPE
  2
dashed_dotted
 70
   64
  3
-----------     -     ----------
 72
   65
 73
    4
 40
9.25
 49
6
 49
-1.5
 49
0.25
 49
-1.5
  0
LTYPE
  2
double-dashed_dotted
 70
   64
  3
------   -----------   -   -----
 72
   65
 73
    6
 40
16.75
 49
6
 49
-1.5
 49
6
 49
-1.5
 49
0.25
 49
-1.5
  0
LTYPE
  2
dashed_double-dotted
 70
   64
  3
---------    -    -    ---------
 72
   65
 73
    6
 40
11
 49
6
 49
-1.5
 49
0.25
 49
-1.5
 49
0.25
 49
-1.5
  0
LTYPE
  2
double-dashed_double-dotted
 70
   64
  3
-----   ---------   -   -   ----
 72
   65
 73
    8
 40
18.5
 49
6
 49
-1.5
 49
6
 49
-1.5
 49
0.25
 49
-1.5
 49
0.25
 49
-1.5
  0
LTYPE
  2
dashed_triplicate-dotted
 70
   64
  3
-------    -    -    -    ------
 72
   65
 73
    8
 40
12.75
 49
6
 49
-1.5
 49
0.25
 49
-1.5
 49
0.25
 49
-1.5
 49
0.25
 49
-1.5
  0
LTYPE
  2
double-dashed_triplicate-dotted
 70
   64
  3
-----  ---------  -  -  -  -----
 72
   65
 73
   10
 40
20.25
 49
6
 49
-1.5
 49
6
 49
-1.5
 49
0.25
 49
-1.5
 49
0.25
 49
-1.5
 49
0.25
 49
-1.5
  0
LTYPE
  2
undefined
 70
   64
  3
--------------------------------
 72
   65
 73
    0
 40
0
  0
ENDTAB
  0
TABLE
  2
STYLE
  5
3
100
AcDbSymbolTable
 70
     1
  0
STYLE
  5
10
100
AcDbSymbolTableRecord
100
AcDbTextStyleTableRecord
  2
STANDARD
 70
     0
 40
0.0
 41
1.0
 50
0.0
 71
     0
 42
0.2
  3
txt
  4
bigfont.shx
  0
STYLE
  5
26
100
AcDbSymbolTableRecord
100
AcDbTextStyleTableRecord
  2
TATEGAKI
 70
    68
 40
0.0
 41
1.0
 50
0.0
 71
     0
 42
1.0
  3
txt
  4
bigfont.shx
  0
ENDTAB
  0
TABLE
  2
LAYER
 70
    8
  0
LAYER
  2
_0-0_
 70
   64
 62
    7
  6
CONTINUOUS
  0
LAYER
  2
_0-1_
 70
   64
 62
    7
  6
CONTINUOUS
  0
LAYER
  2
_1-0_
 70
   64
 62
    7
  6
CONTINUOUS
  0
LAYER
  2
_1-1_
 70
   64
 62
    7
  6
CONTINUOUS
  0
LAYER
  2
_1-2_
 70
   64
 62
    7
  6
CONTINUOUS
  0
LAYER
  2
_1-3_
 70
   64
 62
    7
  6
CONTINUOUS
  0
LAYER
  2
_1-4_
 70
   64
 62
    7
  6
CONTINUOUS
  0
LAYER
  2
ADD_LINE
 70
   64
 62
    7
  6
CONTINUOUS
  0
ENDTAB
  0
ENDSEC
  0
SECTION
  2
BLOCKS
  0
ENDSEC
  0
SECTION
  2
ENTITIES
  0
LINE
  8
_1-0_
  6
CONTINUOUS
 62
    7
 10
84.673727911871836
 20
125.09992032437712
 11
92.453495747334259
 21
117.3201524889147
  0
LINE
  8
_0-0_
  6
CONTINUOUS
 62
    5
 10
12.432428308435391
 20
278.51351351351354
 11
412.43244892842063
 21
278.51351351351354
  0
LINE
  8
_0-0_
  6
CONTINUOUS
 62
    5
 10
412.43244892842063
 20
8.5135135135135158
 11
12.432428308435391
 21
8.5135135135135158
  0
LINE
  8
_0-0_
  6
CONTINUOUS
 62
    5
 10
412.43244892842063
 20
28.513511451515001
 11
12.432415936444272
 21
28.513511451515001
  0
LINE
  8
_0-0_
  6
CONTINUOUS
 62
    5
 10
377.43248192039698
 20
8.5135135135135158
 11
377.43248192039698
 21
28.513511451515001
  0
LINE
  8
_0-0_
  6
CONTINUOUS
 62
    5
 10
142.70271507469386
 20
28.513511451515001
 11
142.70271507469386
 21
8.5135135135135158
  0
LINE
  8
_0-0_
  6
CONTINUOUS
 62
    5
 10
220.54054054054055
 20
28.513511451515001
 11
220.54054054054055
 21
8.5135135135135158
  0
LINE
  8
_0-0_
  6
CONTINUOUS
 62
    5
 10
142.70271507469386
 20
18.513512482514244
 11
220.54054054054055
 21
18.513512482514244
  0
LINE
  8
_0-0_
  6
CONTINUOUS
 62
    5
 10
402.16218690614443
 20
24.324325870823216
 11
389.59456985061234
 21
11.756758303255651
  0
LINE
  8
_1-0_
  6
CONTINUOUS
 62
    7
 10
104.04903927364866
 20
126.48586788692991
 11
340.08643897804058
 21
232.70270270270271
  0
LINE
  8
_1-0_
  6
CONTINUOUS
 62
    7
 10
105.03389925570102
 20
124.297250283731
 11
104.04902690165753
 21
126.48586788692991
  0
LINE
  8
_1-0_
  6
CONTINUOUS
 62
    7
 10
103.5566030966269
 20
127.58017050253379
 11
339.59400898701438
 21
233.79700531830659
  0
LINE
  8
_1-0_
  6
DASHED1
 62
    3
 10
103.80282427813556
 20
127.03301919473185
 11
339.84021161053636
 21
233.24986638249578
  0
LINE
  8
_1-0_
  6
CONTINUOUS
 62
    7
 10
103.31038810111382
 20
128.12732181033573
 11
339.34778161951016
 21
234.34416899809966
  0
LINE
  8
_1-0_
  6
CONTINUOUS
 62
    7
 10
103.31038810111382
 20
128.12732181033573
 11
103.5566030966269
 21
127.58017050253379
  0
LINE
  8
_1-0_
  6
DASHED1
 62
    3
 10
103.80282427813556
 20
127.03301919473185
 11
83.859156015756966
 21
125.6064172693201
  0
LINE
  8
_1-1_
  6
CONTINUOUS
 62
    7
 10
129.93845759211359
 20
140.10995400918497
 11
128.70735787056589
 21
142.84572292018581
  0
LINE
  8
_1-1_
  6
CONTINUOUS
 62
    7
 10
128.70735787056589
 20
142.84572292018581
 11
133.0845930769637
 21
144.81548000026393
  0
LINE
  8
_1-1_
  6
CONTINUOUS
 62
    7
 10
133.0845930769637
 20
144.81548000026393
 11
134.31569279851141
 21
142.0797110892631
  0
LINE
  8
_1-1_
  6
CONTINUOUS
 62
    7
 10
134.31569279851141
 20
142.0797110892631
 11
129.93845759211359
 21
140.10995400918497
  0
LINE
  8
_1-1_
  6
CONTINUOUS
 62
    7
 10
129.93845759211359
 20
140.10995400918497
 11
133.0845930769637
 21
144.81548000026393
  0
LINE
  8
_1-1_
  6
CONTINUOUS
 62
    7
 10
181.00606557485222
 20
163.09038316881336
 11
179.77496585330448
 21
165.82615207981419
  0
LINE
  8
_1-1_
  6
CONTINUOUS
 62
    7
 10
179.77496585330448
 20
165.82615207981419
 11
184.15221343169341
 21
167.79590915989232
  0
LINE
  8
_1-1_
  6
CONTINUOUS
 62
    7
 10
184.15221343169341
 20
167.79590915989232
 11
185.38330078125
 21
165.06014024889149
  0
LINE
  8
_1-1_
  6
CONTINUOUS
 62
    7
 10
185.38330078125
 20
165.06014024889149
 11
181.00606557485222
 21
163.09038316881336
  0
LINE
  8
_1-1_
  6
CONTINUOUS
 62
    7
 10
181.00606557485222
 20
163.09038316881336
 11
184.15221343169341
 21
167.79590915989232
  0
LINE
  8
_1-1_
  6
CONTINUOUS
 62
    7
 10
232.07366118559966
 20
186.0707999564506
 11
230.8425738360431
 21
188.80656886745146
  0
LINE
  8
_1-1_
  6
CONTINUOUS
 62
    7
 10
230.8425738360431
 20
188.80656886745146
 11
235.21980904244089
 21
190.77632594752959
  0
LINE
  8
_1-1_
  6
CONTINUOUS
 62
    7
 10
235.21980904244089
 20
190.77632594752959
 11
236.45089639199747
 21
188.04055703652872
  0
LINE
  8
_1-1_
  6
CONTINUOUS
 62
    7
 10
236.45089639199747
 20
188.04055703652872
 11
232.07366118559966
 21
186.0707999564506
  0
LINE
  8
_1-1_
  6
CONTINUOUS
 62
    7
 10
232.07366118559966
 20
186.0707999564506
 11
235.21980904244089
 21
190.77632594752959
  0
LINE
  8
_1-1_
  6
CONTINUOUS
 62
    7
 10
283.14125679634714
 20
209.0512414880701
 11
281.91016944679058
 21
211.78701039907097
  0
LINE
  8
_1-1_
  6
CONTINUOUS
 62
    7
 10
281.91016944679058
 20
211.78701039907097
 11
286.28740465318833
 21
213.75675510715794
  0
LINE
  8
_1-1_
  6
CONTINUOUS
 62
    7
 10
286.28740465318833
 20
213.75675510715794
 11
287.51849200274495
 21
211.02098619615711
  0
LINE
  8
_1-1_
  6
CONTINUOUS
 62
    7
 10
287.51849200274495
 20
211.02098619615711
 11
283.14125679634714
 21
209.0512414880701
  0
LINE
  8
_1-1_
  6
CONTINUOUS
 62
    7
 10
283.14125679634714
 20
209.0512414880701
 11
286.28740465318833
 21
213.75675510715794
  0
LINE
  8
_1-1_
  6
CONTINUOUS
 62
    7
 10
334.20885240709464
 20
232.03167064769849
 11
332.97776505753802
 21
234.76743955869935
  0
LINE
  8
_1-1_
  6
CONTINUOUS
 62
    7
 10
332.97776505753802
 20
234.76743955869935
 11
337.35500026393584
 21
236.73718426678633
  0
LINE
  8
_1-1_
  6
CONTINUOUS
 62
    7
 10
337.35500026393584
 20
236.73718426678633
 11
338.5860876134924
 21
234.0014153557855
  0
LINE
  8
_1-1_
  6
CONTINUOUS
 62
    7
 10
338.5860876134924
 20
234.0014153557855
 11
334.20885240709464
 21
232.03167064769849
  0
LINE
  8
_1-1_
  6
CONTINUOUS
 62
    7
 10
334.20885240709464
 20
232.03167064769849
 11
337.35500026393584
 21
236.73718426678633
  0
LINE
  8
ADD_LINE
  6
DOT
 62
    4
 10
84.062464946025131
 20
125.97405098580026
 11
85.868614815376901
 21
126.78681657120988
  0
LINE
  8
ADD_LINE
  6
DOT
 62
    4
 10
84.460249204893373
 20
126.15306132548565
 11
133.0845930769637
 21
144.81548000026393
  0
LINE
  8
_1-2_
  6
CONTINUOUS
 62
    3
 10
131.89652314057221
 20
150.14357695708404
 11
133.20354977169552
 21
150.64522408150339
  0
LINE
  8
_1-2_
  6
CONTINUOUS
 62
    3
 10
130.61777888117609
 20
149.01009224556589
 11
131.80943669499578
 21
149.46746001372466
  0
LINE
  8
_1-2_
  6
CONTINUOUS
 62
    3
 10
131.89652314057221
 20
150.14357695708404
 11
131.80943669499578
 21
149.46746001372466
  0
LINE
  8
_1-2_
  6
CONTINUOUS
 62
    3
 10
130.61777888117609
 20
149.01009224556589
 11
130.32914032807221
 21
146.9713118269637
  0
LINE
  8
_1-2_
  6
CONTINUOUS
 62
    3
 10
133.54674880569047
 20
148.634688918655
 11
133.92019735800255
 21
148.77803080790753
  0
LINE
  8
_1-2_
  6
CONTINUOUS
 62
    7
 10
133.20354977169552
 20
150.64522408150339
 11
133.92019735800255
 21
148.77803080790753
  0
LINE
  8
_1-2_
  6
CONTINUOUS
 62
    3
 10
133.54674880569047
 20
148.634688918655
 11
134.76504351641682
 21
145.46046901393581
  0
LINE
  8
_1-2_
  6
CONTINUOUS
 62
    7
 10
133.0845930769637
 20
144.81549237225508
 11
134.5047120790224
 21
142.78985100823479
  0
LINE
  8
_1-2_
  6
CONTINUOUS
 62
    7
 10
134.5047120790224
 20
142.78985100823479
 11
135.99846917229729
 21
143.36316907728042
  0
LINE
  8
_1-2_
  6
CONTINUOUS
 62
    3
 10
72.446049870671459
 20
124.75531088339316
 11
130.32914032807221
 21
146.9713118269637
  0
LINE
  8
_1-2_
  6
CONTINUOUS
 62
    3
 10
70.861612268396328
 20
117.72042351800043
 11
72.299905725427578
 21
118.43823407147383
  0
LINE
  8
_1-2_
  6
CONTINUOUS
 62
    3
 10
72.365953600084481
 20
120.85108164194469
 11
72.299905725427578
 21
118.43823407147383
  0
LINE
  8
_1-2_
  6
CONTINUOUS
 62
    3
 10
133.20354977169552
 20
150.64522408150339
 11
133.92019735800255
 21
148.77803080790753
  0
LINE
  8
_1-2_
  6
CONTINUOUS
 62
    7
 10
133.92019735800255
 20
148.77803080790753
 11
135.99846917229729
 21
143.36316907728042
  0
LINE
  8
ADD_LINE
  6
DOT
 62
    4
 10
132.98429334485854
 20
150.7737566973712
 11
133.38799141548776
 21
150.92870351430534
  0
LINE
  8
ADD_LINE
  6
DOT
 62
    4
 10
133.1323984506968
 20
150.83060599662164
 11
184.15221343169341
 21
167.79590915989232
  0
LINE
  8
_1-2_
  6
CONTINUOUS
 62
    3
 10
183.20741395692568
 20
173.17246720597552
 11
184.53589362067146
 21
173.61422152132602
  0
LINE
  8
_1-2_
  6
CONTINUOUS
 62
    3
 10
181.87848890149917
 20
172.09825670396961
 11
183.08970683329815
 21
172.50101450327281
  0
LINE
  8
_1-2_
  6
CONTINUOUS
 62
    3
 10
183.20741395692568
 20
173.17246720597552
 11
183.08970683329815
 21
172.50101450327281
  0
LINE
  8
_1-2_
  6
CONTINUOUS
 62
    3
 10
181.87848890149917
 20
172.09825670396961
 11
181.4975305505701
 21
170.07469383445948
  0
LINE
  8
_1-2_
  6
CONTINUOUS
 62
    3
 10
184.78739145639781
 20
171.59016377217063
 11
185.1669641443201
 21
171.7163828256968
  0
LINE
  8
_1-2_
  6
CONTINUOUS
 62
    7
 10
184.53589362067146
 20
173.61422152132602
 11
185.1669641443201
 21
171.7163828256968
  0
LINE
  8
_1-2_
  6
CONTINUOUS
 62
    3
 10
184.78739145639781
 20
171.59016377217063
 11
185.86021629539698
 21
168.36387015677789
  0
LINE
  8
_1-2_
  6
CONTINUOUS
 62
    7
 10
184.15218868771115
 20
167.79590915989232
 11
185.47881255278716
 21
165.7078387286212
  0
LINE
  8
_1-2_
  6
CONTINUOUS
 62
    7
 10
185.47881255278716
 20
165.7078387286212
 11
186.99707856049409
 21
166.21270257073482
  0
LINE
  8
_1-2_
  6
CONTINUOUS
 62
    3
 10
120.76244869747678
 20
143.55577623521961
 11
119.76146801097974
 21
148.4921388368349
  0
LINE
  8
_1-2_
  6
CONTINUOUS
 62
    3
 10
122.66486502982475
 20
150.51142099741344
 11
181.4975305505701
 21
170.07469383445948
  0
LINE
  8
_1-2_
  6
CONTINUOUS
 62
    3
 10
120.76244869747678
 20
143.55577623521961
 11
122.23187008419553
 21
144.20750798405828
  0
LINE
  8
_1-2_
  6
CONTINUOUS
 62
    3
 10
123.08928618559968
 20
147.49103443042654
 11
185.86021629539698
 21
168.36387015677789
  0
LINE
  8
_1-2_
  6
CONTINUOUS
 62
    3
 10
122.40746575432856
 20
146.61486239046664
 11
122.23187008419553
 21
144.20750798405828
  0
LINE
  8
_1-2_
  6
CONTINUOUS
 62
    3
 10
184.53589362067146
 20
173.61422152132602
 11
185.1669641443201
 21
171.7163828256968
  0
LINE
  8
_1-2_
  6
CONTINUOUS
 62
    7
 10
185.1669641443201
 20
171.7163828256968
 11
186.99707856049409
 21
166.21270257073482
  0
LINE
  8
ADD_LINE
  6
DOT
 62
    4
 10
184.0483381941512
 20
174.08440667229732
 11
184.72409634976773
 21
174.30910677523227
  0
LINE
  8
ADD_LINE
  6
DOT
 62
    4
 10
184.34657741237331
 20
174.18356818121833
 11
235.21980904244089
 21
190.77632594752959
  0
LINE
  8
_1-2_
  6
CONTINUOUS
 62
    3
 10
234.30593954550255
 20
196.15822869378169
 11
235.63691835145693
 21
196.59233711861276
  0
LINE
  8
_1-2_
  6
CONTINUOUS
 62
    3
 10
232.97085323849242
 20
195.09165171030406
 11
234.18434761665964
 21
195.48744407860011
  0
LINE
  8
_1-2_
  6
CONTINUOUS
 62
    3
 10
234.30593954550255
 20
196.15822869378169
 11
234.18434761665964
 21
195.48744407860011
  0
LINE
  8
_1-2_
  6
CONTINUOUS
 62
    3
 10
232.97085323849242
 20
195.09165171030406
 11
232.57828995988177
 21
193.07031579919766
  0
LINE
  8
_1-2_
  6
CONTINUOUS
 62
    3
 10
235.87678651551943
 20
194.56688133445948
 11
236.25707677892737
 21
194.69091054555534
  0
LINE
  8
_1-2_
  6
CONTINUOUS
 62
    7
 10
235.63691835145693
 20
196.59233711861276
 11
236.25707677892737
 21
194.69091054555534
  0
LINE
  8
_1-2_
  6
CONTINUOUS
 62
    3
 10
235.87678651551943
 20
194.56688133445948
 11
236.93105336782097
 21
191.33446358345651
  0
LINE
  8
_1-2_
  6
CONTINUOUS
 62
    7
 10
235.21980904244089
 20
190.77632594752959
 11
236.53443207611909
 21
188.68067148569469
  0
LINE
  8
_1-2_
  6
CONTINUOUS
 62
    7
 10
236.53443207611909
 20
188.68067148569469
 11
238.05554364178633
 21
189.17680070206927
  0
LINE
  8
_1-2_
  6
CONTINUOUS
 62
    3
 10
171.69192339922932
 20
166.90059764965162
 11
170.7193116883974
 21
171.84261425121412
  0
LINE
  8
_1-2_
  6
CONTINUOUS
 62
    3
 10
173.63425177496833
 20
173.84519422376479
 11
232.57828995988177
 21
193.07031579919766
  0
LINE
  8
_1-2_
  6
CONTINUOUS
 62
    3
 10
171.69192339922932
 20
166.90059764965162
 11
173.16506875527872
 21
167.54386695655617
  0
LINE
  8
_1-2_
  6
CONTINUOUS
 62
    3
 10
174.04131502718539
 20
170.82241986248945
 11
236.93105336782097
 21
191.33446358345651
  0
LINE
  8
_1-2_
  6
CONTINUOUS
 62
    3
 10
173.35448393950591
 20
169.95018211570948
 11
173.16506875527872
 21
167.54386695655617
  0
LINE
  8
_1-2_
  6
CONTINUOUS
 62
    3
 10
235.63691835145693
 20
196.59233711861276
 11
236.25707677892737
 21
194.69091054555534
  0
LINE
  8
_1-2_
  6
CONTINUOUS
 62
    7
 10
236.25707677892737
 20
194.69091054555534
 11
238.05554364178633
 21
189.17680070206927
  0
LINE
  8
_1-2_
  6
CONTINUOUS
 62
    3
 10
285.37353515625
 20
219.13864548141893
 11
286.70451396220443
 21
219.57277865023227
  0
LINE
  8
_1-2_
  6
CONTINUOUS
 62
    3
 10
284.0384488492399
 20
218.07208086993245
 11
285.25194322740708
 21
218.46788561021961
  0
LINE
  8
_1-2_
  6
CONTINUOUS
 62
    3
 10
285.37353515625
 20
219.13864548141893
 11
285.25194322740708
 21
218.46788561021961
  0
LINE
  8
_1-2_
  6
CONTINUOUS
 62
    3
 10
284.0384488492399
 20
218.07208086993245
 11
283.64588557062922
 21
216.05074495882602
  0
LINE
  8
_1-2_
  6
CONTINUOUS
 62
    3
 10
286.94438212626693
 20
217.54731049408784
 11
287.32467238967484
 21
217.67135207717484
  0
LINE
  8
_1-2_
  6
CONTINUOUS
 62
    7
 10
286.70451396220443
 20
219.57277865023227
 11
287.32467238967484
 21
217.67135207717484
  0
LINE
  8
_1-2_
  6
CONTINUOUS
 62
    3
 10
286.94438212626693
 20
217.54731049408784
 11
287.99864897856844
 21
214.31490511507602
  0
LINE
  8
_1-2_
  6
CONTINUOUS
 62
    7
 10
286.28740465318833
 20
213.75675510715794
 11
287.60202768686656
 21
211.66111301731419
  0
LINE
  8
_1-2_
  6
CONTINUOUS
 62
    7
 10
287.60202768686656
 20
211.66111301731419
 11
289.1231392525338
 21
212.15722986169766
  0
LINE
  8
_1-2_
  6
CONTINUOUS
 62
    3
 10
222.75953138196792
 20
189.88102680928
 11
221.78689492715372
 21
194.8230434108425
  0
LINE
  8
_1-2_
  6
CONTINUOUS
 62
    3
 10
224.70183501372466
 20
196.82562338339318
 11
283.64588557062922
 21
216.05074495882602
  0
LINE
  8
_1-2_
  6
CONTINUOUS
 62
    3
 10
222.75953138196792
 20
189.88102680928
 11
224.2326643660262
 21
190.52429611618456
  0
LINE
  8
_1-2_
  6
CONTINUOUS
 62
    3
 10
224.42207955025339
 20
192.93061127533784
 11
224.2326643660262
 21
190.52429611618456
  0
LINE
  8
_1-2_
  6
CONTINUOUS
 62
    3
 10
286.70451396220443
 20
219.57277865023227
 11
287.32467238967484
 21
217.67135207717484
  0
LINE
  8
_1-2_
  6
CONTINUOUS
 62
    7
 10
287.32467238967484
 20
217.67135207717484
 11
289.1231392525338
 21
212.15722986169766
  0
LINE
  8
_1-2_
  6
CONTINUOUS
 62
    3
 10
336.4411307669975
 20
242.11907464104732
 11
337.77210957295188
 21
242.55320780986065
  0
LINE
  8
_1-2_
  6
CONTINUOUS
 62
    3
 10
335.10604445998734
 20
241.05251002956084
 11
336.31953883815459
 21
241.448314769848
  0
LINE
  8
_1-2_
  6
CONTINUOUS
 62
    3
 10
336.4411307669975
 20
242.11907464104732
 11
336.31953883815459
 21
241.448314769848
  0
LINE
  8
_1-2_
  6
CONTINUOUS
 62
    3
 10
335.10604445998734
 20
241.05251002956084
 11
334.71348118137672
 21
239.0311741184544
  0
LINE
  8
_1-2_
  6
CONTINUOUS
 62
    3
 10
338.01197773701438
 20
240.52773965371622
 11
338.39226800042229
 21
240.65178123680323
  0
LINE
  8
_1-2_
  6
CONTINUOUS
 62
    7
 10
337.77210957295188
 20
242.55320780986065
 11
338.39226800042229
 21
240.65178123680323
  0
LINE
  8
_1-2_
  6
CONTINUOUS
 62
    3
 10
338.01197773701438
 20
240.52773965371622
 11
339.06624458931589
 21
237.2953342747044
  0
LINE
  8
_1-2_
  6
CONTINUOUS
 62
    7
 10
337.35500026393584
 20
236.73718426678633
 11
338.66962329761407
 21
234.64154217694258
  0
LINE
  8
_1-2_
  6
CONTINUOUS
 62
    7
 10
338.66962329761407
 20
234.64154217694258
 11
340.19073486328125
 21
235.13765902132602
  0
LINE
  8
_1-2_
  6
CONTINUOUS
 62
    3
 10
273.82710224873313
 20
212.86144359691724
 11
272.85451528188344
 21
217.80346019847974
  0
LINE
  8
_1-2_
  6
CONTINUOUS
 62
    3
 10
273.82710224873313
 20
212.86144359691724
 11
275.30025997677365
 21
213.50473764780406
  0
LINE
  8
_1-2_
  6
CONTINUOUS
 62
    3
 10
276.17649387668922
 20
216.78326580975508
 11
339.06624458931589
 21
237.2953342747044
  0
LINE
  8
_1-2_
  6
CONTINUOUS
 62
    3
 10
275.48967516100083
 20
215.91104043496622
 11
275.30025997677365
 21
213.50473764780406
  0
LINE
  8
_1-2_
  6
CONTINUOUS
 62
    3
 10
337.77210957295188
 20
242.55320780986065
 11
338.39226800042229
 21
240.65178123680323
  0
LINE
  8
_1-2_
  6
CONTINUOUS
 62
    7
 10
338.39226800042229
 20
240.65178123680323
 11
340.19073486328125
 21
235.13765902132602
  0
LINE
  8
_1-2_
  6
CONTINUOUS
 62
    3
 10
70.861612268396328
 20
117.72042351800043
 11
69.637397559913438
 21
122.60618467588684
  0
LINE
  8
_1-4_
  6
CONTINUOUS
 62
    7
 10
49.776299966348176
 20
164.57665520745357
 11
100.91978537069785
 21
187.59123106260557
  0
LINE
  8
_1-4_
  6
CONTINUOUS
 62
    7
 10
62.45935388513513
 20
136.39209644214529
 11
49.776299966348176
 21
164.57665520745357
  0
LINE
  8
_1-4_
  6
CONTINUOUS
 62
    7
 10
113.60283928948481
 20
159.40668466928844
 11
100.91978537069785
 21
187.59124343459672
  0
LINE
  8
_1-4_
  6
CONTINUOUS
 62
    7
 10
100.91978537069785
 20
187.59123106260557
 11
152.0230432458826
 21
210.587719066723
  0
LINE
  8
_1-4_
  6
CONTINUOUS
 62
    7
 10
164.70609097867398
 20
182.40316030141472
 11
152.0230432458826
 21
210.587719066723
  0
LINE
  8
_1-4_
  6
CONTINUOUS
 62
    7
 10
152.0230432458826
 20
210.587719066723
 11
203.09744345175255
 21
233.57121648015203
  0
LINE
  8
_1-4_
  6
CONTINUOUS
 62
    7
 10
215.7805159285262
 20
205.3866700868349
 11
203.09746819573482
 21
233.57121648015203
  0
LINE
  8
_1-4_
  6
CONTINUOUS
 62
    7
 10
203.09744345175255
 20
233.57121648015203
 11
254.16506380648227
 21
256.55164563978042
  0
LINE
  8
_1-4_
  6
CONTINUOUS
 62
    7
 10
266.84811153927365
 20
228.36708687447214
 11
254.1650390625
 21
256.55164563978042
  0
LINE
  8
_1-4_
  6
CONTINUOUS
 62
    7
 10
56.588126517630911
 20
149.43926424593539
 11
71.052431673616979
 21
155.94820589632602
  0
LINE
  8
_1-4_
  6
CONTINUOUS
 62
    7
 10
76.923659041121198
 20
142.90103809253591
 11
71.052431673616979
 21
155.94820589632602
  0
LINE
  8
_1-4_
  6
CONTINUOUS
 62
    7
 10
71.052431673616979
 20
155.94820589632602
 11
107.73161192198059
 21
172.45384010108742
  0
LINE
  8
_1-4_
  6
CONTINUOUS
 62
    7
 10
113.60283928948481
 20
159.40668466928844
 11
107.73161192198059
 21
172.45385247307857
  0
LINE
  8
_0-1_
  6
CONTINUOUS
 62
    7
 10
311.29567739125844
 20
137.38965008709883
 11
317.38373627533787
 21
137.38965008709883
  0
LINE
  8
_0-1_
  6
CONTINUOUS
 62
    7
 10
301.10452188027875
 20
165.38964348870357
 11
317.38373627533787
 21
165.38964348870357
  0
LINE
  8
_0-1_
  6
CONTINUOUS
 62
    7
 10
303.65231075802365
 20
158.38964513830237
 11
317.38373627533787
 21
158.38964513830237
  0
LINE
  8
_0-1_
  6
CONTINUOUS
 62
    7
 10
306.20009963576859
 20
151.3896467879012
 11
317.38373627533787
 21
151.3896467879012
  0
LINE
  8
_0-1_
  6
CONTINUOUS
 62
    7
 10
308.74788851351354
 20
144.3896484375
 11
317.38373627533787
 21
144.3896484375
  0
LINE
  8
_0-1_
  6
CONTINUOUS
 62
    7
 10
207.11346600506758
 20
183.24324324324326
 11
199.62727314717063
 21
203.81141868797511
  0
LINE
  8
_0-1_
  6
CONTINUOUS
 62
    7
 10
199.62727314717063
 20
203.81141868797511
 11
194.14049303209461
 21
203.81141868797511
  0
LINE
  8
_1-0_
  6
CONTINUOUS
 62
    7
 10
105.52635399070947
 20
123.20294766812712
 11
341.56375369510135
 21
229.41979485589107
  0
LINE
  8
_1-0_
  6
CONTINUOUS
 62
    7
 10
105.03389925570102
 20
124.297250283731
 11
105.52634161871833
 21
123.20293529613599
  0
LINE
  8
_1-0_
  6
CONTINUOUS
 62
    3
 10
106.62060711834883
 20
119.30902429529139
 11
106.98539527686867
 21
119.47317587362754
  0
LINE
  8
_1-0_
  6
CONTINUOUS
 62
    3
 10
111.90978179106841
 20
108.53012497360642
 11
111.54499363254857
 21
108.36597339527027
  0
LINE
  8
_1-0_
  6
CONTINUOUS
 62
    3
 10
104.23137767894849
 20
122.1815655682538
 11
97.665592915303009
 21
119.22696087811445
  0
LINE
  8
_1-0_
  6
CONTINUOUS
 62
    3
 10
105.55365897513725
 20
121.68001741976352
 11
106.62060711834883
 21
119.30902429529139
  0
LINE
  8
_1-0_
  6
CONTINUOUS
 62
    3
 10
105.75429555532095
 20
122.20893241263725
 11
106.98539527686867
 21
119.47317587362754
  0
LINE
  8
_1-0_
  6
CONTINUOUS
 62
    3
 10
104.43200188714106
 20
122.71049293311867
 11
97.136665550438138
 21
119.42757271431589
  0
LINE
  8
_1-0_
  6
CONTINUOUS
 62
    3
 10
112.61195414775128
 20
105.99496789880702
 11
111.54499363254857
 21
108.36597339527027
  0
LINE
  8
_1-0_
  6
CONTINUOUS
 62
    3
 10
113.140869140625
 20
105.79435606260559
 11
111.90978179106841
 21
108.53012497360642
  0
LINE
  8
_1-0_
  6
CONTINUOUS
 62
    3
 10
105.5446026776288
 20
101.71806954048776
 11
112.11039362726986
 21
104.67268660261824
  0
LINE
  8
_1-0_
  6
CONTINUOUS
 62
    3
 10
104.22230900944891
 20
102.21962387497361
 11
97.164032394821589
 21
117.90466720993454
  0
LINE
  8
_1-0_
  6
CONTINUOUS
 62
    3
 10
104.02168480125634
 20
101.69070269610431
 11
96.635105029956719
 21
118.10527904613599
  0
LINE
  8
_1-0_
  6
CONTINUOUS
 62
    3
 10
105.3439660974451
 20
101.18915454761402
 11
112.63932099213471
 21
104.47206239442568
  0
LINE
  8
ADD_LINE
  6
DOT
 62
    3
 10
97.136665550438138
 20
119.42757271431589
 11
95.861558656434767
 21
118.85377213761613
  0
LINE
  8
ADD_LINE
  6
DOT
 62
    3
 10
96.635105029956719
 20
118.10527904613599
 11
96.014934230495143
 21
119.48341988228464
  0
LINE
  8
ADD_LINE
  6
DOT
 62
    3
 10
105.3439660974451
 20
101.18915454761402
 11
103.61196775694152
 21
100.40974385029561
  0
LINE
  8
ADD_LINE
  6
DOT
 62
    3
 10
104.02168480125634
 20
101.69070269610431
 11
104.60919354413008
 21
100.38511740194785
  0
LINE
  8
_1-0_
  6
CONTINUOUS
 62
    7
 10
88.618500168259089
 20
116.91249538112332
 11
89.527532216664909
 21
116.00346333271749
  0
LINE
  8
_1-0_
  6
CONTINUOUS
 62
    7
 10
87.46142206965267
 20
119.48379104201858
 11
90.502853393554687
 21
116.44235971811656
  0
LINE
  8
_1-0_
  6
CONTINUOUS
 62
    7
 10
85.993534809834259
 20
125.19433098870356
 11
93.42882929621517
 21
117.75904887431378
  0
LINE
  8
_1-0_
  6
CONTINUOUS
 62
    7
 10
87.313341707796667
 20
125.28874165302999
 11
94.404150473104949
 21
118.19793288772171
  0
LINE
  8
_1-0_
  6
CONTINUOUS
 62
    7
 10
88.633148605759089
 20
125.38315231735642
 11
95.379471649994727
 21
118.63682927312078
  0
LINE
  8
_1-0_
  6
CONTINUOUS
 62
    7
 10
89.952967875712631
 20
125.47755060969173
 11
96.354792826884506
 21
119.07572565851986
  0
LINE
  8
_1-0_
  6
CONTINUOUS
 62
    7
 10
91.272774773675053
 20
125.57196127401816
 11
97.330114003774284
 21
119.51462204391892
  0
LINE
  8
_1-0_
  6
CONTINUOUS
 62
    7
 10
92.592581671637461
 20
125.6663719383446
 11
98.305435180664063
 21
119.953518429318
  0
LINE
  8
_1-0_
  6
CONTINUOUS
 62
    7
 10
93.912388569599884
 20
125.76078260267104
 11
99.280756357553855
 21
120.39241481471707
  0
LINE
  8
_1-0_
  6
CONTINUOUS
 62
    7
 10
95.232195467562292
 20
125.85518089500634
 11
100.25607753444363
 21
120.83131120011613
  0
LINE
  8
_1-0_
  6
CONTINUOUS
 62
    7
 10
96.552014737515847
 20
125.94959155933277
 11
101.23139871133341
 21
121.27020758551521
  0
LINE
  8
_1-0_
  6
CONTINUOUS
 62
    7
 10
97.871821635478256
 20
126.04400222365922
 11
102.20671988822319
 21
121.70910397091428
  0
LINE
  8
_1-0_
  6
CONTINUOUS
 62
    7
 10
99.191628533440678
 20
126.13841288798565
 11
103.18204106511297
 21
122.14800035631335
  0
LINE
  8
_1-0_
  6
CONTINUOUS
 62
    7
 10
100.51143543140309
 20
126.23282355231208
 11
104.15735605600719
 21
122.58689674171242
  0
LINE
  8
_1-0_
  6
CONTINUOUS
 62
    7
 10
101.83125470135664
 20
126.32722184464738
 11
105.13267723289697
 21
123.0257931271115
  0
LINE
  8
_1-0_
  6
CONTINUOUS
 62
    7
 10
103.15106159931905
 20
126.42163250897383
 11
104.83628144135346
 21
124.73640648094384
  0
LINE
  8
_1-0_
  6
CONTINUOUS
 62
    7
 10
336.51014173353042
 20
227.14567442198057
 11
340.06948935019005
 21
230.70502203864021
  0
LINE
  8
_1-0_
  6
CONTINUOUS
 62
    7
 10
331.3675504117399
 20
224.8314934807855
 11
338.5451363228463
 21
232.00912887985643
  0
LINE
  8
_1-0_
  6
CONTINUOUS
 62
    7
 10
326.22490960198479
 20
222.51733728357266
 11
333.40254500105578
 21
229.69494793866133
  0
LINE
  8
_1-0_
  6
CONTINUOUS
 62
    7
 10
321.0823677681588
 20
220.20315634237755
 11
328.25995367926521
 21
227.38076699746622
  0
LINE
  8
_1-0_
  6
CONTINUOUS
 62
    7
 10
315.93972695840375
 20
217.88897540118245
 11
323.1173376134924
 21
225.06661080025339
  0
LINE
  8
_1-0_
  6
CONTINUOUS
 62
    7
 10
310.79711089263094
 20
215.57481920396961
 11
317.97472154771964
 21
222.75242985905828
  0
LINE
  8
_1-0_
  6
CONTINUOUS
 62
    7
 10
305.65449482685813
 20
213.26063826277451
 11
312.83210548194683
 21
220.43824891786318
  0
LINE
  8
_1-0_
  6
CONTINUOUS
 62
    7
 10
300.51200248099661
 20
210.94650680954393
 11
307.68958839210308
 21
218.1241174646326
  0
LINE
  8
_1-0_
  6
CONTINUOUS
 62
    7
 10
295.36936167124156
 20
208.63232586834883
 11
302.54697232633026
 21
215.8099365234375
  0
LINE
  8
_1-0_
  6
CONTINUOUS
 62
    7
 10
290.22674560546875
 20
206.31814492715372
 11
297.40435626055745
 21
213.49575558224242
  0
LINE
  8
_1-0_
  6
CONTINUOUS
 62
    7
 10
285.08412953969594
 20
204.00396398595862
 11
292.26176493876693
 21
211.18159938502959
  0
LINE
  8
_1-0_
  6
CONTINUOUS
 62
    7
 10
279.94153821790542
 20
201.68978304476352
 11
287.11912412901182
 21
208.86741844383448
  0
LINE
  8
_1-0_
  6
CONTINUOUS
 62
    7
 10
274.79889740815037
 20
199.37561447555956
 11
281.97655755120354
 21
206.5532498746305
  0
LINE
  8
_1-0_
  6
CONTINUOUS
 62
    7
 10
269.65638031830662
 20
197.06147065033784
 11
276.83399097339526
 21
204.23909367741766
  0
LINE
  8
_1-0_
  6
CONTINUOUS
 62
    7
 10
264.5137642525338
 20
194.74728970914273
 11
271.69139965160474
 21
201.9249251082137
  0
LINE
  8
_1-0_
  6
CONTINUOUS
 62
    7
 10
259.37117293074328
 20
192.4331335119299
 11
266.54880832981422
 21
199.61075653900971
  0
LINE
  8
_1-0_
  6
CONTINUOUS
 62
    7
 10
254.22858160895271
 20
190.11895257073482
 11
261.40619226404141
 21
197.29658796980576
  0
LINE
  8
_1-0_
  6
CONTINUOUS
 62
    7
 10
249.08596554317992
 20
187.80478400153083
 11
256.26357619826859
 21
194.98240702861065
  0
LINE
  8
_1-0_
  6
CONTINUOUS
 62
    7
 10
243.94334947740711
 20
185.49060306033573
 11
251.12098487647805
 21
192.66823845940669
  0
LINE
  8
_1-0_
  6
CONTINUOUS
 62
    7
 10
238.80075815561656
 20
183.17643449113177
 11
245.9783935546875
 21
190.35406989020271
  0
LINE
  8
_1-0_
  6
CONTINUOUS
 62
    7
 10
233.65819157780828
 20
180.86227829391893
 11
240.83582697687925
 21
188.03991369298987
  0
LINE
  8
_1-0_
  6
CONTINUOUS
 62
    7
 10
228.5155755120355
 20
178.54810972471495
 11
235.69321091110643
 21
185.72574512378591
  0
LINE
  8
_1-0_
  6
CONTINUOUS
 62
    7
 10
223.37295944626268
 20
176.23392878351987
 11
230.55061958931589
 21
183.41157655458193
  0
LINE
  8
_1-0_
  6
CONTINUOUS
 62
    7
 10
218.2303928684544
 20
173.91977258630703
 11
225.40802826752534
 21
181.09740798537797
  0
LINE
  8
_1-0_
  6
CONTINUOUS
 62
    7
 10
213.08780154666385
 20
171.60560401710305
 11
220.26541220175255
 21
178.78322704418287
  0
LINE
  8
_1-0_
  6
CONTINUOUS
 62
    7
 10
207.9451607369088
 20
169.29142307590794
 11
215.12279613597974
 21
176.46905847497891
  0
LINE
  8
_1-0_
  6
CONTINUOUS
 62
    7
 10
202.80256941511826
 20
166.97725450670399
 11
209.98020481418919
 21
174.1548775337838
  0
LINE
  8
_1-0_
  6
CONTINUOUS
 62
    7
 10
197.66002758129224
 20
164.66309830949115
 11
204.83761349239867
 21
171.84072133657097
  0
LINE
  8
_1-0_
  6
CONTINUOUS
 62
    7
 10
192.51741151551943
 20
162.34892974028716
 11
199.69504691459039
 21
169.52656513935813
  0
LINE
  8
_1-0_
  6
CONTINUOUS
 62
    7
 10
187.37479544974664
 20
160.03474879909206
 11
194.55243084881758
 21
167.21239657015414
  0
LINE
  8
_1-0_
  6
CONTINUOUS
 62
    7
 10
182.23220412795609
 20
157.7205802298881
 11
189.40983952702703
 21
164.89822800095018
  0
LINE
  8
_1-0_
  6
CONTINUOUS
 62
    7
 10
177.08958806218328
 20
155.406399288693
 11
184.26724820523648
 21
162.58404705975508
  0
LINE
  8
_1-0_
  6
CONTINUOUS
 62
    7
 10
171.94697199641047
 20
153.09223071948904
 11
179.12464451145482
 21
160.26989086254224
  0
LINE
  8
_1-0_
  6
CONTINUOUS
 62
    7
 10
166.80443016258448
 20
150.7780745222762
 11
173.98209030563768
 21
157.9557346653294
  0
LINE
  8
_1-0_
  6
CONTINUOUS
 62
    7
 10
161.66181409681167
 20
148.46390595307221
 11
168.83947423986487
 21
155.6415537241343
  0
LINE
  8
_1-0_
  6
CONTINUOUS
 62
    7
 10
156.51921040303
 20
146.14973738386826
 11
163.6968705460832
 21
153.32738515493034
  0
LINE
  8
_1-0_
  6
CONTINUOUS
 62
    7
 10
151.37661908123945
 20
143.83556881466427
 11
158.55427922429266
 21
151.01321658572635
  0
LINE
  8
_1-0_
  6
CONTINUOUS
 62
    7
 10
146.23402775944891
 20
141.52140024546031
 11
153.41168790250211
 21
148.6990480165224
  0
LINE
  8
_1-0_
  6
CONTINUOUS
 62
    7
 10
141.09142406566724
 20
139.20721930426521
 11
148.26907183672932
 21
146.38487944731841
  0
LINE
  8
_1-0_
  6
CONTINUOUS
 62
    7
 10
135.94883274387669
 20
136.89306310705237
 11
143.12648051493878
 21
144.07069850612331
  0
LINE
  8
_1-0_
  6
CONTINUOUS
 62
    7
 10
130.80622905009503
 20
134.57888216585727
 11
137.98386444916596
 21
141.75652993691935
  0
LINE
  8
_1-0_
  6
CONTINUOUS
 62
    7
 10
125.66363772830448
 20
132.26471359665331
 11
132.84129787135768
 21
139.44237373970651
  0
LINE
  8
_1-0_
  6
CONTINUOUS
 62
    7
 10
120.52103403452281
 20
129.95055739944047
 11
127.69871892155828
 21
137.12820517050255
  0
LINE
  8
_1-0_
  6
CONTINUOUS
 62
    7
 10
115.37843034074113
 20
127.63637645824537
 11
122.55610285578548
 21
134.81403660129857
  0
LINE
  8
_1-0_
  6
CONTINUOUS
 62
    7
 10
110.2358390189506
 20
125.32220788904139
 11
117.41351153399494
 21
132.49986803209461
  0
LINE
  8
_1-0_
  6
CONTINUOUS
 62
    7
 10
105.45241897170608
 20
123.36721059438345
 11
112.27094495618667
 21
130.18571183488177
  0
LINE
  8
_1-0_
  6
CONTINUOUS
 62
    7
 10
104.57462620090794
 20
125.31785294816301
 11
107.12830414643159
 21
127.87153089368667
  0
LINE
  8
_1-0_
  6
CONTINUOUS
 62
    7
 10
104.36066498627534
 20
126.62609203441724
 11
107.08322061074747
 21
123.90352403795397
  0
LINE
  8
_1-0_
  6
CONTINUOUS
 62
    7
 10
106.31130734005491
 20
127.50388480521538
 11
109.03386296452703
 21
124.78131680875212
  0
LINE
  8
_1-0_
  6
CONTINUOUS
 62
    7
 10
108.26194969383447
 20
128.3816652040224
 11
110.98449294631546
 21
125.65909720755913
  0
LINE
  8
_1-0_
  6
CONTINUOUS
 62
    7
 10
110.21256730363176
 20
129.2594456028294
 11
112.93512292810389
 21
126.53688997835727
  0
LINE
  8
_1-0_
  6
CONTINUOUS
 62
    7
 10
112.16320965741133
 20
130.13723837362755
 11
114.88576528188345
 21
127.41467037716428
  0
LINE
  8
_1-0_
  6
CONTINUOUS
 62
    7
 10
114.11382726720862
 20
131.01500640044341
 11
116.83638289168076
 21
128.29246314796242
  0
LINE
  8
_1-0_
  6
CONTINUOUS
 62
    7
 10
116.06449436497044
 20
131.89281154323268
 11
118.78703761745145
 21
129.17024354676943
  0
LINE
  8
_1-0_
  6
CONTINUOUS
 62
    7
 10
118.01508723078548
 20
132.77057957004857
 11
120.73765522724874
 21
130.04803631756758
  0
LINE
  8
_1-0_
  6
CONTINUOUS
 62
    7
 10
119.96572958456504
 20
133.64835996885557
 11
122.68828520903718
 21
130.92581671637458
  0
LINE
  8
_1-0_
  6
CONTINUOUS
 62
    7
 10
121.91639668232686
 20
134.52616511164484
 11
124.63892756281673
 21
131.80360948717274
  0
LINE
  8
_1-0_
  6
CONTINUOUS
 62
    7
 10
123.86701429212417
 20
135.40394551045188
 11
126.58956991659629
 21
132.68138988597974
  0
LINE
  8
_1-0_
  6
CONTINUOUS
 62
    7
 10
125.81765664590372
 20
136.28173828125
 11
128.54018752639359
 21
133.55917028478675
  0
LINE
  8
_1-0_
  6
CONTINUOUS
 62
    7
 10
127.76827425570102
 20
137.15950630806589
 11
130.49082988017315
 21
134.4369630555849
  0
LINE
  8
_1-0_
  6
CONTINUOUS
 62
    7
 10
129.71891660948057
 20
138.03729907886404
 11
132.44147223395271
 21
135.3147434543919
  0
LINE
  8
_1-0_
  6
CONTINUOUS
 62
    7
 10
131.6695837072424
 20
138.91509184966216
 11
134.39212695972341
 21
136.19253622519005
  0
LINE
  8
_1-0_
  6
CONTINUOUS
 62
    7
 10
133.62021368903083
 20
139.79288462046031
 11
136.34276931350297
 21
137.07032899598818
  0
LINE
  8
_1-0_
  6
CONTINUOUS
 62
    7
 10
135.57086841480154
 20
140.67067739125847
 11
138.29341166728253
 21
137.94812176678633
  0
LINE
  8
_1-0_
  6
CONTINUOUS
 62
    7
 10
137.52151076858109
 20
141.54847016205659
 11
140.24406639305323
 21
138.82591453758448
  0
LINE
  8
_1-0_
  6
CONTINUOUS
 62
    7
 10
139.4721407503695
 20
142.42626293285474
 11
142.19469637484164
 21
139.7037073083826
  0
LINE
  8
_1-0_
  6
CONTINUOUS
 62
    7
 10
141.42280784813136
 20
143.30405570365289
 11
144.14535110061234
 21
140.58148770718961
  0
LINE
  8
_1-0_
  6
CONTINUOUS
 62
    7
 10
143.37345020191091
 20
144.18184847445102
 11
146.0959934543919
 21
141.45928047798776
  0
LINE
  8
_1-0_
  6
CONTINUOUS
 62
    7
 10
145.32408018369932
 20
145.0596165012669
 11
148.04663580817146
 21
142.33707324878591
  0
LINE
  8
_1-0_
  6
CONTINUOUS
 62
    7
 10
147.27473490947003
 20
145.93742164405617
 11
149.99727816195102
 21
143.21486601958404
  0
LINE
  8
_1-0_
  6
CONTINUOUS
 62
    7
 10
149.22536489125847
 20
146.81520204286318
 11
151.94792051573057
 21
144.09265879038219
  0
LINE
  8
_1-0_
  6
CONTINUOUS
 62
    7
 10
151.17600724503802
 20
147.69299481366133
 11
153.89857524150128
 21
144.97043918918919
  0
LINE
  8
_1-0_
  6
CONTINUOUS
 62
    7
 10
153.12667434279984
 20
148.57078758445948
 11
155.84921759528083
 21
145.84823195998734
  0
LINE
  8
_1-0_
  6
CONTINUOUS
 62
    7
 10
155.0773166965794
 20
149.4485803552576
 11
157.79984757706927
 21
146.72602473078547
  0
LINE
  8
_1-0_
  6
CONTINUOUS
 62
    7
 10
157.02795905035896
 20
150.32637312605576
 11
159.75051467483109
 21
147.60381750158362
  0
LINE
  8
_1-0_
  6
CONTINUOUS
 62
    7
 10
158.97860140413852
 20
151.20416589685388
 11
161.70115702861065
 21
148.48161027238177
  0
LINE
  8
_1-0_
  6
CONTINUOUS
 62
    7
 10
160.92925612990922
 20
152.08195866765203
 11
163.65179938239021
 21
149.3594030431799
  0
LINE
  8
_1-0_
  6
CONTINUOUS
 62
    7
 10
162.8799108556799
 20
152.95975143845018
 11
165.60245410816091
 21
150.23719581397805
  0
LINE
  8
_1-0_
  6
CONTINUOUS
 62
    7
 10
164.83054083746833
 20
153.83753183725719
 11
167.55310883393159
 21
151.1149885847762
  0
LINE
  8
_1-0_
  6
CONTINUOUS
 62
    7
 10
166.78119556323904
 20
154.71533698004646
 11
169.50373881572003
 21
151.9927689835832
  0
LINE
  8
_1-0_
  6
CONTINUOUS
 62
    7
 10
168.73183791701859
 20
155.59311737885346
 11
171.45439354149073
 21
152.87056175438136
  0
LINE
  8
_1-0_
  6
CONTINUOUS
 62
    7
 10
170.68246789880703
 20
156.47089777766047
 11
173.40503589527029
 21
153.74835452517948
  0
LINE
  8
_1-0_
  6
CONTINUOUS
 62
    7
 10
172.63312262457771
 20
157.34870292044977
 11
175.35567824904984
 21
154.62613492398648
  0
LINE
  8
_1-0_
  6
CONTINUOUS
 62
    7
 10
174.58378972233953
 20
158.22649569124789
 11
177.3063206028294
 21
155.50392769478464
  0
LINE
  8
_1-0_
  6
CONTINUOUS
 62
    7
 10
176.53441970412797
 20
159.1042760900549
 11
179.25696295660896
 21
156.38172046558279
  0
LINE
  8
_1-0_
  6
CONTINUOUS
 62
    7
 10
178.48506205790753
 20
159.98206886085305
 11
181.20760531038852
 21
157.25951323638091
  0
LINE
  8
_1-0_
  6
CONTINUOUS
 62
    7
 10
180.43571678367823
 20
160.8598616316512
 11
183.15827240815034
 21
158.13730600717906
  0
LINE
  8
_1-0_
  6
CONTINUOUS
 62
    7
 10
182.38635913745779
 20
161.73765440244932
 11
185.1089147619299
 21
159.01509877797722
  0
LINE
  8
_1-0_
  6
CONTINUOUS
 62
    7
 10
184.33697674725508
 20
162.61544717324747
 11
187.05955711570948
 21
159.89289154877534
  0
LINE
  8
_1-0_
  6
CONTINUOUS
 62
    7
 10
186.2876438450169
 20
163.49323994404563
 11
189.01019946948904
 21
160.77068431957349
  0
LINE
  8
_1-0_
  6
CONTINUOUS
 62
    7
 10
188.23828619879646
 20
164.37102034285263
 11
190.96084182326859
 21
161.64847709037164
  0
LINE
  8
_1-0_
  6
CONTINUOUS
 62
    7
 10
190.18892855257602
 20
165.2488254856419
 11
192.91148417704815
 21
162.52626986116977
  0
LINE
  8
_1-0_
  6
CONTINUOUS
 62
    7
 10
192.13957090635557
 20
166.12659351245779
 11
194.86212653082771
 21
163.40405025997677
  0
LINE
  8
_1-0_
  6
CONTINUOUS
 62
    7
 10
194.09021326013516
 20
167.00438628325591
 11
196.81276888460727
 21
164.28184303077492
  0
LINE
  8
_1-0_
  6
CONTINUOUS
 62
    7
 10
196.04088035789698
 20
167.88217905405406
 11
198.76341123838682
 21
165.15963580157307
  0
LINE
  8
_1-0_
  6
CONTINUOUS
 62
    7
 10
197.99149796769427
 20
168.75997182485222
 11
200.71407833614867
 21
166.0374285723712
  0
LINE
  8
_1-0_
  6
CONTINUOUS
 62
    7
 10
199.94216506545609
 20
169.63777696764149
 11
202.66472068992823
 21
166.91522134316935
  0
LINE
  8
_1-0_
  6
CONTINUOUS
 62
    7
 10
201.89283216321792
 20
170.51555736644849
 11
204.61536304370779
 21
167.7930141139675
  0
LINE
  8
_1-0_
  6
CONTINUOUS
 62
    7
 10
203.84344977301521
 20
171.39335013724664
 11
206.56603014146961
 21
168.67079451277451
  0
LINE
  8
_1-0_
  6
CONTINUOUS
 62
    7
 10
205.79411687077703
 20
172.27114290804477
 11
208.5166477512669
 21
169.54858728357266
  0
LINE
  8
_1-0_
  6
CONTINUOUS
 62
    7
 10
207.74475922455659
 20
173.14893567884292
 11
210.46731484902872
 21
170.42638005437078
  0
LINE
  8
_1-0_
  6
CONTINUOUS
 62
    7
 10
209.69540157833617
 20
174.02671607764992
 11
212.41793245882602
 21
171.30417282516893
  0
LINE
  8
_1-0_
  6
CONTINUOUS
 62
    7
 10
211.64601918813347
 20
174.90450884844807
 11
214.36859955658784
 21
172.18196559596706
  0
LINE
  8
_1-0_
  6
CONTINUOUS
 62
    7
 10
213.59668628589529
 20
175.78231399123734
 11
216.31924191036742
 21
173.05975836676521
  0
LINE
  8
_1-0_
  6
CONTINUOUS
 62
    7
 10
215.54732863967484
 20
176.66009439004435
 11
218.26988426414698
 21
173.93753876557221
  0
LINE
  8
_1-0_
  6
CONTINUOUS
 62
    7
 10
217.4979709934544
 20
177.53787478885135
 11
220.22052661792654
 21
174.81533153637037
  0
LINE
  8
_1-0_
  6
CONTINUOUS
 62
    7
 10
219.44863809121622
 20
178.41566755964951
 11
222.17119371568836
 21
175.69313667915964
  0
LINE
  8
_1-0_
  6
CONTINUOUS
 62
    7
 10
221.39928044499578
 20
179.29347270243878
 11
224.12181132548565
 21
176.57090470597552
  0
LINE
  8
_1-0_
  6
CONTINUOUS
 62
    7
 10
223.34992279877534
 20
180.17125310124578
 11
226.07247842324747
 21
177.44870984876479
  0
LINE
  8
_1-0_
  6
CONTINUOUS
 62
    7
 10
225.30054040857266
 20
181.04904587204393
 11
228.02312077702703
 21
178.32650261956294
  0
LINE
  8
_1-0_
  6
CONTINUOUS
 62
    7
 10
227.25120750633448
 20
181.92683864284206
 11
229.97373838682435
 21
179.20428301836995
  0
LINE
  8
_1-0_
  6
CONTINUOUS
 62
    7
 10
229.20184986011404
 20
182.80463141364021
 11
231.92440548458617
 21
180.08207578916807
  0
LINE
  8
_1-0_
  6
CONTINUOUS
 62
    7
 10
231.15249221389359
 20
183.68242418443836
 11
233.87504783836573
 21
180.95986855996622
  0
LINE
  8
_1-0_
  6
CONTINUOUS
 62
    7
 10
233.10315931165542
 20
184.56021695523648
 11
235.82569019214529
 21
181.83766133076438
  0
LINE
  8
_1-0_
  6
CONTINUOUS
 62
    7
 10
235.05377692145271
 20
185.43799735404352
 11
237.77635728990711
 21
182.7154541015625
  0
LINE
  8
_1-0_
  6
CONTINUOUS
 62
    7
 10
237.00444401921453
 20
186.31579012484164
 11
239.7269748997044
 21
183.59324687236065
  0
LINE
  8
_1-0_
  6
CONTINUOUS
 62
    7
 10
238.95508637299409
 20
187.19358289563979
 11
241.67764199746622
 21
184.4710396431588
  0
LINE
  8
_1-0_
  6
CONTINUOUS
 62
    7
 10
240.90572872677367
 20
188.07137566643794
 11
243.62825960726352
 21
185.34882004196581
  0
LINE
  8
_1-0_
  6
CONTINUOUS
 62
    7
 10
242.85637108055323
 20
188.94915606524495
 11
245.5789019610431
 21
186.22660044077281
  0
LINE
  8
_1-0_
  6
CONTINUOUS
 62
    7
 10
244.80701343433279
 20
189.82696120803422
 11
247.52956905880492
 21
187.10439321157097
  0
LINE
  8
_1-0_
  6
CONTINUOUS
 62
    7
 10
246.75765578811234
 20
190.70474160684122
 11
249.48021141258448
 21
187.98218598236909
  0
LINE
  8
_1-0_
  6
CONTINUOUS
 62
    7
 10
248.7082981418919
 20
191.58253437763938
 11
251.43085376636404
 21
188.85997875316724
  0
LINE
  8
_1-0_
  6
CONTINUOUS
 62
    7
 10
250.65894049567146
 20
192.4603271484375
 11
253.38149612014359
 21
189.73777152396539
  0
LINE
  8
_1-0_
  6
CONTINUOUS
 62
    7
 10
252.60960759343328
 20
193.33811991923565
 11
255.33216321790542
 21
190.61556429476352
  0
LINE
  8
_1-0_
  6
CONTINUOUS
 62
    7
 10
254.56024994721284
 20
194.2159126900338
 11
257.282805571685
 21
191.49335706556167
  0
LINE
  8
_1-0_
  6
CONTINUOUS
 62
    7
 10
256.51091704497469
 20
195.09370546083193
 11
259.23344792546453
 21
192.37114983635982
  0
LINE
  8
_1-0_
  6
CONTINUOUS
 62
    7
 10
258.46153465477198
 20
195.97149823163008
 11
261.18409027924412
 21
193.24894260715794
  0
LINE
  8
_1-0_
  6
CONTINUOUS
 62
    7
 10
260.4122017525338
 20
196.84929100242823
 11
263.13473263302365
 21
194.12673537795609
  0
LINE
  8
_1-0_
  6
CONTINUOUS
 62
    7
 10
262.36284410631333
 20
197.72707140123524
 11
265.08537498680323
 21
195.00452814875425
  0
LINE
  8
_1-0_
  6
CONTINUOUS
 62
    7
 10
264.31348646009292
 20
198.60486417203336
 11
267.03601734058276
 21
195.88230854756125
  0
LINE
  8
_1-0_
  6
CONTINUOUS
 62
    7
 10
266.2641288138725
 20
199.48265694283151
 11
268.98668443834458
 21
196.76011369035052
  0
LINE
  8
_1-0_
  6
CONTINUOUS
 62
    7
 10
268.21477116765203
 20
200.36043734163852
 11
270.93732679212417
 21
197.63790646114865
  0
LINE
  8
_1-0_
  6
CONTINUOUS
 62
    7
 10
270.16541352143162
 20
201.23823011243667
 11
272.88796914590375
 21
198.51567448796453
  0
LINE
  8
_1-0_
  6
CONTINUOUS
 62
    7
 10
272.11605587521115
 20
202.11602288323482
 11
274.83861149968328
 21
199.3934796307538
  0
LINE
  8
_1-0_
  6
CONTINUOUS
 62
    7
 10
274.06672297297297
 20
202.99381565403294
 11
276.78925385346287
 21
200.27126002956084
  0
LINE
  8
_1-0_
  6
CONTINUOUS
 62
    7
 10
276.01734058277026
 20
203.87160842483109
 11
278.7398962072424
 21
201.14905280035896
  0
LINE
  8
_1-0_
  6
CONTINUOUS
 62
    7
 10
277.96800768053208
 20
204.74940119562925
 11
280.69053856102198
 21
202.02684557115711
  0
LINE
  8
_1-0_
  6
CONTINUOUS
 62
    7
 10
279.91865003431167
 20
205.62719396642737
 11
282.6412056587838
 21
202.90463834195523
  0
LINE
  8
_1-0_
  6
CONTINUOUS
 62
    7
 10
281.86929238809125
 20
206.50498673722552
 11
284.59184801256333
 21
203.78243111275339
  0
LINE
  8
_1-0_
  6
CONTINUOUS
 62
    7
 10
283.81993474187078
 20
207.38276713603253
 11
286.54249036634292
 21
204.66022388355154
  0
LINE
  8
_1-0_
  6
CONTINUOUS
 62
    7
 10
285.77057709565037
 20
208.2605722788218
 11
288.4931327201225
 21
205.53801665434966
  0
LINE
  8
_1-0_
  6
CONTINUOUS
 62
    7
 10
287.7212194494299
 20
209.13834030563768
 11
290.44377507390203
 21
206.41580942514781
  0
LINE
  8
_1-0_
  6
CONTINUOUS
 62
    7
 10
289.67186180320948
 20
210.01613307643584
 11
292.39444217166385
 21
207.29360219594597
  0
LINE
  8
_1-0_
  6
CONTINUOUS
 62
    7
 10
291.62250415698901
 20
210.89392584723396
 11
294.34505978146115
 21
208.17139496674409
  0
LINE
  8
_1-0_
  6
CONTINUOUS
 62
    7
 10
293.57314651076859
 20
211.77171861803211
 11
296.29572687922297
 21
209.04918773754224
  0
LINE
  8
_1-0_
  6
CONTINUOUS
 62
    7
 10
295.52381360853042
 20
212.64951138883023
 11
298.24636923300255
 21
209.92695576435813
  0
LINE
  8
_1-0_
  6
CONTINUOUS
 62
    7
 10
297.47445596231
 20
213.52730415962839
 11
300.19701158678214
 21
210.80474853515625
  0
LINE
  8
_1-0_
  6
CONTINUOUS
 62
    7
 10
299.42509831608953
 20
214.40509693042654
 11
302.14765394056167
 21
211.6825413059544
  0
LINE
  8
_1-0_
  6
CONTINUOUS
 62
    7
 10
301.37574066986912
 20
215.28288970122466
 11
304.09829629434125
 21
212.56033407675255
  0
LINE
  8
_1-0_
  6
CONTINUOUS
 62
    7
 10
303.32638302364865
 20
216.16068247202281
 11
306.04893864812078
 21
213.43812684755068
  0
LINE
  8
_1-0_
  6
CONTINUOUS
 62
    7
 10
305.27702537742823
 20
217.0384504988387
 11
307.99958100190037
 21
214.31591961834883
  0
LINE
  8
_1-0_
  6
CONTINUOUS
 62
    7
 10
307.22766773120776
 20
217.91624326963682
 11
309.95024809966219
 21
215.19371238914698
  0
LINE
  8
_1-0_
  6
CONTINUOUS
 62
    7
 10
309.17831008498734
 20
218.79403604043497
 11
311.90086570945948
 21
216.0715051599451
  0
LINE
  8
_1-0_
  6
CONTINUOUS
 62
    7
 10
311.12895243876693
 20
219.67182881123313
 11
313.8515328072213
 21
216.94929793074326
  0
LINE
  8
_1-0_
  6
CONTINUOUS
 62
    7
 10
313.07961953652875
 20
220.54962158203125
 11
315.80215041701859
 21
217.82706595755914
  0
LINE
  8
_1-0_
  6
CONTINUOUS
 62
    7
 10
315.03023714632604
 20
221.4274143528294
 11
317.75281751478042
 21
218.70488347233953
  0
LINE
  8
_1-0_
  6
CONTINUOUS
 62
    7
 10
316.98090424408787
 20
222.30520712362755
 11
319.70348461254224
 21
219.58265149915542
  0
LINE
  8
_1-0_
  6
CONTINUOUS
 62
    7
 10
318.9315465978674
 20
223.18299989442568
 11
321.65410222233953
 21
220.46044426995357
  0
LINE
  8
_1-0_
  6
CONTINUOUS
 62
    7
 10
320.88218895164698
 20
224.06079266522383
 11
323.60471983213682
 21
221.33823704075169
  0
LINE
  8
_1-0_
  6
CONTINUOUS
 62
    7
 10
322.83283130542657
 20
224.93858543602198
 11
325.55538692989865
 21
222.21602981154984
  0
LINE
  8
_1-0_
  6
CONTINUOUS
 62
    7
 10
324.78347365920609
 20
225.8163782068201
 11
327.50605402766047
 21
223.093822582348
  0
LINE
  8
_1-0_
  6
CONTINUOUS
 62
    7
 10
326.73414075696792
 20
226.69417097761826
 11
329.45667163745782
 21
223.97161535314612
  0
LINE
  8
_1-0_
  6
CONTINUOUS
 62
    7
 10
328.6847831107475
 20
227.57196374841641
 11
331.40733873521964
 21
224.84940812394427
  0
LINE
  8
_1-0_
  6
CONTINUOUS
 62
    7
 10
330.63542546452703
 20
228.44975651921453
 11
333.35800583298146
 21
225.72720089474242
  0
LINE
  8
_1-0_
  6
CONTINUOUS
 62
    7
 10
332.58609256228885
 20
229.32754929001268
 11
335.30862344277875
 21
226.60499366554055
  0
LINE
  8
_1-0_
  6
CONTINUOUS
 62
    7
 10
334.53673491606844
 20
230.20531731682857
 11
337.25929054054058
 21
227.48276169235643
  0
LINE
  8
_1-0_
  6
CONTINUOUS
 62
    7
 10
336.48737726984797
 20
231.08311008762669
 11
339.20990815033787
 21
228.36057920713685
  0
LINE
  8
_1-0_
  6
CONTINUOUS
 62
    7
 10
338.43801962362755
 20
231.96090285842484
 11
340.37676012193839
 21
230.02216236011404
  0
LINE
  8
_1-4_
  6
CONTINUOUS
 62
    7
 10
297.62430551889781
 20
174.95143581081081
 11
311.29567739125844
 21
137.38965008709883
  0
LINE
  8
_1-0_
  6
CONTINUOUS
 62
    7
 10
86.304331599055118
 20
122.05509907490499
 11
91.478174570444466
 21
116.88125610351562
  0
LINE
  8
_1-0_
  6
CONTINUOUS
 62
    7
 10
96.014946602486276
 20
119.48341988228464
 11
106.07346818253801
 21
97.131091968433282
  0
LINE
  8
ADD_LINE
  6
DOT
 62
    3
 10
251.24094370249156
 20
168.34557198189401
 11
273.28137371991136
 21
119.36678912188556
  0
LINE
  8
_1-0_
  6
CONTINUOUS
 62
    3
 10
283.22810817409209
 20
127.72366085567991
 11
283.72053816511828
 21
126.62934586808488
  0
LINE
  8
_1-0_
  6
CONTINUOUS
 62
    3
 10
263.69476318359375
 20
171.13111341321792
 11
263.20230844858531
 21
172.2254160288218
  0
LINE
  8
_1-0_
  6
CONTINUOUS
 62
    3
 10
253.90982962943414
 20
166.06994216506547
 11
263.3938268713049
 21
170.33774710990289
  0
LINE
  8
_1-0_
  6
CONTINUOUS
 62
    3
 10
271.76068280194261
 20
124.20819669156462
 11
253.45842516100086
 21
164.87989271009292
  0
LINE
  8
_1-0_
  6
CONTINUOUS
 62
    3
 10
272.95074462890625
 20
123.75679222313134
 11
282.43474187077703
 21
128.02459716796875
  0
LINE
  8
_1-0_
  6
CONTINUOUS
 62
    3
 10
283.72053816511828
 20
126.62934586808488
 11
272.3215299039274
 21
121.49979462494721
  0
LINE
  8
_1-0_
  6
CONTINUOUS
 62
    3
 10
251.80330018739443
 20
167.09586478568414
 11
263.20230844858531
 21
172.2254160288218
  0
LINE
  8
ADD_LINE
  6
DOT
 62
    3
 10
251.24094370249156
 20
168.34557198189401
 11
273.28137371991136
 21
119.36678912188556
  0
LINE
  8
_1-0_
  6
CONTINUOUS
 62
    3
 10
260.43006690772808
 20
117.46455836940457
 11
260.92252164273651
 21
116.37024338180954
  0
LINE
  8
_1-0_
  6
CONTINUOUS
 62
    3
 10
240.89672191722974
 20
160.87201092694258
 11
240.40429192620357
 21
161.96631354254646
  0
LINE
  8
_1-0_
  6
CONTINUOUS
 62
    3
 10
251.17408546241555
 20
164.8388671875
 11
241.69008822054477
 21
160.57107461465372
  0
LINE
  8
_1-0_
  6
CONTINUOUS
 62
    3
 10
270.6663801863387
 20
123.71576670053844
 11
252.36414728937925
 21
164.38746271906672
  0
LINE
  8
_1-0_
  6
CONTINUOUS
 62
    3
 10
260.92252164273651
 20
116.37024338180954
 11
272.3215299039274
 21
121.49979462494721
  0
LINE
  8
_1-0_
  6
CONTINUOUS
 62
    3
 10
251.80330018739443
 20
167.09586478568414
 11
240.40429192620357
 21
161.96631354254646
  0
LINE
  8
_1-0_
  6
CONTINUOUS
 62
    3
 10
253.45842516100086
 20
164.87989271009292
 11
271.76068280194261
 21
124.20819669156462
  0
LINE
  8
_1-3_
  6
CONTINUOUS
 62
    7
 10
109.81616870777027
 20
79.459459459459467
 11
117.75360519821579
 21
57.65151771339211
  0
LINE
  8
_1-3_
  6
CONTINUOUS
 62
    7
 10
117.75360519821579
 20
57.65151771339211
 11
125.22157411317568
 21
57.65151771339211
  0
LINE
  8
_1-0_
  6
CONTINUOUS
 62
    3
 10
270.21500046188771
 20
122.52571724556589
 11
260.73100322001693
 21
118.2579246727196
  0
LINE
  8
_1-0_
  6
CONTINUOUS
 62
    7
 10
96.224738456107474
 20
119.01720614046664
 11
109.35638840134079
 21
89.835712329761407
  0
LINE
  8
_1-0_
  6
CONTINUOUS
 62
    7
 10
113.95245938687712
 20
79.622188258815456
 11
107.30456790408573
 21
94.395323057432435
  0
LINE
  8
_1-3_
  6
CONTINUOUS
 62
    7
 10
108.53566762563345
 20
91.659554146431589
 11
222.74928737331084
 21
143.05570035367398
  0
LINE
  8
_1-3_
  6
CONTINUOUS
 62
    7
 10
147.13478294578761
 20
119.99502645956504
 11
142.24434517525339
 21
106.82846894135346
  0
LINE
  8
_1-3_
  6
CONTINUOUS
 62
    7
 10
149.69645319758234
 20
121.14777436127534
 11
144.80601542704815
 21
107.98121684306378
  0
LINE
  8
_1-3_
  6
CONTINUOUS
 62
    7
 10
148.41561807168497
 20
120.5714004104202
 11
143.52518030115075
 21
107.40484289220862
  0
LINE
  8
_1-3_
  6
CONTINUOUS
 62
    7
 10
193.0611852697424
 20
140.66190564954604
 11
188.17075987119932
 21
127.49534813133447
  0
LINE
  8
_1-3_
  6
CONTINUOUS
 62
    7
 10
194.34198327966641
 20
141.23826722841005
 11
189.45158262510557
 21
128.07173445418076
  0
LINE
  8
_1-3_
  6
CONTINUOUS
 62
    7
 10
195.62285552153716
 20
141.81465355125636
 11
190.73240537901182
 21
128.64809603304477
  0
LINE
  8
_1-0_
  6
CONTINUOUS
 62
    7
 10
104.83325030352619
 20
75.518541078309752
 11
113.95245938687712
 21
79.622188258815456
  0
LINE
  8
_1-3_
  6
CONTINUOUS
 62
    7
 10
87.105541744747683
 20
114.91356514595651
 11
104.83325030352619
 21
75.518541078309752
  0
LINE
  8
_1-3_
  6
CONTINUOUS
 62
    7
 10
100.1564087738862
 20
110.28015549118454
 11
93.500599216770482
 21
100.7022981385927
  0
LINE
  8
_1-3_
  6
CONTINUOUS
 62
    7
 10
101.59227732065563
 20
107.08932000237543
 11
94.936467763539909
 21
97.511450277792449
  0
LINE
  8
_1-3_
  6
CONTINUOUS
 62
    7
 10
103.02815823941619
 20
103.8984845135663
 11
96.372348682300469
 21
94.320608602987761
  0
LINE
  8
_1-0_
  6
CONTINUOUS
 62
    7
 10
81.686349817224453
 20
124.88623129354941
 11
104.04902690165753
 21
126.48586788692991
  0
LINE
  8
_1-0_
  6
CONTINUOUS
 62
    7
 10
105.52635399070947
 20
123.20294766812712
 11
86.330906636006134
 21
114.56497192382812
  0
LINE
  8
_1-3_
  6
CONTINUOUS
 62
    7
 10
86.330906636006134
 20
114.56497192382812
 11
81.686349817224453
 21
124.88623129354941
  0
LINE
  8
_1-3_
  6
CONTINUOUS
 62
    7
 10
88.618500168259089
 20
116.91249538112332
 11
82.538557310362123
 21
122.99243823902027
  0
LINE
  8
_1-3_
  6
CONTINUOUS
 62
    7
 10
84.114996420370574
 20
119.48923471811656
 11
88.198730881149714
 21
115.40550025733742
  0
LINE
  8
_1-3_
  6
CONTINUOUS
 62
    7
 10
87.46142206965267
 20
119.48379104201858
 11
82.034101743955873
 21
124.91111136771538
  0
LINE
  8
_1-3_
  6
CONTINUOUS
 62
    7
 10
86.304331599055118
 20
122.05509907490499
 11
83.353921013909428
 21
125.00550966005068
  0
LINE
  8
_1-2_
  6
CONTINUOUS
 62
    3
 10
73.007255760399062
 20
121.75731762035474
 11
80.992145022830471
 21
124.8219835436022
  0
LINE
  8
_1-2_
  6
CONTINUOUS
 62
    3
 10
80.992145022830471
 20
124.8219835436022
 11
134.76504351641682
 21
145.46046901393581
  0
LINE
  8
_1-3_
  6
CONTINUOUS
 62
    7
 10
157.65400654560813
 20
116.75675675675676
 11
165.59144303605365
 21
94.948815010689401
  0
LINE
  8
_1-3_
  6
CONTINUOUS
 62
    7
 10
165.59144303605365
 20
94.948815010689401
 11
173.05941195101352
 21
94.948815010689401
  0
LINE
  8
_1-3_
  6
CONTINUOUS
 62
    7
 10
297.62430551889781
 20
174.95143581081081
 11
284.18963458086995
 21
211.86287544869089
  0
LINE
  8
_1-0_
  6
DASHED1
 62
    7
 10
112.45054915144638
 20
104.89154712573902
 11
349.11029712573907
 21
211.38845907675255
  0
LINE
  8
ADD_LINE
  6
DOT
 62
    3
 10
269.85297125739021
 20
175.21822542757602
 11
268.12096673089104
 21
174.43882710224875
  0
LINE
  8
_1-0_
  6
CONTINUOUS
 62
    7
 10
113.55124808646538
 20
104.88242896827492
 11
349.2990689664274
 21
210.96897434543919
  0
LINE
  8
_1-2_
  6
CONTINUOUS
 62
    7
 10
111.90978179106841
 20
108.53012497360642
 11
113.55124808646538
 21
104.88242896827492
  0
LINE
  8
_1-2_
  6
CONTINUOUS
 62
    7
 10
111.90979416305954
 20
108.53011260161529
 11
347.65760267103042
 21
214.61665797877959
  0
LINE
  8
_1-2_
  6
CONTINUOUS
 62
    7
 10
106.98542002085094
 20
119.47318824561867
 11
343.20521999049834
 21
225.77211122255068
  0
LINE
  8
_1-0_
  6
DASHED1
 62
    7
 10
105.82549636428421
 20
122.83313648120777
 11
341.75252553578969
 21
229.00031012457771
  0
LINE
  8
_1-0_
  6
DASHED1
 62
    7
 10
105.53273793813345
 20
122.70137477565457
 11
105.82549636428421
 21
122.83313648120777
  0
LINE
  8
_1-2_
  6
CONTINUOUS
 62
    7
 10
111.90979416305954
 20
108.53011260161529
 11
105.3439660974451
 21
123.12087187895905
  0
LINE
  8
_1-2_
  6
CONTINUOUS
 62
    7
 10
113.55124808646538
 20
104.88242896827492
 11
112.63932099213471
 21
104.47206239442568
  0
LINE
  8
_1-2_
  6
CONTINUOUS
 62
    3
 10
275.76945536845443
 20
219.80606491501268
 11
334.71348118137672
 21
239.0311741184544
  0
LINE
  8
_1-3_
  6
CONTINUOUS
 62
    3
 10
225.10889826594175
 20
193.80284902211784
 11
287.99864897856844
 21
214.31490511507602
  0
ARC
  8
_1-2_
  6
CONTINUOUS
 62
    3
 10
73.365579553552578
 20
120.82372716955237
 40
0.9999999162313101
 50
110.9971923828125
 51
178.43196105957031
  0
ARC
  8
_1-2_
  6
CONTINUOUS
 62
    3
 10
124.4932102512669
 20
144.78560164168076
 40
6.01062568458351
 50
107.70916748046875
 51
141.92730712890625
  0
ARC
  8
_1-2_
  6
CONTINUOUS
 62
    3
 10
123.404821447424
 20
146.54211508261193
 40
0.9999999162313101
 50
108.39320373535156
 51
175.82797241210937
  0
ARC
  8
_1-2_
  6
CONTINUOUS
 62
    3
 10
175.4296875
 20
168.10898239548143
 40
6.01062568458351
 50
107.38015747070314
 51
141.59829711914062
  0
ARC
  8
_1-2_
  6
CONTINUOUS
 62
    3
 10
174.35139424092063
 20
169.87170657596073
 40
0.9999999162313101
 50
108.06419372558594
 51
175.49896240234378
  0
ARC
  8
_1-2_
  6
CONTINUOUS
 62
    3
 10
226.49728311074747
 20
191.08941155510982
 40
6.01062568458351
 50
107.38015747070314
 51
141.59829711914062
  0
ARC
  8
_1-2_
  6
CONTINUOUS
 62
    3
 10
225.41898985166807
 20
192.85213573558912
 40
0.9999999162313101
 50
108.06419372558594
 51
175.49896240234378
  0
ARC
  8
_1-2_
  6
CONTINUOUS
 62
    3
 10
277.56487872149495
 20
214.06984071473818
 40
6.01062568458351
 50
107.38015747070314
 51
141.59829711914062
  0
ARC
  8
_1-2_
  6
CONTINUOUS
 62
    3
 10
276.48658546241558
 20
215.83255252322635
 40
0.9999999162313101
 50
108.06419372558594
 51
175.49896240234378
  0
ARC
  8
_1-2_
  6
CONTINUOUS
 62
    3
 10
74.532654220993464
 20
119.11848325987121
 40
6.01062568458351
 50
110.31315612792969
 51
144.53143310546875
  0
ARC
  8
_1-0_
  6
CONTINUOUS
 62
    3
 10
97.547032124287384
 20
118.51564561998522
 40
0.9999999162313101
 50
114.22779846191406
 51
204.22779846191406
  0
ARC
  8
_1-0_
  6
CONTINUOUS
 62
    3
 10
98.07595948915224
 20
118.31503378378379
 40
0.9999999162313101
 50
114.22779846191406
 51
204.22779846191406
  0
ARC
  8
_1-0_
  6
CONTINUOUS
 62
    3
 10
104.64173188080659
 20
121.26965084591428
 40
0.9999999162313101
 50
24.227798461914063
 51
114.22779846191406
  0
ARC
  8
_1-0_
  6
CONTINUOUS
 62
    3
 10
104.84236846099029
 20
121.79856583878801
 40
0.9999999162313101
 50
24.227798461914063
 51
114.22779846191406
  0
ARC
  8
_1-0_
  6
CONTINUOUS
 62
    3
 10
111.70002705342061
 20
105.58460132495777
 40
0.9999999162313101
 50
294.22779846191406
 51
24.227798461914059
  0
ARC
  8
_1-0_
  6
CONTINUOUS
 62
    3
 10
112.22895441828548
 20
105.38398948875634
 40
0.9999999162313101
 50
294.22779846191406
 51
24.227798461914059
  0
ARC
  8
_1-0_
  6
CONTINUOUS
 62
    3
 10
105.13423610377957
 20
102.62999044882285
 40
0.9999999162313101
 50
204.22779846191406
 51
294.22779846191406
  0
ARC
  8
_1-0_
  6
CONTINUOUS
 62
    3
 10
104.93359952359587
 20
102.10106926995356
 40
0.9999999162313101
 50
204.22779846191406
 51
294.22779846191406
  0
ARC
  8
_1-0_
  6
CONTINUOUS
 62
    3
 10
282.68094449429901
 20
127.47743348817568
 40
0.599999959404404
 50
24.22772216796875
 51
114.22772216796875
  0
ARC
  8
_1-0_
  6
CONTINUOUS
 62
    3
 10
263.14759950380068
 20
170.88489841770482
 40
0.599999959404404
 50
294.22772216796875
 51
24.22772216796875
  0
ARC
  8
_1-0_
  6
CONTINUOUS
 62
    3
 10
254.27915830869935
 20
165.24922138935813
 40
0.899999914942561
 50
114.22772216796875
 51
204.22772216796875
  0
ARC
  8
_1-0_
  6
CONTINUOUS
 62
    3
 10
272.58141594964104
 20
124.57752537082982
 40
0.899999914942561
 50
204.22772216796875
 51
294.22772216796875
  0
ARC
  8
_1-0_
  6
CONTINUOUS
 62
    3
 10
260.97723058752115
 20
117.71076099292652
 40
0.599999959404404
 50
114.22772216796878
 51
204.22772216796878
  0
ARC
  8
_1-0_
  6
CONTINUOUS
 62
    3
 10
241.44388559702281
 20
161.11822592245568
 40
0.599999959404404
 50
204.22772216796878
 51
294.22772216796875
  0
ARC
  8
_1-0_
  6
CONTINUOUS
 62
    3
 10
251.54341414168076
 20
164.01813403980154
 40
0.899999914942561
 50
24.227722167968775
 51
114.22772216796878
  0
ARC
  8
_1-0_
  6
CONTINUOUS
 62
    3
 10
269.8456717826225
 20
123.34645039326436
 40
0.899999914942561
 50
294.22772216796875
 51
24.227722167968775
  0
ARC
  8
_1-0_
  6
CONTINUOUS
 62
    7
 10
225.01484638935813
 20
146.19230940535263
 40
5.0333969013111011
 50
102.96434020996095
 51
252.45458984375
  0
ARC
  8
_1-0_
  6
CONTINUOUS
 62
    7
 10
223.49747116501268
 20
137.5685738228463
 40
3.8245033573459937
 50
281.71195983886719
 51
90.000000000000028
  0
TEXT
  8
_0-0_
 62
    7
 10
147.56756962956609
 20
22.702702702702709
 40
2.5
 41
1
 50
0
  1
図名
  0
TEXT
  8
_0-0_
 62
    7
 10
147.56756962956609
 20
12.972972972972968
 40
2.5
 41
1
 50
0
  1
縮尺
  0
TEXT
  8
_0-0_
 62
    7
 10
382.77784605284
 20
21.243871740392734
 40
2.5
 41
1
 50
0
  1
ＮＯ
  0
TEXT
  8
_0-0_
 62
    7
 10
20.270270012520456
 20
22.702702702702709
 40
2.5
 41
1
 50
0
  1
Ｆ形
  0
TEXT
  8
_0-0_
 62
    7
 10
389.99062615471917
 20
16.178650211643514
 40
2.5
 41
1
 50
0
  1
Ｆ
  0
TEXT
  8
_0-0_
 62
    7
 10
45.397583729511979
 20
13.77361400707349
 40
2.5
 41
1
 50
0
  1
軒先　1
  0
TEXT
  8
_0-0_
 62
    7
 10
171.37221877639359
 20
12.362518826046511
 40
2.5
 41
1
 50
0
  1
1/5
  0
TEXT
  8
_1-4_
 62
    7
 10
31.231869362496042
 20
18.589955922719582
 40
2.5
 41
1
 50
0
  1
Ｓ
  0
TEXT
  8
_1-4_
 62
    7
 10
401.57363066802156
 20
12.845405372413438
 40
2.5
 41
1
 50
0
  1
27
  0
TEXT
  8
_1-4_
 62
    7
 10
73.433006212156243
 20
175.77047368384564
 40
2.5
 41
1
 50
24.227719460851677
  1
280
  0
TEXT
  8
_1-4_
 62
    7
 10
124.55638094492126
 20
198.77599324148923
 40
2.5
 41
1
 50
24.227719460851628
  1
280
  0
TEXT
  8
_1-4_
 62
    7
 10
175.64522880709885
 20
221.76598467704514
 40
2.5
 41
1
 50
24.227969413213451
  1
280
  0
TEXT
  8
_1-4_
 62
    7
 10
226.71621434341642
 20
244.74794796357384
 40
2.5
 41
1
 50
24.227969413213476
  1
280
  0
TEXT
  8
_1-4_
 62
    7
 10
62.475196615116744
 20
152.63674367188372
 40
2.5
 41
1
 50
24.227700068058738
  1
80
  0
TEXT
  8
_1-4_
 62
    7
 10
87.476985341432041
 20
163.88755973351837
 40
2.5
 41
1
 50
24.227719460851652
  1
200
  0
TEXT
  8
_0-1_
 62
    7
 10
183.87701292295714
 20
202.11651776288008
 40
2.5
 41
1
 50
0
  1
桟瓦
  0
TEXT
  8
_0-1_
 62
    7
 10
323.87021863782729
 20
163.50125699429898
 40
2.5
 41
1
 50
0
  1
瓦桟
  0
TEXT
  8
_0-1_
 62
    7
 10
323.87022276182432
 20
142.09303572371201
 40
2.5
 41
1
 50
0
  1
野地板
  0
TEXT
  8
_1-3_
 62
    7
 10
338.25194900100297
 20
135.47191722972974
 40
2.5
 41
1
 50
0
  1
Ｃ－100ｘ50ｘ20ｘ3.2
  0
TEXT
  8
_1-3_
 62
    7
 10
126.62249590899494
 20
57.062771771405195
 40
2.5
 41
1
 50
0
  1
ＡＬＣ板
  0
TEXT
  8
_1-3_
 62
    7
 10
174.46033374683276
 20
94.360069068702501
 40
2.5
 41
1
 50
0
  1
ＡＬＣ板
  0
TEXT
  8
_1-3_
 62
    7
 10
338.25194900100297
 20
142.09303572371201
 40
2.5
 41
1
 50
0
  1
硬質木片セメント板　ｔ＝18
  0
TEXT
  8
_1-3_
 62
    7
 10
337.5052457242399
 20
160.22303813212628
 40
2.5
 41
1
 50
0
  1
※　地域により瓦桟木の大きさは、異なります
  0
TEXT
  8
_1-3_
 62
    7
 10
337.03046231656464
 20
163.6476300213788
 40
2.5
 41
1
 50
0
  1
15×21　（防腐処理）
  0
TEXT
  8
_1-3_
 62
    7
 10
367.17189891918287
 20
135.56975493559966
 40
2.5
 41
1
 50
0
  1
＠606
  0
TEXT
  8
_1-3_
 62
    3
 10
271.49750580658787
 20
49.964227418641798
 40
3
 41
1
 50
0
  1
＊　耐火仕様では有りません
  0
POINT
  8
_1-4_
 62
    7
 10
49.776299966348176
 20
164.57665520745357
  0
POINT
  8
_1-4_
 62
    7
 10
100.91978537069785
 20
187.59123106260557
  0
POINT
  8
_1-4_
 62
    7
 10
152.0230432458826
 20
210.587719066723
  0
POINT
  8
_1-4_
 62
    7
 10
203.09744345175255
 20
233.57121648015203
  0
POINT
  8
_1-4_
 62
    7
 10
254.16506380648227
 20
256.55164563978042
  0
POINT
  8
_1-4_
 62
    7
 10
56.588126517630911
 20
149.43926424593539
  0
POINT
  8
_1-4_
 62
    7
 10
71.052431673616979
 20
155.94820589632602
  0
POINT
  8
_1-4_
 62
    7
 10
107.73161192198059
 20
172.45384010108742
  0
TEXT
  8
_0-1_
 62
    7
 10
323.87022276182432
 20
155.99734744510135
 40
2.5
 41
1
 50
0
  1
縦桟
  0
TEXT
  8
_0-1_
 62
    7
 10
323.87022688582135
 20
148.71412947371201
 40
2.5
 41
1
 50
0
  1
ルーフィング
  0
TEXT
  8
_0-1_
 62
    7
 10
323.87021863782729
 20
135.47191722972974
 40
2.5
 41
1
 50
0
  1
たる木
  0
ENDSEC
  0
EOF
