  0
SECTION
  2
HEADER
  9
$ACADVER
  1
AC1009
  9
$INSBASE
 10
0
 20
0
 30
0
  9
$EXTMIN
 10
0
 20
0
  9
$EXTMAX
 10
420
 20
297
  9
$LIMMIN
 10
0
 20
0
  9
$LIMMAX
 10
420
 20
297
  9
$LTSCALE
 40
1
  0
ENDSEC
  0
SECTION
  2
TABLES
  0
TABLE
  2
LTYPE
 70
     9
  0
LTYPE
  2
CONTINUOUS
 70
    64
  3
実線
 72
    65
 73
     0
 40
0.0
  0
LTYPE
  2
DASHED1
 70
    64
  3
--  --  --  --  --  --  --  --  
 72
    65
 73
     2
 40
2.5
 49
1.25
 49
-1.25
  0
LTYPE
  2
DASHED2
 70
    64
  3
----    ----    ----    ----    
 72
    65
 73
     2
 40
5.0
 49
2.5
 49
-2.5
  0
LTYPE
  2
DASHED3
 70
    64
  3
------  ------  ------  ------  
 72
    65
 73
     2
 40
5.0
 49
3.75
 49
-1.25
  0
LTYPE
  2
CENTER1
 70
    64
  3
----- - ----- - ----- - ----- - 
 72
    65
 73
     4
 40
10.0
 49
6.25
 49
-1.25
 49
1.25
 49
-1.25
  0
LTYPE
  2
CENTER2
 70
    64
  3
----------  --  ----------  --  
 72
    65
 73
     4
 40
20.0
 49
12.5
 49
-2.5
 49
2.5
 49
-2.5
  0
LTYPE
  2
PHANTOM1
 70
    64
  3
--- - - --- - - --- - - --- - - 
 72
    65
 73
     6
 40
10.0
 49
3.25
 49
-1.25
 49
1.25
 49
-1.25
 49
1.25
 49
-1.25
  0
LTYPE
  2
PHANTOM2
 70
    64
  3
--------  -  -  --------  -  -  
 72
    65
 73
     6
 40
20.0
 49
10.0
 49
-2.5
 49
1.25
 49
-2.5
 49
1.25
 49
-2.5
  0
LTYPE
  2
DOT
 70
    64
  3
-   -   -   -   -   -   -   -   
 72
    65
 73
     2
 40
2.5
 49
0.625
 49
-1.875
  0
LTYPE
  2
DUMMY
 70
    64
  3
ダミー
 72
    65
 73
     0
 40
0.0
  0
LTYPE
  2
RAND1
 70
    64
  3
ランダム線1
 72
    65
 73
     4
 40
10.0
 49
1.0
 49
-2.0
 49
3.0
 49
-4.0
  0
LTYPE
  2
RAND2
 70
    64
  3
ランダム線2
 72
    65
 73
     4
 40
14.0
 49
2.0
 49
-3.0
 49
4.0
 49
-5.0
  0
LTYPE
  2
RAND3
 70
    64
  3
ランダム線3
 72
    65
 73
     4
 40
18.0
 49
3.0
 49
-4.0
 49
5.0
 49
-6.0
  0
LTYPE
  2
RAND4
 70
    64
  3
ランダム線4
 72
    65
 73
     4
 40
22.0
 49
4.0
 49
-5.0
 49
6.0
 49
-7.0
  0
LTYPE
  2
RAND5
 70
    64
  3
ランダム線5
 72
    65
 73
     4
 40
26.0
 49
5.0
 49
-6.0
 49
7.0
 49
-8.0
  0
LTYPE
  2
LONG1
 70
    64
  3
----------  --  ----------  --  
 72
    65
 73
     4
 40
40.0
 49
32.5
 49
-2.5
 49
2.5
 49
-2.5
  0
LTYPE
  2
LONG2
 70
    64
  3
--------  -  -  --------  -  -  
 72
    65
 73
     6
 40
40.0
 49
30.0
 49
-2.5
 49
1.25
 49
-2.5
 49
1.25
 49
-2.5
  0
LTYPE
  2
LONG3
 70
    64
  3
+++++++++++++++..+++++++++++++++
 72
    65
 73
     2
 40
40.0
 49
37.5
 49
-2.5
  0
LTYPE
  2
LONG4
 70
    64
  3
+++++++++++++++..+++++++++++++++
 72
    65
 73
     2
 40
80.0
 49
75.0
 49
-5.0
  0
LTYPE
  2
LONG5
 70
    64
  3
----------  --  ----------  --  
 72
    65
 73
     4
 40
60.0
 49
37.5
 49
-7.5
 49
7.5
 49
-7.5
  0
LTYPE
  2
dashed
 70
   64
  3
-------   -------------   ------
 72
   65
 73
    2
 40
7.5
 49
6
 49
-1.5
  0
LTYPE
  2
dashed_spaced
 70
   64
  3
----        --------        ----
 72
   65
 73
    2
 40
12
 49
6
 49
-6
  0
LTYPE
  2
long_dashed_dotted
 70
   64
  3
------------- --- --------------
 72
   65
 73
    4
 40
15.25
 49
12
 49
-1.5
 49
0.25
 49
-1.5
  0
LTYPE
  2
long_dashed_double-dotted
 70
   64
  3
----------- --- --- ------------
 72
   65
 73
    6
 40
17
 49
12
 49
-1.5
 49
0.25
 49
-1.5
 49
0.25
 49
-1.5
  0
LTYPE
  2
long_dashed_triplicate-dotted
 70
   64
  3
--------- --- --- --- ----------
 72
   65
 73
    8
 40
18.75
 49
12
 49
-1.5
 49
0.25
 49
-1.5
 49
0.25
 49
-1.5
 49
0.25
 49
-1.5
  0
LTYPE
  2
dotted
 70
   64
  3
   -       -       -       -    
 72
   65
 73
    2
 40
1.75
 49
0.25
 49
-1.5
  0
LTYPE
  2
chain
 70
   64
  3
-------------- -- --------------
 72
   65
 73
    4
 40
18.5
 49
12
 49
-1.5
 49
3.5
 49
-1.5
  0
LTYPE
  2
chain_double_dash
 70
   64
  3
------------ -- -- -------------
 72
   65
 73
    6
 40
23.5
 49
12
 49
-1.5
 49
3.5
 49
-1.5
 49
3.5
 49
-1.5
  0
LTYPE
  2
dashed_dotted
 70
   64
  3
-----------     -     ----------
 72
   65
 73
    4
 40
9.25
 49
6
 49
-1.5
 49
0.25
 49
-1.5
  0
LTYPE
  2
double-dashed_dotted
 70
   64
  3
------   -----------   -   -----
 72
   65
 73
    6
 40
16.75
 49
6
 49
-1.5
 49
6
 49
-1.5
 49
0.25
 49
-1.5
  0
LTYPE
  2
dashed_double-dotted
 70
   64
  3
---------    -    -    ---------
 72
   65
 73
    6
 40
11
 49
6
 49
-1.5
 49
0.25
 49
-1.5
 49
0.25
 49
-1.5
  0
LTYPE
  2
double-dashed_double-dotted
 70
   64
  3
-----   ---------   -   -   ----
 72
   65
 73
    8
 40
18.5
 49
6
 49
-1.5
 49
6
 49
-1.5
 49
0.25
 49
-1.5
 49
0.25
 49
-1.5
  0
LTYPE
  2
dashed_triplicate-dotted
 70
   64
  3
-------    -    -    -    ------
 72
   65
 73
    8
 40
12.75
 49
6
 49
-1.5
 49
0.25
 49
-1.5
 49
0.25
 49
-1.5
 49
0.25
 49
-1.5
  0
LTYPE
  2
double-dashed_triplicate-dotted
 70
   64
  3
-----  ---------  -  -  -  -----
 72
   65
 73
   10
 40
20.25
 49
6
 49
-1.5
 49
6
 49
-1.5
 49
0.25
 49
-1.5
 49
0.25
 49
-1.5
 49
0.25
 49
-1.5
  0
LTYPE
  2
undefined
 70
   64
  3
--------------------------------
 72
   65
 73
    0
 40
0
  0
ENDTAB
  0
TABLE
  2
STYLE
  5
3
100
AcDbSymbolTable
 70
     1
  0
STYLE
  5
10
100
AcDbSymbolTableRecord
100
AcDbTextStyleTableRecord
  2
STANDARD
 70
     0
 40
0.0
 41
1.0
 50
0.0
 71
     0
 42
0.2
  3
txt
  4
bigfont.shx
  0
STYLE
  5
26
100
AcDbSymbolTableRecord
100
AcDbTextStyleTableRecord
  2
TATEGAKI
 70
    68
 40
0.0
 41
1.0
 50
0.0
 71
     0
 42
1.0
  3
txt
  4
bigfont.shx
  0
ENDTAB
  0
TABLE
  2
LAYER
 70
    7
  0
LAYER
  2
_0-0_
 70
   64
 62
    7
  6
CONTINUOUS
  0
LAYER
  2
_0-1_
 70
   64
 62
    7
  6
CONTINUOUS
  0
LAYER
  2
_1-0_
 70
   64
 62
    7
  6
CONTINUOUS
  0
LAYER
  2
_1-1_
 70
   64
 62
    7
  6
CONTINUOUS
  0
LAYER
  2
_1-2_
 70
   64
 62
    7
  6
CONTINUOUS
  0
LAYER
  2
_1-3_
 70
   64
 62
    7
  6
CONTINUOUS
  0
LAYER
  2
ADD_LINE
 70
   64
 62
    7
  6
CONTINUOUS
  0
ENDTAB
  0
ENDSEC
  0
SECTION
  2
BLOCKS
  0
ENDSEC
  0
SECTION
  2
ENTITIES
  0
LINE
  8
_0-0_
  6
CONTINUOUS
 62
    5
 10
12.432428308435391
 20
278.51351351351354
 11
412.43244892842063
 21
278.51351351351354
  0
LINE
  8
_0-0_
  6
CONTINUOUS
 62
    5
 10
412.43244892842063
 20
8.5135135135135158
 11
12.432428308435391
 21
8.5135135135135158
  0
LINE
  8
_0-0_
  6
CONTINUOUS
 62
    5
 10
412.43244892842063
 20
28.513511451515001
 11
12.432415936444272
 21
28.513511451515001
  0
LINE
  8
_0-0_
  6
CONTINUOUS
 62
    5
 10
377.43248192039698
 20
8.5135135135135158
 11
377.43248192039698
 21
28.513511451515001
  0
LINE
  8
_0-0_
  6
CONTINUOUS
 62
    5
 10
142.70271507469386
 20
28.513511451515001
 11
142.70271507469386
 21
8.5135135135135158
  0
LINE
  8
_0-0_
  6
CONTINUOUS
 62
    5
 10
220.54054054054055
 20
28.513511451515001
 11
220.54054054054055
 21
8.5135135135135158
  0
LINE
  8
_0-0_
  6
CONTINUOUS
 62
    5
 10
142.70271507469386
 20
18.513512482514244
 11
220.54054054054055
 21
18.513512482514244
  0
LINE
  8
_0-0_
  6
CONTINUOUS
 62
    5
 10
402.16218690614443
 20
24.324325870823216
 11
389.59456985061234
 21
11.756758303255651
  0
LINE
  8
_1-0_
  6
CONTINUOUS
 62
    7
 10
71.999990102407082
 20
167.05945401578336
 11
71.999990102407082
 21
155.05945154138513
  0
LINE
  8
_1-0_
  6
CONTINUOUS
 62
    7
 10
120.59999208192568
 20
155.05945154138513
 11
120.59999208192568
 21
167.05945401578336
  0
LINE
  8
_1-0_
  6
CONTINUOUS
 62
    7
 10
120.59999208192568
 20
167.05945401578336
 11
132.59998218433279
 21
167.05945401578336
  0
LINE
  8
_1-0_
  6
CONTINUOUS
 62
    7
 10
132.59998218433279
 20
167.05945401578336
 11
132.59998218433279
 21
155.05945154138513
  0
LINE
  8
_1-0_
  6
CONTINUOUS
 62
    7
 10
132.59998218433279
 20
155.05945154138513
 11
120.59999208192568
 21
155.05945154138513
  0
LINE
  8
_1-0_
  6
CONTINUOUS
 62
    7
 10
132.59998218433279
 20
167.05945401578336
 11
120.59999208192568
 21
155.05945154138513
  0
LINE
  8
_1-0_
  6
CONTINUOUS
 62
    7
 10
181.19998416385135
 20
155.05945154138513
 11
181.19998416385135
 21
167.05945401578336
  0
LINE
  8
_1-0_
  6
CONTINUOUS
 62
    7
 10
181.19998416385135
 20
167.05945401578336
 11
193.19997426625847
 21
167.05945401578336
  0
LINE
  8
_1-0_
  6
CONTINUOUS
 62
    7
 10
193.19997426625847
 20
167.05945401578336
 11
193.19997426625847
 21
155.05945154138513
  0
LINE
  8
_1-0_
  6
CONTINUOUS
 62
    7
 10
193.19997426625847
 20
155.05945154138513
 11
181.19998416385135
 21
155.05945154138513
  0
LINE
  8
_1-0_
  6
CONTINUOUS
 62
    7
 10
193.19997426625847
 20
167.05945401578336
 11
181.19998416385135
 21
155.05945154138513
  0
LINE
  8
_1-0_
  6
CONTINUOUS
 62
    7
 10
241.79997624577703
 20
155.05945154138513
 11
241.79997624577703
 21
167.05945401578336
  0
LINE
  8
_1-0_
  6
CONTINUOUS
 62
    7
 10
241.79997624577703
 20
167.05945401578336
 11
253.79996634818414
 21
167.05945401578336
  0
LINE
  8
_1-0_
  6
CONTINUOUS
 62
    7
 10
253.79996634818414
 20
167.05945401578336
 11
253.79996634818414
 21
155.05945154138513
  0
LINE
  8
_1-0_
  6
CONTINUOUS
 62
    7
 10
253.79996634818414
 20
155.05945154138513
 11
241.79997624577703
 21
155.05945154138513
  0
LINE
  8
_1-0_
  6
CONTINUOUS
 62
    7
 10
253.79996634818414
 20
167.05945401578336
 11
241.79997624577703
 21
155.05945154138513
  0
LINE
  8
_1-0_
  6
CONTINUOUS
 62
    7
 10
302.39996832770271
 20
167.05945401578336
 11
314.39995843010979
 21
167.05945401578336
  0
LINE
  8
_1-0_
  6
CONTINUOUS
 62
    7
 10
314.39995843010979
 20
155.05945154138513
 11
302.39996832770271
 21
155.05945154138513
  0
LINE
  8
_1-0_
  6
CONTINUOUS
 62
    7
 10
66.600011877111484
 20
171.2594728212099
 11
66.600011877111484
 21
170.65946836729307
  0
LINE
  8
_1-0_
  6
CONTINUOUS
 62
    7
 10
66.600011877111484
 20
170.65946836729307
 11
66.600011877111484
 21
171.2594728212099
  0
LINE
  8
_1-0_
  6
CONTINUOUS
 62
    7
 10
66.600011877111484
 20
171.2594728212099
 11
71.399998020481405
 21
171.2594728212099
  0
LINE
  8
_1-0_
  6
CONTINUOUS
 62
    7
 10
71.399998020481405
 20
171.2594728212099
 11
71.399998020481405
 21
170.65946836729307
  0
LINE
  8
_1-0_
  6
CONTINUOUS
 62
    7
 10
71.399998020481405
 20
170.65946836729307
 11
66.600011877111484
 21
170.65946836729307
  0
LINE
  8
_1-0_
  6
CONTINUOUS
 62
    7
 10
66.600011877111484
 20
171.2594728212099
 11
71.399998020481405
 21
170.65946836729307
  0
LINE
  8
_1-0_
  6
CONTINUOUS
 62
    7
 10
127.20000395903718
 20
170.65946836729307
 11
127.20000395903718
 21
171.2594728212099
  0
LINE
  8
_1-0_
  6
CONTINUOUS
 62
    7
 10
127.20000395903718
 20
171.2594728212099
 11
131.99999010240711
 21
171.2594728212099
  0
LINE
  8
_1-0_
  6
CONTINUOUS
 62
    7
 10
131.99999010240711
 20
171.2594728212099
 11
131.99999010240711
 21
170.65946836729307
  0
LINE
  8
_1-0_
  6
CONTINUOUS
 62
    7
 10
131.99999010240711
 20
170.65946836729307
 11
127.20000395903718
 21
170.65946836729307
  0
LINE
  8
_1-0_
  6
CONTINUOUS
 62
    7
 10
127.20000395903718
 20
171.2594728212099
 11
131.99999010240711
 21
170.65946836729307
  0
LINE
  8
_1-0_
  6
CONTINUOUS
 62
    7
 10
187.79999604096284
 20
170.65946836729307
 11
187.79999604096284
 21
171.2594728212099
  0
LINE
  8
_1-0_
  6
CONTINUOUS
 62
    7
 10
187.79999604096284
 20
171.2594728212099
 11
192.59998218433279
 21
171.2594728212099
  0
LINE
  8
_1-0_
  6
CONTINUOUS
 62
    7
 10
192.59998218433279
 20
171.2594728212099
 11
192.59998218433279
 21
170.65946836729307
  0
LINE
  8
_1-0_
  6
CONTINUOUS
 62
    7
 10
192.59998218433279
 20
170.65946836729307
 11
187.79999604096284
 21
170.65946836729307
  0
LINE
  8
_1-0_
  6
CONTINUOUS
 62
    7
 10
187.79999604096284
 20
171.2594728212099
 11
192.59998218433279
 21
170.65946836729307
  0
LINE
  8
_1-0_
  6
CONTINUOUS
 62
    7
 10
248.39998812288852
 20
170.65946836729307
 11
248.39998812288852
 21
171.2594728212099
  0
LINE
  8
_1-0_
  6
CONTINUOUS
 62
    7
 10
248.39998812288852
 20
171.2594728212099
 11
253.19997426625847
 21
171.2594728212099
  0
LINE
  8
_1-0_
  6
CONTINUOUS
 62
    7
 10
253.19997426625847
 20
171.2594728212099
 11
253.19997426625847
 21
170.65946836729307
  0
LINE
  8
_1-0_
  6
CONTINUOUS
 62
    7
 10
253.19997426625847
 20
170.65946836729307
 11
248.39998812288852
 21
170.65946836729307
  0
LINE
  8
_1-0_
  6
CONTINUOUS
 62
    7
 10
248.39998812288852
 20
171.2594728212099
 11
253.19997426625847
 21
170.65946836729307
  0
LINE
  8
_1-1_
  6
CONTINUOUS
 62
    3
 10
68.799999340160468
 20
179.85947892472552
 11
68.799999340160468
 21
176.25947694520693
  0
LINE
  8
_1-1_
  6
CONTINUOUS
 62
    3
 10
129.99998350401182
 20
179.85947892472552
 11
129.99998350401182
 21
177.45947348104943
  0
LINE
  8
_1-1_
  6
CONTINUOUS
 62
    3
 10
68.799999340160468
 20
179.85947892472552
 11
70.000008247994089
 21
179.85947892472552
  0
LINE
  8
_1-1_
  6
CONTINUOUS
 62
    3
 10
120.13777449324326
 20
179.85947892472552
 11
129.99998350401182
 21
179.85947892472552
  0
LINE
  8
_1-1_
  6
CONTINUOUS
 62
    3
 10
121.99998185441301
 20
177.45947348104943
 11
118.9999719568201
 21
174.25947034681167
  0
LINE
  8
_1-1_
  6
CONTINUOUS
 62
    3
 10
128.39998812288852
 20
177.45947348104943
 11
128.39998812288852
 21
177.05947463576859
  0
LINE
  8
_1-1_
  6
CONTINUOUS
 62
    3
 10
127.59999043232686
 20
177.45947348104943
 11
127.59999043232686
 21
177.05947463576859
  0
LINE
  8
_1-1_
  6
CONTINUOUS
 62
    3
 10
125.99999505120356
 20
177.45947348104943
 11
125.99999505120356
 21
177.05947463576859
  0
LINE
  8
_1-1_
  6
CONTINUOUS
 62
    3
 10
125.1999973606419
 20
177.45947348104943
 11
125.1999973606419
 21
177.05947463576859
  0
LINE
  8
_1-1_
  6
CONTINUOUS
 62
    3
 10
121.99998185441301
 20
177.45947348104943
 11
125.1999973606419
 21
177.45947348104943
  0
LINE
  8
_1-1_
  6
CONTINUOUS
 62
    3
 10
125.99999505120356
 20
177.45947348104943
 11
127.59999043232686
 21
177.45947348104943
  0
LINE
  8
_1-1_
  6
CONTINUOUS
 62
    3
 10
128.39998812288852
 20
177.45947348104943
 11
129.99998350401182
 21
177.45947348104943
  0
LINE
  8
_1-1_
  6
CONTINUOUS
 62
    3
 10
125.1999973606419
 20
177.05947463576859
 11
125.99999505120356
 21
177.05947463576859
  0
LINE
  8
_1-1_
  6
CONTINUOUS
 62
    3
 10
127.59999043232686
 20
177.05947463576859
 11
128.39998812288852
 21
177.05947463576859
  0
LINE
  8
_1-1_
  6
CONTINUOUS
 62
    3
 10
73.600010227512655
 20
177.25946787241344
 11
117.3999765756968
 21
177.25946787241344
  0
LINE
  8
ADD_LINE
  6
DOT
 62
    3
 10
69.000004948796459
 20
174.71588547165331
 11
69.000004948796459
 21
173.89319754935602
  0
LINE
  8
_1-1_
  6
CONTINUOUS
 62
    3
 10
122.199987463049
 20
176.8594690271326
 11
122.199987463049
 21
174.25947034681167
  0
LINE
  8
_1-1_
  6
CONTINUOUS
 62
    3
 10
129.99998350401182
 20
179.85947892472552
 11
129.99998350401182
 21
176.25947694520693
  0
LINE
  8
_1-1_
  6
CONTINUOUS
 62
    3
 10
191.19996766786318
 20
179.85947892472552
 11
191.19996766786318
 21
177.45947348104943
  0
LINE
  8
_1-1_
  6
CONTINUOUS
 62
    3
 10
122.199987463049
 20
174.25947034681167
 11
180.19996849266261
 21
174.25947034681167
  0
LINE
  8
_1-1_
  6
CONTINUOUS
 62
    3
 10
129.99998350401182
 20
179.85947892472552
 11
131.20001715582771
 21
179.85947892472552
  0
LINE
  8
_1-1_
  6
CONTINUOUS
 62
    3
 10
181.33777102908573
 20
179.85947892472552
 11
191.19996766786318
 21
179.85947892472552
  0
LINE
  8
_1-1_
  6
CONTINUOUS
 62
    3
 10
183.19996601826438
 20
177.45947348104943
 11
180.19996849266261
 21
174.25947034681167
  0
LINE
  8
_1-1_
  6
CONTINUOUS
 62
    3
 10
189.59997228673987
 20
177.45947348104943
 11
189.59997228673987
 21
177.05947463576859
  0
LINE
  8
_1-1_
  6
CONTINUOUS
 62
    3
 10
188.79997459617823
 20
177.45947348104943
 11
188.79997459617823
 21
177.05947463576859
  0
LINE
  8
_1-1_
  6
CONTINUOUS
 62
    3
 10
187.1999792150549
 20
177.45947348104943
 11
187.1999792150549
 21
177.05947463576859
  0
LINE
  8
_1-1_
  6
CONTINUOUS
 62
    3
 10
186.39998152449326
 20
177.45947348104943
 11
186.39998152449326
 21
177.05947463576859
  0
LINE
  8
_1-1_
  6
CONTINUOUS
 62
    3
 10
183.19996601826438
 20
177.45947348104943
 11
186.39998152449326
 21
177.45947348104943
  0
LINE
  8
_1-1_
  6
CONTINUOUS
 62
    3
 10
187.1999792150549
 20
177.45947348104943
 11
188.79997459617823
 21
177.45947348104943
  0
LINE
  8
_1-1_
  6
CONTINUOUS
 62
    3
 10
189.59997228673987
 20
177.45947348104943
 11
191.19996766786318
 21
177.45947348104943
  0
LINE
  8
_1-1_
  6
CONTINUOUS
 62
    3
 10
186.39998152449326
 20
177.05947463576859
 11
187.1999792150549
 21
177.05947463576859
  0
LINE
  8
_1-1_
  6
CONTINUOUS
 62
    3
 10
188.79997459617823
 20
177.05947463576859
 11
189.59997228673987
 21
177.05947463576859
  0
LINE
  8
_1-1_
  6
CONTINUOUS
 62
    3
 10
134.79999439136404
 20
177.25946787241344
 11
178.59996073954815
 21
177.25946787241344
  0
LINE
  8
_1-1_
  6
CONTINUOUS
 62
    3
 10
123.39997162690034
 20
176.8594690271326
 11
123.68405728726775
 21
176.25947694520693
  0
LINE
  8
_1-1_
  6
CONTINUOUS
 62
    3
 10
122.199987463049
 20
176.8594690271326
 11
123.39997162690034
 21
176.8594690271326
  0
LINE
  8
_1-1_
  6
CONTINUOUS
 62
    3
 10
123.68405728726775
 20
176.25947694520693
 11
129.99998350401182
 21
176.25947694520693
  0
LINE
  8
_1-1_
  6
CONTINUOUS
 62
    3
 10
183.39998399889149
 20
176.8594690271326
 11
183.39998399889149
 21
174.25947034681167
  0
LINE
  8
_1-1_
  6
CONTINUOUS
 62
    3
 10
191.19996766786318
 20
179.85947892472552
 11
191.19996766786318
 21
176.25947694520693
  0
LINE
  8
_1-1_
  6
CONTINUOUS
 62
    3
 10
252.39995183171453
 20
179.85947892472552
 11
252.39995183171453
 21
177.45947348104943
  0
LINE
  8
_1-0_
  6
CONTINUOUS
 62
    3
 10
183.39998399889149
 20
174.25947034681167
 11
241.39996502850508
 21
174.25947034681167
  0
LINE
  8
_1-1_
  6
CONTINUOUS
 62
    3
 10
191.19996766786318
 20
179.85947892472552
 11
192.40000131967906
 21
179.85947892472552
  0
LINE
  8
_1-1_
  6
CONTINUOUS
 62
    3
 10
242.53776756492823
 20
179.85947892472552
 11
252.39995183171453
 21
179.85947892472552
  0
LINE
  8
_1-1_
  6
CONTINUOUS
 62
    3
 10
244.399974926098
 20
177.45947348104943
 11
241.39996502850508
 21
174.25947034681167
  0
LINE
  8
_1-1_
  6
CONTINUOUS
 62
    3
 10
250.79995645059122
 20
177.45947348104943
 11
250.79995645059122
 21
177.05947463576859
  0
LINE
  8
_1-1_
  6
CONTINUOUS
 62
    3
 10
249.99998350401185
 20
177.45947348104943
 11
249.99998350401185
 21
177.05947463576859
  0
LINE
  8
_1-1_
  6
CONTINUOUS
 62
    3
 10
248.39998812288852
 20
177.45947348104943
 11
248.39998812288852
 21
177.05947463576859
  0
LINE
  8
_1-1_
  6
CONTINUOUS
 62
    3
 10
247.59996568834461
 20
177.45947348104943
 11
247.59996568834461
 21
177.05947463576859
  0
LINE
  8
_1-1_
  6
CONTINUOUS
 62
    3
 10
244.399974926098
 20
177.45947348104943
 11
247.59996568834461
 21
177.45947348104943
  0
LINE
  8
_1-1_
  6
CONTINUOUS
 62
    3
 10
248.39998812288852
 20
177.45947348104943
 11
249.99998350401185
 21
177.45947348104943
  0
LINE
  8
_1-1_
  6
CONTINUOUS
 62
    3
 10
250.79995645059122
 20
177.45947348104943
 11
252.39995183171453
 21
177.45947348104943
  0
LINE
  8
_1-1_
  6
CONTINUOUS
 62
    3
 10
247.59996568834461
 20
177.05947463576859
 11
248.39998812288852
 21
177.05947463576859
  0
LINE
  8
_1-1_
  6
CONTINUOUS
 62
    3
 10
249.99998350401185
 20
177.05947463576859
 11
250.79995645059122
 21
177.05947463576859
  0
LINE
  8
_1-1_
  6
CONTINUOUS
 62
    3
 10
196.00000329919766
 20
177.25946787241344
 11
239.79996964738177
 21
177.25946787241344
  0
LINE
  8
_1-1_
  6
CONTINUOUS
 62
    3
 10
184.59996816274284
 20
176.8594690271326
 11
184.88405382311024
 21
176.25947694520693
  0
LINE
  8
_1-1_
  6
CONTINUOUS
 62
    3
 10
183.39998399889149
 20
176.8594690271326
 11
184.59996816274284
 21
176.8594690271326
  0
LINE
  8
_1-1_
  6
CONTINUOUS
 62
    3
 10
184.88405382311024
 20
176.25947694520693
 11
191.19996766786318
 21
176.25947694520693
  0
LINE
  8
_1-1_
  6
CONTINUOUS
 62
    3
 10
244.59998053473396
 20
176.8594690271326
 11
244.59998053473396
 21
174.25947034681167
  0
LINE
  8
_1-1_
  6
CONTINUOUS
 62
    3
 10
252.3999765756968
 20
179.85947892472552
 11
252.3999765756968
 21
176.25947694520693
  0
LINE
  8
_1-0_
  6
CONTINUOUS
 62
    3
 10
244.59998053473396
 20
174.25947034681167
 11
302.59994919235646
 21
174.25947034681167
  0
LINE
  8
_1-1_
  6
CONTINUOUS
 62
    3
 10
252.3999765756968
 20
179.85947892472552
 11
253.59998548353042
 21
179.85947892472552
  0
LINE
  8
_1-1_
  6
CONTINUOUS
 62
    3
 10
257.19998746304901
 20
177.25946787241344
 11
300.99995381123313
 21
177.25946787241344
  0
LINE
  8
_1-1_
  6
CONTINUOUS
 62
    3
 10
245.79996469858531
 20
176.8594690271326
 11
246.08405035895271
 21
176.25947694520693
  0
LINE
  8
_1-1_
  6
CONTINUOUS
 62
    3
 10
244.59998053473396
 20
176.8594690271326
 11
245.79996469858531
 21
176.8594690271326
  0
LINE
  8
_1-1_
  6
CONTINUOUS
 62
    3
 10
246.08405035895271
 20
176.25947694520693
 11
252.3999765756968
 21
176.25947694520693
  0
LINE
  8
_1-0_
  6
CONTINUOUS
 62
    3
 10
244.59998053473396
 20
174.25947034681167
 11
302.59994919235646
 21
174.25947034681167
  0
LINE
  8
_1-1_
  6
CONTINUOUS
 62
    7
 10
241.39996502850508
 20
174.25947034681167
 11
244.59998053473396
 21
174.25947034681167
  0
LINE
  8
_1-0_
  6
CONTINUOUS
 62
    3
 10
183.39998399889149
 20
174.25947034681167
 11
241.39996502850508
 21
174.25947034681167
  0
LINE
  8
_1-1_
  6
CONTINUOUS
 62
    7
 10
180.19996849266261
 20
174.25947034681167
 11
183.39998399889149
 21
174.25947034681167
  0
LINE
  8
_1-0_
  6
CONTINUOUS
 62
    3
 10
66.600011877111484
 20
174.25947034681167
 11
118.9999719568201
 21
174.25947034681167
  0
LINE
  8
_1-0_
  6
CONTINUOUS
 62
    3
 10
122.199987463049
 20
174.25947034681167
 11
180.19996849266261
 21
174.25947034681167
  0
LINE
  8
_1-1_
  6
CONTINUOUS
 62
    7
 10
122.199987463049
 20
174.25947034681167
 11
118.9999719568201
 21
174.25947034681167
  0
LINE
  8
_1-2_
  6
CONTINUOUS
 62
    7
 10
69.000004948796459
 20
192.16216216216216
 11
69.000004948796459
 21
212.43243243243245
  0
LINE
  8
_1-2_
  6
CONTINUOUS
 62
    7
 10
69.000004948796459
 20
212.43243243243245
 11
129.99998350401182
 21
212.43243243243245
  0
LINE
  8
_1-2_
  6
CONTINUOUS
 62
    7
 10
129.99998350401182
 20
192.16216216216216
 11
129.99998350401182
 21
212.43243243243245
  0
LINE
  8
_1-2_
  6
CONTINUOUS
 62
    7
 10
129.99998350401182
 20
212.43243243243245
 11
191.19996766786318
 21
212.43243243243245
  0
LINE
  8
_1-2_
  6
CONTINUOUS
 62
    7
 10
191.19996766786318
 20
192.16216216216216
 11
191.19996766786318
 21
212.43243243243245
  0
LINE
  8
_1-2_
  6
CONTINUOUS
 62
    7
 10
191.19996766786318
 20
212.43243243243245
 11
252.3999765756968
 21
212.43243243243245
  0
LINE
  8
_1-2_
  6
CONTINUOUS
 62
    7
 10
252.3999765756968
 20
192.16216216216216
 11
252.3999765756968
 21
212.43243243243245
  0
LINE
  8
_1-2_
  6
CONTINUOUS
 62
    7
 10
185.42054047455659
 20
177.17077306798987
 11
217.0477294921875
 21
90.27581498429582
  0
LINE
  8
_1-2_
  6
CONTINUOUS
 62
    7
 10
217.0477294921875
 20
90.27581498429582
 11
222.972972972973
 21
90.27581498429582
  0
LINE
  8
_0-1_
  6
CONTINUOUS
 62
    7
 10
204.30876035948057
 20
125.27581292229731
 11
222.972972972973
 21
125.27581292229731
  0
LINE
  8
_0-1_
  6
CONTINUOUS
 62
    7
 10
206.85654923722552
 20
118.27581457189612
 11
222.972972972973
 21
118.27581457189612
  0
LINE
  8
_0-1_
  6
CONTINUOUS
 62
    7
 10
209.40436285895271
 20
111.27581622149494
 11
222.972972972973
 21
111.27581622149494
  0
LINE
  8
_0-1_
  6
CONTINUOUS
 62
    7
 10
211.95215173669766
 20
104.27581787109375
 11
222.972972972973
 21
104.27581787109375
  0
LINE
  8
_0-1_
  6
CONTINUOUS
 62
    7
 10
214.49994061444258
 20
97.275813334697006
 11
222.972972972973
 21
97.275813334697006
  0
LINE
  8
_1-0_
  6
CONTINUOUS
 62
    7
 10
323.29690469277875
 20
178.45946440825591
 11
315.2969030431799
 21
178.45946440825591
  0
LINE
  8
_1-0_
  6
CONTINUOUS
 62
    7
 10
323.29690469277875
 20
138.45946853225297
 11
315.2969030431799
 21
138.45946853225297
  0
LINE
  8
_1-0_
  6
CONTINUOUS
 62
    7
 10
323.29690469277875
 20
178.45946440825591
 11
323.29690469277875
 21
138.45946853225297
  0
LINE
  8
_1-0_
  6
CONTINUOUS
 62
    7
 10
316.99290507548568
 20
155.05945154138513
 11
316.99290507548568
 21
153.85945500554266
  0
LINE
  8
_1-0_
  6
CONTINUOUS
 62
    7
 10
315.2969030431799
 20
178.45946440825591
 11
315.2969030431799
 21
155.05945154138513
  0
LINE
  8
_1-0_
  6
CONTINUOUS
 62
    7
 10
315.2969030431799
 20
153.85945500554266
 11
315.2969030431799
 21
138.45946853225297
  0
LINE
  8
_1-0_
  6
CONTINUOUS
 62
    7
 10
315.2969030431799
 20
155.05945154138513
 11
315.2969030431799
 21
167.05945401578336
  0
LINE
  8
_1-0_
  6
CONTINUOUS
 62
    7
 10
315.2969030431799
 20
167.05945401578336
 11
303.29691294077281
 21
167.05945401578336
  0
LINE
  8
_1-0_
  6
CONTINUOUS
 62
    7
 10
303.29691294077281
 20
155.05945154138513
 11
315.2969030431799
 21
155.05945154138513
  0
LINE
  8
_1-0_
  6
CONTINUOUS
 62
    7
 10
303.29691294077281
 20
167.05945401578336
 11
315.2969030431799
 21
155.05945154138513
  0
LINE
  8
_1-0_
  6
CONTINUOUS
 62
    7
 10
308.69689116606844
 20
171.2594728212099
 11
308.69689116606844
 21
170.65946836729307
  0
LINE
  8
_1-0_
  6
CONTINUOUS
 62
    2
 10
314.38592859216641
 20
170.48158387880068
 11
309.12659516205662
 21
170.48158387880068
  0
LINE
  8
_1-0_
  6
CONTINUOUS
 62
    2
 10
309.12659516205662
 20
170.48158387880068
 11
309.12659516205662
 21
172.73556271114865
  0
LINE
  8
_1-0_
  6
CONTINUOUS
 62
    7
 10
316.50468156144427
 20
138.45946853225297
 11
315.2969030431799
 21
139.6672346785262
  0
LINE
  8
_1-0_
  6
CONTINUOUS
 62
    7
 10
319.33309194203969
 20
138.45946853225297
 11
315.2969030431799
 21
142.49565743111276
  0
LINE
  8
_1-0_
  6
CONTINUOUS
 62
    7
 10
322.1615270666174
 20
138.45946853225297
 11
315.2969030431799
 21
145.32409255569047
  0
LINE
  8
_1-0_
  6
CONTINUOUS
 62
    7
 10
323.29690469277875
 20
140.15251365867823
 11
315.2969030431799
 21
148.15251530827703
  0
LINE
  8
_1-0_
  6
CONTINUOUS
 62
    7
 10
323.29690469277875
 20
142.98094878325591
 11
315.2969030431799
 21
150.98095043285474
  0
LINE
  8
_1-0_
  6
CONTINUOUS
 62
    7
 10
323.29690469277875
 20
145.8093715358425
 11
315.2969030431799
 21
153.8093731854413
  0
LINE
  8
_1-0_
  6
CONTINUOUS
 62
    7
 10
323.29690469277875
 20
148.63779428842906
 11
316.99290507548568
 21
154.94180627771325
  0
LINE
  8
_1-0_
  6
CONTINUOUS
 62
    7
 10
316.87524743982266
 20
155.05945154138513
 11
315.2969030431799
 21
156.63779593802789
  0
LINE
  8
_1-0_
  6
CONTINUOUS
 62
    7
 10
323.29690469277875
 20
151.46621704101562
 11
315.2969030431799
 21
159.46623106260557
  0
LINE
  8
_1-0_
  6
CONTINUOUS
 62
    7
 10
323.29690469277875
 20
154.29465216559333
 11
315.2969030431799
 21
162.29465381519216
  0
LINE
  8
_1-0_
  6
CONTINUOUS
 62
    7
 10
323.29690469277875
 20
157.1230749181799
 11
315.2969030431799
 21
165.12307656777872
  0
LINE
  8
_1-0_
  6
CONTINUOUS
 62
    7
 10
323.29690469277875
 20
159.9515100427576
 11
315.2969030431799
 21
167.95151169235643
  0
LINE
  8
_1-0_
  6
CONTINUOUS
 62
    7
 10
323.29690469277875
 20
162.77993279534419
 11
315.2969030431799
 21
170.77994681693414
  0
LINE
  8
_1-0_
  6
CONTINUOUS
 62
    7
 10
323.29690469277875
 20
165.60836791992187
 11
315.2969030431799
 21
173.60835719752956
  0
LINE
  8
_1-0_
  6
CONTINUOUS
 62
    7
 10
323.29690469277875
 20
168.43679067250847
 11
315.2969030431799
 21
176.43679232210727
  0
LINE
  8
_1-0_
  6
CONTINUOUS
 62
    7
 10
323.29690469277875
 20
171.26521342509503
 11
316.10266608160896
 21
178.45946440825591
  0
LINE
  8
_1-0_
  6
CONTINUOUS
 62
    7
 10
323.29690469277875
 20
174.09364854967274
 11
318.93107646220443
 21
178.45946440825591
  0
LINE
  8
_1-0_
  6
CONTINUOUS
 62
    7
 10
323.29690469277875
 20
176.9220713022593
 11
321.75951158678214
 21
178.45946440825591
  0
LINE
  8
_1-0_
  6
CONTINUOUS
 62
    2
 10
309.12659516205662
 20
172.73556271114865
 11
309.12659516205662
 21
174.10540194124789
  0
LINE
  8
_1-0_
  6
CONTINUOUS
 62
    2
 10
309.12659516205662
 20
174.10540194124789
 11
310.18264358108109
 21
174.10540194124789
  0
LINE
  8
_1-0_
  6
CONTINUOUS
 62
    7
 10
308.69689116606844
 20
170.65946836729307
 11
308.69689116606844
 21
171.2594728212099
  0
LINE
  8
_1-0_
  6
CONTINUOUS
 62
    7
 10
308.69689116606844
 20
171.2594728212099
 11
303.89690502269849
 21
171.2594728212099
  0
LINE
  8
_1-0_
  6
CONTINUOUS
 62
    7
 10
303.89690502269849
 20
171.2594728212099
 11
303.89690502269849
 21
170.65946836729307
  0
LINE
  8
_1-0_
  6
CONTINUOUS
 62
    7
 10
303.89690502269849
 20
170.65946836729307
 11
308.69689116606844
 21
170.65946836729307
  0
LINE
  8
_1-0_
  6
CONTINUOUS
 62
    7
 10
308.69689116606844
 20
171.2594728212099
 11
303.89690502269849
 21
170.65946836729307
  0
LINE
  8
_1-1_
  6
CONTINUOUS
 62
    3
 10
306.49690370301943
 20
179.85947892472552
 11
305.29689479518584
 21
179.85947892472552
  0
LINE
  8
ADD_LINE
  6
DOT
 62
    3
 10
306.29689809438344
 20
174.71588547165331
 11
306.29689809438344
 21
173.89319754935602
  0
LINE
  8
_1-1_
  6
CONTINUOUS
 62
    3
 10
324.29690799197635
 20
179.85947892472552
 11
324.29690799197635
 21
156.65947166649073
  0
LINE
  8
_1-1_
  6
CONTINUOUS
 62
    3
 10
304.69690271326016
 20
179.85947892472552
 11
324.29690799197635
 21
179.85947892472552
  0
LINE
  8
_1-1_
  6
CONTINUOUS
 62
    3
 10
304.69690271326016
 20
183.05946968697214
 11
304.69690271326016
 21
179.85947892472552
  0
LINE
  8
_1-1_
  6
CONTINUOUS
 62
    3
 10
324.29690799197635
 20
156.65947166649073
 11
327.29691788956927
 21
156.65947166649073
  0
LINE
  8
_1-1_
  6
CONTINUOUS
 62
    3
 10
327.29691788956927
 20
182.05946638777451
 11
327.29691788956927
 21
156.65947166649073
  0
LINE
  8
_1-1_
  6
CONTINUOUS
 62
    3
 10
320.09691393053214
 20
182.53670357369089
 11
322.0968957849451
 21
182.53670357369089
  0
LINE
  8
_1-1_
  6
CONTINUOUS
 62
    3
 10
320.09691393053214
 20
183.05946968697214
 11
320.09691393053214
 21
182.53670357369089
  0
LINE
  8
_1-1_
  6
CONTINUOUS
 62
    3
 10
322.0968957849451
 20
183.05946968697214
 11
322.0968957849451
 21
182.53670357369089
  0
LINE
  8
_1-1_
  6
CONTINUOUS
 62
    3
 10
326.29691459037161
 20
183.05946968697214
 11
322.0968957849451
 21
183.05946968697214
  0
LINE
  8
_1-1_
  6
CONTINUOUS
 62
    3
 10
320.09691393053214
 20
183.05946968697214
 11
304.69690271326016
 21
183.05946968697214
  0
LINE
  8
_1-0_
  6
CONTINUOUS
 62
    2
 10
314.38592859216641
 20
170.48158387880068
 11
314.74513698268584
 21
170.48158387880068
  0
LINE
  8
_1-0_
  6
CONTINUOUS
 62
    2
 10
314.74513698268584
 20
170.48158387880068
 11
314.74513698268584
 21
179.24172066353464
  0
LINE
  8
_1-0_
  6
CONTINUOUS
 62
    2
 10
314.74513698268584
 20
179.24172066353464
 11
313.93281678895693
 21
177.93494147223396
  0
LINE
  8
_1-0_
  6
DASHED1
 62
    3
 10
323.29690469277875
 20
179.05946886217274
 11
314.99235410948057
 21
179.05946886217274
  0
LINE
  8
_1-0_
  6
DASHED1
 62
    3
 10
314.99235410948057
 20
179.05946886217274
 11
314.99235410948057
 21
170.05946391337628
  0
LINE
  8
_1-2_
  6
CONTINUOUS
 62
    7
 10
324.29690799197635
 20
113.48630750501479
 11
323.29690469277875
 21
113.48630750501479
  0
LINE
  8
_1-2_
  6
CONTINUOUS
 62
    7
 10
324.29690799197635
 20
126.89461372994089
 11
324.29690799197635
 21
113.48630750501479
  0
LINE
  8
_1-2_
  6
CONTINUOUS
 62
    7
 10
323.29690469277875
 20
126.89461372994089
 11
323.29690469277875
 21
113.48630750501479
  0
LINE
  8
_1-2_
  6
CONTINUOUS
 62
    7
 10
323.29690469277875
 20
113.48630750501479
 11
315.2969030431799
 21
113.48630750501479
  0
LINE
  8
_1-2_
  6
CONTINUOUS
 62
    7
 10
315.2969030431799
 20
126.89461372994089
 11
315.2969030431799
 21
113.48630750501479
  0
LINE
  8
_1-1_
  6
CONTINUOUS
 62
    3
 10
313.59998548353042
 20
179.85947892472552
 11
313.59998548353042
 21
177.45947348104943
  0
LINE
  8
_1-0_
  6
CONTINUOUS
 62
    7
 10
66.600011877111484
 20
170.65946836729307
 11
308.69689116606844
 21
170.65946836729307
  0
LINE
  8
_1-0_
  6
CONTINUOUS
 62
    7
 10
66.600011877111484
 20
171.2594728212099
 11
308.69689116606844
 21
171.2594728212099
  0
LINE
  8
_1-0_
  6
CONTINUOUS
 62
    7
 10
302.59994919235646
 20
174.25947034681167
 11
308.69689116606844
 21
174.25947034681167
  0
LINE
  8
_1-0_
  6
CONTINUOUS
 62
    7
 10
308.69689116606844
 20
171.2594728212099
 11
308.69689116606844
 21
174.25947034681167
  0
LINE
  8
_1-0_
  6
CONTINUOUS
 62
    7
 10
303.29691294077281
 20
167.05945401578336
 11
303.29691294077281
 21
155.05945154138513
  0
LINE
  8
_1-0_
  6
CONTINUOUS
 62
    7
 10
303.29691294077281
 20
155.05945154138513
 11
315.2969030431799
 21
167.05945401578336
  0
LINE
  8
_1-0_
  6
CONTINUOUS
 62
    7
 10
320.27027027027032
 20
149.18918918918919
 11
338.01717397328969
 21
100.42994731181378
  0
LINE
  8
_1-0_
  6
CONTINUOUS
 62
    7
 10
313.35803882495776
 20
170.47062229465794
 11
303.25739680109797
 21
198.22192630252323
  0
LINE
  8
_1-0_
  6
CONTINUOUS
 62
    7
 10
303.25739680109797
 20
198.22192630252323
 11
300.75446876319683
 21
198.22192630252323
  0
LINE
  8
_1-0_
  6
CONTINUOUS
 62
    7
 10
338.01717397328969
 20
100.42994731181378
 11
342.97297297297297
 21
100.42994731181378
  0
LINE
  8
_1-0_
  6
CONTINUOUS
 62
    7
 10
325.13513513513516
 20
181.62162162162164
 11
333.9491890572213
 21
205.83804981128591
  0
LINE
  8
_1-0_
  6
CONTINUOUS
 62
    7
 10
333.9491890572213
 20
205.83804981128591
 11
337.29729729729729
 21
205.83804981128591
  0
LINE
  8
_1-0_
  6
CONTINUOUS
 62
    7
 10
65.544192339922915
 20
153.85945500554266
 11
316.99290507548568
 21
153.85945500554266
  0
LINE
  8
_1-0_
  6
CONTINUOUS
 62
    7
 10
71.999990102407082
 20
167.05945401578336
 11
65.544192339922915
 21
160.60365006730365
  0
LINE
  8
_1-0_
  6
CONTINUOUS
 62
    7
 10
65.544192339922915
 20
169.45945945945948
 11
315.2969030431799
 21
169.45945945945948
  0
LINE
  8
_1-0_
  6
DASHED1
 62
    3
 10
65.544192339922915
 20
170.05946391337628
 11
314.99235410948057
 21
170.05946391337628
  0
LINE
  8
_1-1_
  6
CONTINUOUS
 62
    3
 10
65.544192339922915
 20
174.25947034681167
 11
118.9999719568201
 21
174.25947034681167
  0
LINE
  8
_1-1_
  6
CONTINUOUS
 62
    3
 10
65.544192339922915
 20
176.25947694520693
 11
68.799999340160468
 21
176.25947694520693
  0
LINE
  8
_1-0_
  6
CONTINUOUS
 62
    7
 10
71.999990102407082
 20
155.05945154138513
 11
65.544192339922915
 21
155.05945154138513
  0
LINE
  8
_1-0_
  6
CONTINUOUS
 62
    7
 10
65.544192339922915
 20
155.05945154138513
 11
316.87524743982266
 21
155.05945154138513
  0
LINE
  8
_1-0_
  6
CONTINUOUS
 62
    7
 10
65.544192339922915
 20
167.05945401578336
 11
71.999990102407082
 21
167.05945401578336
  0
LINE
  8
_1-0_
  6
CONTINUOUS
 62
    7
 10
65.544192339922915
 20
167.05945401578336
 11
315.2969030431799
 21
167.05945401578336
  0
LINE
  8
_1-3_
  6
CONTINUOUS
 62
    7
 10
350.28207314981
 20
169.45945945945948
 11
350.28207314981
 21
178.45946440825591
  0
LINE
  8
_1-3_
  6
CONTINUOUS
 62
    7
 10
335.46255575644005
 20
169.45945945945948
 11
350.28207314981
 21
169.45945945945948
  0
LINE
  8
_1-3_
  6
CONTINUOUS
 62
    7
 10
335.46255575644005
 20
178.45946440825591
 11
350.28207314981
 21
178.45946440825591
  0
LINE
  8
_1-3_
  6
CONTINUOUS
 62
    3
 10
314.00615795238599
 20
177.25946787241344
 11
302.59994919235646
 21
177.25946787241344
  0
LINE
  8
_1-3_
  6
CONTINUOUS
 62
    3
 10
302.59994919235646
 20
174.25947034681167
 11
314.00615795238599
 21
174.25947034681167
  0
LINE
  8
_1-3_
  6
CONTINUOUS
 62
    3
 10
314.00615795238599
 20
177.25946787241344
 11
314.00615795238599
 21
174.25947034681167
  0
LINE
  8
_1-3_
  6
CONTINUOUS
 62
    3
 10
300.99995381123313
 20
177.25946787241344
 11
314.00615795238599
 21
177.25946787241344
  0
LINE
  8
_1-3_
  6
CONTINUOUS
 62
    3
 10
307.92168694573479
 20
179.85947892472552
 11
307.92168694573479
 21
177.25946787241344
  0
LINE
  8
_1-3_
  6
CONTINUOUS
 62
    3
 10
307.36712481524495
 20
177.25946787241344
 11
307.92168694573479
 21
177.81403000290331
  0
LINE
  8
_1-3_
  6
CONTINUOUS
 62
    3
 10
306.80142789273651
 20
177.25946787241344
 11
307.92168694573479
 21
178.37972692541175
  0
LINE
  8
_1-3_
  6
CONTINUOUS
 62
    3
 10
306.23575571421031
 20
177.25946787241344
 11
307.92168694573479
 21
178.94541147592906
  0
LINE
  8
_1-3_
  6
CONTINUOUS
 62
    3
 10
305.79071044921875
 20
177.38011952993034
 11
307.92168694573479
 21
179.5111083984375
  0
LINE
  8
_1-3_
  6
CONTINUOUS
 62
    3
 10
306.16243929476354
 20
178.3175329259924
 11
307.70438529349661
 21
179.85947892472552
  0
LINE
  8
_1-3_
  6
CONTINUOUS
 62
    3
 10
306.19000409100511
 20
178.91076990076016
 11
307.13871311497047
 21
179.85947892472552
  0
LINE
  8
_1-3_
  6
CONTINUOUS
 62
    3
 10
306.10443940033787
 20
179.39088976061024
 11
306.57301619246203
 21
179.85947892472552
  0
LINE
  8
_1-3_
  6
CONTINUOUS
 62
    3
 10
305.94741408889359
 20
179.79953662769216
 11
306.00734401393584
 21
179.85947892472552
  0
LINE
  8
_1-3_
  6
CONTINUOUS
 62
    7
 10
299.48287551467484
 20
189.14344581397805
 11
296.28884805215375
 21
189.14344581397805
  0
LINE
  8
_1-3_
  6
CONTINUOUS
 62
    7
 10
303.3742378853463
 20
178.45199172561234
 11
299.48287551467484
 21
189.14344581397805
  0
LINE
  8
_1-3_
  6
CONTINUOUS
 62
    7
 10
306.29689809438344
 20
178.45199172561234
 11
303.3742378853463
 21
178.45199172561234
  0
ARC
  8
_1-1_
  6
CONTINUOUS
 62
    3
 10
73.846138619087839
 20
181.39254183382602
 40
4.1404008865356445
 50
201.73239135742187
 51
266.59201049804687
  0
ARC
  8
_1-1_
  6
CONTINUOUS
 62
    3
 10
117.39534945101352
 20
180.00581483583193
 40
2.7463450302948824
 50
270.09652709960937
 51
356.94560241699224
  0
ARC
  8
_1-1_
  6
CONTINUOUS
 62
    3
 10
135.04612278293919
 20
181.39254183382602
 40
4.1404008865356445
 50
201.73239135742187
 51
266.59201049804687
  0
ARC
  8
_1-1_
  6
CONTINUOUS
 62
    3
 10
178.59533361486487
 20
180.00581483583193
 40
2.7463450302948824
 50
270.09652709960937
 51
356.94560241699224
  0
ARC
  8
_1-1_
  6
CONTINUOUS
 62
    3
 10
196.24610694679055
 20
181.39254183382602
 40
4.1404008865356445
 50
201.73239135742187
 51
266.59201049804687
  0
ARC
  8
_1-1_
  6
CONTINUOUS
 62
    3
 10
239.79531777871622
 20
180.00581483583193
 40
2.7463450302948824
 50
270.09652709960937
 51
356.94560241699224
  0
ARC
  8
_1-1_
  6
CONTINUOUS
 62
    3
 10
257.44611585462417
 20
181.39254183382602
 40
4.1404008865356445
 50
201.73239135742187
 51
266.59201049804687
  0
ARC
  8
_1-1_
  6
CONTINUOUS
 62
    3
 10
326.29691459037161
 20
182.05946638777451
 40
0.9999999162313101
 50
0
 51
90
  0
ARC
  8
_1-3_
  6
CONTINUOUS
 62
    3
 10
303.7642525337838
 20
178.72615504909206
 40
2.4327608701345085
 50
322.92286682128906
 51
27.765808105468775
  0
TEXT
  8
_0-0_
 62
    7
 10
147.56756962956609
 20
22.702702702702709
 40
2.5
 41
1
 50
0
  1
図名
  0
TEXT
  8
_0-0_
 62
    7
 10
147.56756962956609
 20
12.972972972972968
 40
2.5
 41
1
 50
0
  1
縮尺
  0
TEXT
  8
_0-0_
 62
    7
 10
382.77784605284
 20
21.243871740392734
 40
2.5
 41
1
 50
0
  1
ＮＯ
  0
TEXT
  8
_0-0_
 62
    7
 10
31.231870393495313
 20
18.589955922719582
 40
2.5
 41
1
 50
0
  1
木造
  0
TEXT
  8
_0-0_
 62
    7
 10
20.270270012520456
 20
22.702702702702709
 40
2.5
 41
1
 50
0
  1
Ｆ形
  0
TEXT
  8
_0-0_
 62
    7
 10
389.99062615471917
 20
16.178650211643514
 40
2.5
 41
1
 50
0
  1
Ｆ
  0
TEXT
  8
_0-0_
 62
    7
 10
171.37221877639359
 20
12.362518826046511
 40
2.5
 41
1
 50
0
  1
1/5
  0
TEXT
  8
_1-2_
 62
    7
 10
158.7249755859375
 20
212.93243408203125
 40
2.5
 41
1
 50
0
  1
306
  0
TEXT
  8
_1-2_
 62
    7
 10
219.92495974978885
 20
212.93243408203125
 40
2.5
 41
1
 50
0
  1
306
  0
TEXT
  8
_1-2_
 62
    7
 10
97.625006598395274
 20
212.93243408203125
 40
2.5
 41
1
 50
0
  1
306
  0
TEXT
  8
_0-1_
 62
    7
 10
227.36824241844386
 20
123.33247004328548
 40
2.5
 41
1
 50
0
  1
桟瓦
  0
TEXT
  8
_0-1_
 62
    7
 10
227.36824241844386
 20
95.126266479492187
 40
2.5
 41
1
 50
0
  1
野地板　　ｔ＝12
  0
TEXT
  8
_1-2_
 62
    7
 10
318.04690386797932
 20
113.98630915461361
 40
2.5
 41
1
 50
0
  1
40
  0
TEXT
  8
_0-1_
 62
    7
 10
292.38202069256761
 20
197.18041497307857
 40
2.5
 41
1
 50
0
  1
捨水切
  0
TEXT
  8
_1-0_
 62
    7
 10
344.7088623046875
 20
99.204588194151185
 40
2.5
 41
1
 50
0
  1
破風板　40ｘ200
  0
TEXT
  8
_1-0_
 62
    7
 10
340.02400991078969
 20
204.61703326251057
 40
2.5
 41
1
 50
0
  1
右袖瓦
  0
TEXT
  8
_1-0_
 62
    7
 10
398.57769527950802
 20
13.678909507957655
 40
2.5
 41
1
 50
0
  1
4
  0
TEXT
  8
_1-0_
 62
    7
 10
45.397582698512736
 20
13.77361400707349
 40
2.5
 41
1
 50
0
  1
袖　2
  0
TEXT
  8
_1-3_
 62
    7
 10
349.78207150021115
 20
172.70945574786214
 40
2.5
 41
1
 50
90
  1
45
  0
TEXT
  8
_1-3_
 62
    7
 10
276.28885217615078
 20
188.28870206265836
 40
2.5
 41
1
 50
0
  1
発泡弾性シール材
  0
POINT
  8
_1-2_
 62
    7
 10
69.000004948796459
 20
212.43243243243245
  0
POINT
  8
_1-2_
 62
    7
 10
129.99998350401182
 20
212.43243243243245
  0
POINT
  8
_1-2_
 62
    7
 10
191.19996766786318
 20
212.43243243243245
  0
POINT
  8
_1-2_
 62
    7
 10
252.3999765756968
 20
212.43243243243245
  0
POINT
  8
_1-2_
 62
    7
 10
324.29690799197635
 20
113.48630750501479
  0
POINT
  8
_1-2_
 62
    7
 10
323.29690469277875
 20
113.48630750501479
  0
POINT
  8
_1-2_
 62
    7
 10
315.2969030431799
 20
113.48630750501479
  0
POINT
  8
_1-3_
 62
    7
 10
350.28207314981
 20
169.45945945945948
  0
POINT
  8
_1-3_
 62
    7
 10
350.28207314981
 20
178.45946440825591
  0
TEXT
  8
_1-3_
 62
    7
 10
239.73236943424328
 20
114.18856198188355
 40
2.5
 41
1
 50
0
  1
※　地域により瓦桟木の大きさは、異なります
  0
TEXT
  8
_1-3_
 62
    7
 10
227.13657354215519
 20
117.2855515350179
 40
2.5
 41
1
 50
0
  1
瓦桟
  0
TEXT
  8
_1-2_
 62
    7
 10
323.26708953695794
 20
109.10154400976836
 40
2.5
 41
1
 50
0
  1
5
  0
TEXT
  8
_1-3_
 62
    7
 10
239.49876503105446
 20
117.12673614852029
 40
2.5
 41
1
 50
0
  1
１５×２１以上
  0
TEXT
  8
_0-1_
 62
    7
 10
227.36824654244089
 20
108.89752362225508
 40
2.5
 41
1
 50
0
  1
縦桟
  0
TEXT
  8
_1-3_
 62
    7
 10
227.36824241844386
 20
101.92893775733742
 40
2.5
 41
1
 50
0
  1
ルーフィング
  0
TEXT
  8
_0-1_
 62
    7
 10
227.42785872685846
 20
88.89871152073222
 40
2.5
 41
1
 50
0
  1
たる木
  0
ENDSEC
  0
EOF
