  0
SECTION
  2
HEADER
  9
$ACADVER
  1
AC1009
  9
$INSBASE
 10
0
 20
0
 30
0
  9
$EXTMIN
 10
0
 20
0
  9
$EXTMAX
 10
420
 20
297
  9
$LIMMIN
 10
0
 20
0
  9
$LIMMAX
 10
420
 20
297
  9
$LTSCALE
 40
1
  0
ENDSEC
  0
SECTION
  2
TABLES
  0
TABLE
  2
LTYPE
 70
     9
  0
LTYPE
  2
CONTINUOUS
 70
    64
  3
実線
 72
    65
 73
     0
 40
0.0
  0
LTYPE
  2
DASHED1
 70
    64
  3
--  --  --  --  --  --  --  --  
 72
    65
 73
     2
 40
2.5
 49
1.25
 49
-1.25
  0
LTYPE
  2
DASHED2
 70
    64
  3
----    ----    ----    ----    
 72
    65
 73
     2
 40
5.0
 49
2.5
 49
-2.5
  0
LTYPE
  2
DASHED3
 70
    64
  3
------  ------  ------  ------  
 72
    65
 73
     2
 40
5.0
 49
3.75
 49
-1.25
  0
LTYPE
  2
CENTER1
 70
    64
  3
----- - ----- - ----- - ----- - 
 72
    65
 73
     4
 40
10.0
 49
6.25
 49
-1.25
 49
1.25
 49
-1.25
  0
LTYPE
  2
CENTER2
 70
    64
  3
----------  --  ----------  --  
 72
    65
 73
     4
 40
20.0
 49
12.5
 49
-2.5
 49
2.5
 49
-2.5
  0
LTYPE
  2
PHANTOM1
 70
    64
  3
--- - - --- - - --- - - --- - - 
 72
    65
 73
     6
 40
10.0
 49
3.25
 49
-1.25
 49
1.25
 49
-1.25
 49
1.25
 49
-1.25
  0
LTYPE
  2
PHANTOM2
 70
    64
  3
--------  -  -  --------  -  -  
 72
    65
 73
     6
 40
20.0
 49
10.0
 49
-2.5
 49
1.25
 49
-2.5
 49
1.25
 49
-2.5
  0
LTYPE
  2
DOT
 70
    64
  3
-   -   -   -   -   -   -   -   
 72
    65
 73
     2
 40
2.5
 49
0.625
 49
-1.875
  0
LTYPE
  2
DUMMY
 70
    64
  3
ダミー
 72
    65
 73
     0
 40
0.0
  0
LTYPE
  2
RAND1
 70
    64
  3
ランダム線1
 72
    65
 73
     4
 40
10.0
 49
1.0
 49
-2.0
 49
3.0
 49
-4.0
  0
LTYPE
  2
RAND2
 70
    64
  3
ランダム線2
 72
    65
 73
     4
 40
14.0
 49
2.0
 49
-3.0
 49
4.0
 49
-5.0
  0
LTYPE
  2
RAND3
 70
    64
  3
ランダム線3
 72
    65
 73
     4
 40
18.0
 49
3.0
 49
-4.0
 49
5.0
 49
-6.0
  0
LTYPE
  2
RAND4
 70
    64
  3
ランダム線4
 72
    65
 73
     4
 40
22.0
 49
4.0
 49
-5.0
 49
6.0
 49
-7.0
  0
LTYPE
  2
RAND5
 70
    64
  3
ランダム線5
 72
    65
 73
     4
 40
26.0
 49
5.0
 49
-6.0
 49
7.0
 49
-8.0
  0
LTYPE
  2
LONG1
 70
    64
  3
----------  --  ----------  --  
 72
    65
 73
     4
 40
40.0
 49
32.5
 49
-2.5
 49
2.5
 49
-2.5
  0
LTYPE
  2
LONG2
 70
    64
  3
--------  -  -  --------  -  -  
 72
    65
 73
     6
 40
40.0
 49
30.0
 49
-2.5
 49
1.25
 49
-2.5
 49
1.25
 49
-2.5
  0
LTYPE
  2
LONG3
 70
    64
  3
+++++++++++++++..+++++++++++++++
 72
    65
 73
     2
 40
40.0
 49
37.5
 49
-2.5
  0
LTYPE
  2
LONG4
 70
    64
  3
+++++++++++++++..+++++++++++++++
 72
    65
 73
     2
 40
80.0
 49
75.0
 49
-5.0
  0
LTYPE
  2
LONG5
 70
    64
  3
----------  --  ----------  --  
 72
    65
 73
     4
 40
60.0
 49
37.5
 49
-7.5
 49
7.5
 49
-7.5
  0
LTYPE
  2
dashed
 70
   64
  3
-------   -------------   ------
 72
   65
 73
    2
 40
7.5
 49
6
 49
-1.5
  0
LTYPE
  2
dashed_spaced
 70
   64
  3
----        --------        ----
 72
   65
 73
    2
 40
12
 49
6
 49
-6
  0
LTYPE
  2
long_dashed_dotted
 70
   64
  3
------------- --- --------------
 72
   65
 73
    4
 40
15.25
 49
12
 49
-1.5
 49
0.25
 49
-1.5
  0
LTYPE
  2
long_dashed_double-dotted
 70
   64
  3
----------- --- --- ------------
 72
   65
 73
    6
 40
17
 49
12
 49
-1.5
 49
0.25
 49
-1.5
 49
0.25
 49
-1.5
  0
LTYPE
  2
long_dashed_triplicate-dotted
 70
   64
  3
--------- --- --- --- ----------
 72
   65
 73
    8
 40
18.75
 49
12
 49
-1.5
 49
0.25
 49
-1.5
 49
0.25
 49
-1.5
 49
0.25
 49
-1.5
  0
LTYPE
  2
dotted
 70
   64
  3
   -       -       -       -    
 72
   65
 73
    2
 40
1.75
 49
0.25
 49
-1.5
  0
LTYPE
  2
chain
 70
   64
  3
-------------- -- --------------
 72
   65
 73
    4
 40
18.5
 49
12
 49
-1.5
 49
3.5
 49
-1.5
  0
LTYPE
  2
chain_double_dash
 70
   64
  3
------------ -- -- -------------
 72
   65
 73
    6
 40
23.5
 49
12
 49
-1.5
 49
3.5
 49
-1.5
 49
3.5
 49
-1.5
  0
LTYPE
  2
dashed_dotted
 70
   64
  3
-----------     -     ----------
 72
   65
 73
    4
 40
9.25
 49
6
 49
-1.5
 49
0.25
 49
-1.5
  0
LTYPE
  2
double-dashed_dotted
 70
   64
  3
------   -----------   -   -----
 72
   65
 73
    6
 40
16.75
 49
6
 49
-1.5
 49
6
 49
-1.5
 49
0.25
 49
-1.5
  0
LTYPE
  2
dashed_double-dotted
 70
   64
  3
---------    -    -    ---------
 72
   65
 73
    6
 40
11
 49
6
 49
-1.5
 49
0.25
 49
-1.5
 49
0.25
 49
-1.5
  0
LTYPE
  2
double-dashed_double-dotted
 70
   64
  3
-----   ---------   -   -   ----
 72
   65
 73
    8
 40
18.5
 49
6
 49
-1.5
 49
6
 49
-1.5
 49
0.25
 49
-1.5
 49
0.25
 49
-1.5
  0
LTYPE
  2
dashed_triplicate-dotted
 70
   64
  3
-------    -    -    -    ------
 72
   65
 73
    8
 40
12.75
 49
6
 49
-1.5
 49
0.25
 49
-1.5
 49
0.25
 49
-1.5
 49
0.25
 49
-1.5
  0
LTYPE
  2
double-dashed_triplicate-dotted
 70
   64
  3
-----  ---------  -  -  -  -----
 72
   65
 73
   10
 40
20.25
 49
6
 49
-1.5
 49
6
 49
-1.5
 49
0.25
 49
-1.5
 49
0.25
 49
-1.5
 49
0.25
 49
-1.5
  0
LTYPE
  2
undefined
 70
   64
  3
--------------------------------
 72
   65
 73
    0
 40
0
  0
LTYPE
  2
DOT_17
 70
   64
  3
--             ---             -
 72
   65
 73
    2
 40
5
 49
1
 49
-4
  0
LTYPE
  2
DASHED
 70
   64
  3
---          ------          ---
 72
   65
 73
    2
 40
5
 49
2
 49
-3
  0
LTYPE
  2
DASHED2_19
 70
   64
  3
---          ------          ---
 72
   65
 73
    2
 40
10
 49
4
 49
-6
  0
LTYPE
  2
CENTER
 70
   64
  3
----------    ----    ----------
 72
   65
 73
    4
 40
9
 49
6
 49
-1
 49
1
 49
-1
  0
LTYPE
  2
CENTER2_21
 70
   64
  3
----------    ----    ----------
 72
   65
 73
    4
 40
18
 49
12
 49
-2
 49
2
 49
-2
  0
LTYPE
  2
PHANTOM
 70
   64
  3
---------   ---   ---   --------
 72
   65
 73
    6
 40
10
 49
5
 49
-1
 49
1
 49
-1
 49
1
 49
-1
  0
LTYPE
  2
PHANTOM2_23
 70
   64
  3
------    ----    ----    ------
 72
   65
 73
    6
 40
16
 49
6
 49
-2
 49
2
 49
-2
 49
2
 49
-2
  0
LTYPE
  2
HIDDEN
 70
   64
  3
--             ---             -
 72
   65
 73
    2
 40
2.5
 49
0.5
 49
-2
  0
ENDTAB
  0
TABLE
  2
STYLE
  5
3
100
AcDbSymbolTable
 70
     1
  0
STYLE
  5
10
100
AcDbSymbolTableRecord
100
AcDbTextStyleTableRecord
  2
STANDARD
 70
     0
 40
0.0
 41
1.0
 50
0.0
 71
     0
 42
0.2
  3
txt
  4
bigfont.shx
  0
STYLE
  5
26
100
AcDbSymbolTableRecord
100
AcDbTextStyleTableRecord
  2
TATEGAKI
 70
    68
 40
0.0
 41
1.0
 50
0.0
 71
     0
 42
1.0
  3
txt
  4
bigfont.shx
  0
ENDTAB
  0
TABLE
  2
LAYER
 70
    7
  0
LAYER
  2
_0-0_
 70
   64
 62
    7
  6
CONTINUOUS
  0
LAYER
  2
_0-1_
 70
   64
 62
    7
  6
CONTINUOUS
  0
LAYER
  2
_1-0_
 70
   64
 62
    7
  6
CONTINUOUS
  0
LAYER
  2
_1-1_
 70
   64
 62
    7
  6
CONTINUOUS
  0
LAYER
  2
_1-2_
 70
   64
 62
    7
  6
CONTINUOUS
  0
LAYER
  2
_1-3_
 70
   64
 62
    7
  6
CONTINUOUS
  0
LAYER
  2
ADD_LINE
 70
   64
 62
    7
  6
CONTINUOUS
  0
ENDTAB
  0
ENDSEC
  0
SECTION
  2
BLOCKS
  0
ENDSEC
  0
SECTION
  2
ENTITIES
  0
LINE
  8
_0-0_
  6
CONTINUOUS
 62
    5
 10
12.432428308435391
 20
278.51351351351354
 11
412.43244892842063
 21
278.51351351351354
  0
LINE
  8
_0-0_
  6
CONTINUOUS
 62
    5
 10
377.43248192039698
 20
8.5135135135135158
 11
377.43248192039698
 21
28.513511451515001
  0
LINE
  8
_0-0_
  6
CONTINUOUS
 62
    5
 10
142.70271507469386
 20
28.513511451515001
 11
142.70271507469386
 21
8.5135135135135158
  0
LINE
  8
_0-0_
  6
CONTINUOUS
 62
    5
 10
220.54054054054055
 20
28.513511451515001
 11
220.54054054054055
 21
8.5135135135135158
  0
LINE
  8
_0-0_
  6
CONTINUOUS
 62
    5
 10
142.70271507469386
 20
18.513512482514244
 11
220.54054054054055
 21
18.513512482514244
  0
LINE
  8
_0-0_
  6
CONTINUOUS
 62
    5
 10
402.16218690614443
 20
24.324325870823216
 11
389.59456985061234
 21
11.756758303255651
  0
LINE
  8
_1-0_
  6
CONTINUOUS
 62
    7
 10
52.54053064294763
 20
167.05945401578336
 11
52.54053064294763
 21
155.05945154138513
  0
LINE
  8
_1-0_
  6
CONTINUOUS
 62
    7
 10
101.14053262246622
 20
155.05945154138513
 11
101.14053262246622
 21
167.05945401578336
  0
LINE
  8
_1-0_
  6
CONTINUOUS
 62
    7
 10
101.14053262246622
 20
167.05945401578336
 11
113.14052272487332
 21
167.05945401578336
  0
LINE
  8
_1-0_
  6
CONTINUOUS
 62
    7
 10
113.14052272487332
 20
167.05945401578336
 11
113.14052272487332
 21
155.05945154138513
  0
LINE
  8
_1-0_
  6
CONTINUOUS
 62
    7
 10
113.14052272487332
 20
155.05945154138513
 11
101.14053262246622
 21
155.05945154138513
  0
LINE
  8
_1-0_
  6
CONTINUOUS
 62
    7
 10
113.14052272487332
 20
167.05945401578336
 11
101.14053262246622
 21
155.05945154138513
  0
LINE
  8
_1-0_
  6
CONTINUOUS
 62
    7
 10
161.7405247043919
 20
155.05945154138513
 11
161.7405247043919
 21
167.05945401578336
  0
LINE
  8
_1-0_
  6
CONTINUOUS
 62
    7
 10
161.7405247043919
 20
167.05945401578336
 11
173.74051480679898
 21
167.05945401578336
  0
LINE
  8
_1-0_
  6
CONTINUOUS
 62
    7
 10
173.74051480679898
 20
167.05945401578336
 11
173.74051480679898
 21
155.05945154138513
  0
LINE
  8
_1-0_
  6
CONTINUOUS
 62
    7
 10
173.74051480679898
 20
155.05945154138513
 11
161.7405247043919
 21
155.05945154138513
  0
LINE
  8
_1-0_
  6
CONTINUOUS
 62
    7
 10
173.74051480679898
 20
167.05945401578336
 11
161.7405247043919
 21
155.05945154138513
  0
LINE
  8
_1-0_
  6
CONTINUOUS
 62
    7
 10
222.34051678631758
 20
155.05945154138513
 11
222.34051678631758
 21
167.05945401578336
  0
LINE
  8
_1-0_
  6
CONTINUOUS
 62
    7
 10
222.34051678631758
 20
167.05945401578336
 11
234.34050688872466
 21
167.05945401578336
  0
LINE
  8
_1-0_
  6
CONTINUOUS
 62
    7
 10
234.34050688872466
 20
167.05945401578336
 11
234.34050688872466
 21
155.05945154138513
  0
LINE
  8
_1-0_
  6
CONTINUOUS
 62
    7
 10
234.34050688872466
 20
155.05945154138513
 11
222.34051678631758
 21
155.05945154138513
  0
LINE
  8
_1-0_
  6
CONTINUOUS
 62
    7
 10
234.34050688872466
 20
167.05945401578336
 11
222.34051678631758
 21
155.05945154138513
  0
LINE
  8
_1-0_
  6
CONTINUOUS
 62
    7
 10
47.140552417652032
 20
171.2594728212099
 11
47.140552417652032
 21
170.65946836729307
  0
LINE
  8
_1-0_
  6
CONTINUOUS
 62
    7
 10
47.140552417652032
 20
170.65946836729307
 11
47.140552417652032
 21
171.2594728212099
  0
LINE
  8
_1-0_
  6
CONTINUOUS
 62
    7
 10
47.140552417652032
 20
171.2594728212099
 11
51.940538561021953
 21
171.2594728212099
  0
LINE
  8
_1-0_
  6
CONTINUOUS
 62
    7
 10
51.940538561021953
 20
171.2594728212099
 11
51.940538561021953
 21
170.65946836729307
  0
LINE
  8
_1-0_
  6
CONTINUOUS
 62
    7
 10
51.940538561021953
 20
170.65946836729307
 11
47.140552417652032
 21
170.65946836729307
  0
LINE
  8
_1-0_
  6
CONTINUOUS
 62
    7
 10
47.140552417652032
 20
171.2594728212099
 11
51.940538561021953
 21
170.65946836729307
  0
LINE
  8
_1-0_
  6
CONTINUOUS
 62
    7
 10
107.74054449957771
 20
170.65946836729307
 11
107.74054449957771
 21
171.2594728212099
  0
LINE
  8
_1-0_
  6
CONTINUOUS
 62
    7
 10
107.74054449957771
 20
171.2594728212099
 11
112.54053064294764
 21
171.2594728212099
  0
LINE
  8
_1-0_
  6
CONTINUOUS
 62
    7
 10
112.54053064294764
 20
171.2594728212099
 11
112.54053064294764
 21
170.65946836729307
  0
LINE
  8
_1-0_
  6
CONTINUOUS
 62
    7
 10
112.54053064294764
 20
170.65946836729307
 11
107.74054449957771
 21
170.65946836729307
  0
LINE
  8
_1-0_
  6
CONTINUOUS
 62
    7
 10
107.74054449957771
 20
171.2594728212099
 11
112.54053064294764
 21
170.65946836729307
  0
LINE
  8
_1-0_
  6
CONTINUOUS
 62
    7
 10
168.34053658150339
 20
170.65946836729307
 11
168.34053658150339
 21
171.2594728212099
  0
LINE
  8
_1-0_
  6
CONTINUOUS
 62
    7
 10
168.34053658150339
 20
171.2594728212099
 11
173.14052272487331
 21
171.2594728212099
  0
LINE
  8
_1-0_
  6
CONTINUOUS
 62
    7
 10
173.14052272487331
 20
171.2594728212099
 11
173.14052272487331
 21
170.65946836729307
  0
LINE
  8
_1-0_
  6
CONTINUOUS
 62
    7
 10
173.14052272487331
 20
170.65946836729307
 11
168.34053658150339
 21
170.65946836729307
  0
LINE
  8
_1-0_
  6
CONTINUOUS
 62
    7
 10
168.34053658150339
 20
171.2594728212099
 11
173.14052272487331
 21
170.65946836729307
  0
LINE
  8
_1-0_
  6
CONTINUOUS
 62
    7
 10
228.94052866342906
 20
170.65946836729307
 11
228.94052866342906
 21
171.2594728212099
  0
LINE
  8
_1-0_
  6
CONTINUOUS
 62
    7
 10
228.94052866342906
 20
171.2594728212099
 11
233.74051480679901
 21
171.2594728212099
  0
LINE
  8
_1-0_
  6
CONTINUOUS
 62
    7
 10
233.74051480679901
 20
171.2594728212099
 11
233.74051480679901
 21
170.65946836729307
  0
LINE
  8
_1-0_
  6
CONTINUOUS
 62
    7
 10
233.74051480679901
 20
170.65946836729307
 11
228.94052866342906
 21
170.65946836729307
  0
LINE
  8
_1-0_
  6
CONTINUOUS
 62
    7
 10
228.94052866342906
 20
171.2594728212099
 11
233.74051480679901
 21
170.65946836729307
  0
LINE
  8
_1-1_
  6
CONTINUOUS
 62
    3
 10
49.340539880701016
 20
179.85947892472552
 11
49.340539880701016
 21
176.25947694520693
  0
LINE
  8
_1-1_
  6
CONTINUOUS
 62
    3
 10
110.54052404455237
 20
179.85947892472552
 11
110.54052404455237
 21
177.45947348104943
  0
LINE
  8
_1-1_
  6
CONTINUOUS
 62
    3
 10
49.340539880701016
 20
179.85947892472552
 11
50.540548788534636
 21
179.85947892472552
  0
LINE
  8
_1-1_
  6
CONTINUOUS
 62
    3
 10
100.67831503378379
 20
179.85947892472552
 11
110.54052404455237
 21
179.85947892472552
  0
LINE
  8
_1-1_
  6
CONTINUOUS
 62
    3
 10
102.54052239495356
 20
177.45947348104943
 11
99.540512497360652
 21
174.25947034681167
  0
LINE
  8
_1-1_
  6
CONTINUOUS
 62
    3
 10
108.94052866342906
 20
177.45947348104943
 11
108.94052866342906
 21
177.05947463576859
  0
LINE
  8
_1-1_
  6
CONTINUOUS
 62
    3
 10
108.14053097286741
 20
177.45947348104943
 11
108.14053097286741
 21
177.05947463576859
  0
LINE
  8
_1-1_
  6
CONTINUOUS
 62
    3
 10
106.54053559174409
 20
177.45947348104943
 11
106.54053559174409
 21
177.05947463576859
  0
LINE
  8
_1-1_
  6
CONTINUOUS
 62
    3
 10
105.74053790118244
 20
177.45947348104943
 11
105.74053790118244
 21
177.05947463576859
  0
LINE
  8
_1-1_
  6
CONTINUOUS
 62
    3
 10
102.54052239495356
 20
177.45947348104943
 11
105.74053790118244
 21
177.45947348104943
  0
LINE
  8
_1-1_
  6
CONTINUOUS
 62
    3
 10
106.54053559174409
 20
177.45947348104943
 11
108.14053097286741
 21
177.45947348104943
  0
LINE
  8
_1-1_
  6
CONTINUOUS
 62
    3
 10
108.94052866342906
 20
177.45947348104943
 11
110.54052404455237
 21
177.45947348104943
  0
LINE
  8
_1-1_
  6
CONTINUOUS
 62
    3
 10
105.74053790118244
 20
177.05947463576859
 11
106.54053559174409
 21
177.05947463576859
  0
LINE
  8
_1-1_
  6
CONTINUOUS
 62
    3
 10
108.14053097286741
 20
177.05947463576859
 11
108.94052866342906
 21
177.05947463576859
  0
LINE
  8
_1-1_
  6
CONTINUOUS
 62
    3
 10
54.140550768053203
 20
177.25946787241344
 11
97.940517116237331
 21
177.25946787241344
  0
LINE
  8
ADD_LINE
  6
DOT
 62
    3
 10
49.540545489337006
 20
174.71588547165331
 11
49.540545489337006
 21
173.89319754935602
  0
LINE
  8
_1-1_
  6
CONTINUOUS
 62
    3
 10
102.74052800358953
 20
176.8594690271326
 11
102.74052800358953
 21
174.25947034681167
  0
LINE
  8
_1-1_
  6
CONTINUOUS
 62
    3
 10
110.54052404455237
 20
179.85947892472552
 11
110.54052404455237
 21
176.25947694520693
  0
LINE
  8
_1-1_
  6
CONTINUOUS
 62
    3
 10
171.74050820840372
 20
179.85947892472552
 11
171.74050820840372
 21
177.45947348104943
  0
LINE
  8
_1-1_
  6
CONTINUOUS
 62
    3
 10
102.74052800358953
 20
174.25947034681167
 11
160.74050903320312
 21
174.25947034681167
  0
LINE
  8
_1-1_
  6
CONTINUOUS
 62
    3
 10
110.54052404455237
 20
179.85947892472552
 11
111.74055769636826
 21
179.85947892472552
  0
LINE
  8
_1-1_
  6
CONTINUOUS
 62
    3
 10
161.87831156962628
 20
179.85947892472552
 11
171.74050820840372
 21
179.85947892472552
  0
LINE
  8
_1-1_
  6
CONTINUOUS
 62
    3
 10
163.7405065588049
 20
177.45947348104943
 11
160.74050903320312
 21
174.25947034681167
  0
LINE
  8
_1-1_
  6
CONTINUOUS
 62
    3
 10
170.14051282728042
 20
177.45947348104943
 11
170.14051282728042
 21
177.05947463576859
  0
LINE
  8
_1-1_
  6
CONTINUOUS
 62
    3
 10
169.34051513671875
 20
177.45947348104943
 11
169.34051513671875
 21
177.05947463576859
  0
LINE
  8
_1-1_
  6
CONTINUOUS
 62
    3
 10
167.74051975559544
 20
177.45947348104943
 11
167.74051975559544
 21
177.05947463576859
  0
LINE
  8
_1-1_
  6
CONTINUOUS
 62
    3
 10
166.9405220650338
 20
177.45947348104943
 11
166.9405220650338
 21
177.05947463576859
  0
LINE
  8
_1-1_
  6
CONTINUOUS
 62
    3
 10
163.7405065588049
 20
177.45947348104943
 11
166.9405220650338
 21
177.45947348104943
  0
LINE
  8
_1-1_
  6
CONTINUOUS
 62
    3
 10
167.74051975559544
 20
177.45947348104943
 11
169.34051513671875
 21
177.45947348104943
  0
LINE
  8
_1-1_
  6
CONTINUOUS
 62
    3
 10
170.14051282728042
 20
177.45947348104943
 11
171.74050820840372
 21
177.45947348104943
  0
LINE
  8
_1-1_
  6
CONTINUOUS
 62
    3
 10
166.9405220650338
 20
177.05947463576859
 11
167.74051975559544
 21
177.05947463576859
  0
LINE
  8
_1-1_
  6
CONTINUOUS
 62
    3
 10
169.34051513671875
 20
177.05947463576859
 11
170.14051282728042
 21
177.05947463576859
  0
LINE
  8
_1-1_
  6
CONTINUOUS
 62
    3
 10
115.34053493190457
 20
177.25946787241344
 11
159.1405012800887
 21
177.25946787241344
  0
LINE
  8
_1-1_
  6
CONTINUOUS
 62
    3
 10
103.94051216744089
 20
176.8594690271326
 11
104.22459782780828
 21
176.25947694520693
  0
LINE
  8
_1-1_
  6
CONTINUOUS
 62
    3
 10
102.74052800358953
 20
176.8594690271326
 11
103.94051216744089
 21
176.8594690271326
  0
LINE
  8
_1-1_
  6
CONTINUOUS
 62
    3
 10
104.22459782780828
 20
176.25947694520693
 11
110.54052404455237
 21
176.25947694520693
  0
LINE
  8
_1-1_
  6
CONTINUOUS
 62
    3
 10
163.94052453943203
 20
176.8594690271326
 11
163.94052453943203
 21
174.25947034681167
  0
LINE
  8
_1-1_
  6
CONTINUOUS
 62
    3
 10
171.74050820840372
 20
179.85947892472552
 11
171.74050820840372
 21
176.25947694520693
  0
LINE
  8
_1-1_
  6
CONTINUOUS
 62
    3
 10
232.94049237225508
 20
179.85947892472552
 11
232.94049237225508
 21
177.45947348104943
  0
LINE
  8
_1-0_
  6
CONTINUOUS
 62
    3
 10
163.94052453943203
 20
174.25947034681167
 11
221.94050556904563
 21
174.25947034681167
  0
LINE
  8
_1-1_
  6
CONTINUOUS
 62
    3
 10
171.74050820840372
 20
179.85947892472552
 11
172.94054186021961
 21
179.85947892472552
  0
LINE
  8
_1-1_
  6
CONTINUOUS
 62
    3
 10
223.07830810546875
 20
179.85947892472552
 11
232.94049237225508
 21
179.85947892472552
  0
LINE
  8
_1-1_
  6
CONTINUOUS
 62
    3
 10
224.94051546663852
 20
177.45947348104943
 11
221.94050556904563
 21
174.25947034681167
  0
LINE
  8
_1-1_
  6
CONTINUOUS
 62
    3
 10
231.34049699113177
 20
177.45947348104943
 11
231.34049699113177
 21
177.05947463576859
  0
LINE
  8
_1-1_
  6
CONTINUOUS
 62
    3
 10
230.54052404455237
 20
177.45947348104943
 11
230.54052404455237
 21
177.05947463576859
  0
LINE
  8
_1-1_
  6
CONTINUOUS
 62
    3
 10
228.94052866342906
 20
177.45947348104943
 11
228.94052866342906
 21
177.05947463576859
  0
LINE
  8
_1-1_
  6
CONTINUOUS
 62
    3
 10
228.14050622888516
 20
177.45947348104943
 11
228.14050622888516
 21
177.05947463576859
  0
LINE
  8
_1-1_
  6
CONTINUOUS
 62
    3
 10
224.94051546663852
 20
177.45947348104943
 11
228.14050622888516
 21
177.45947348104943
  0
LINE
  8
_1-1_
  6
CONTINUOUS
 62
    3
 10
228.94052866342906
 20
177.45947348104943
 11
230.54052404455237
 21
177.45947348104943
  0
LINE
  8
_1-1_
  6
CONTINUOUS
 62
    3
 10
231.34049699113177
 20
177.45947348104943
 11
232.94049237225508
 21
177.45947348104943
  0
LINE
  8
_1-1_
  6
CONTINUOUS
 62
    3
 10
228.14050622888516
 20
177.05947463576859
 11
228.94052866342906
 21
177.05947463576859
  0
LINE
  8
_1-1_
  6
CONTINUOUS
 62
    3
 10
230.54052404455237
 20
177.05947463576859
 11
231.34049699113177
 21
177.05947463576859
  0
LINE
  8
_1-1_
  6
CONTINUOUS
 62
    3
 10
176.54054383973818
 20
177.25946787241344
 11
220.34051018792232
 21
177.25946787241344
  0
LINE
  8
_1-1_
  6
CONTINUOUS
 62
    3
 10
165.14050870328336
 20
176.8594690271326
 11
165.42459436365078
 21
176.25947694520693
  0
LINE
  8
_1-1_
  6
CONTINUOUS
 62
    3
 10
163.94052453943203
 20
176.8594690271326
 11
165.14050870328336
 21
176.8594690271326
  0
LINE
  8
_1-1_
  6
CONTINUOUS
 62
    3
 10
165.42459436365078
 20
176.25947694520693
 11
171.74050820840372
 21
176.25947694520693
  0
LINE
  8
_1-1_
  6
CONTINUOUS
 62
    3
 10
225.14052107527451
 20
176.8594690271326
 11
225.14052107527451
 21
174.25947034681167
  0
LINE
  8
_1-1_
  6
CONTINUOUS
 62
    3
 10
232.94051711623734
 20
179.85947892472552
 11
232.94051711623734
 21
176.25947694520693
  0
LINE
  8
_1-1_
  6
CONTINUOUS
 62
    3
 10
294.1405012800887
 20
179.85947892472552
 11
294.1405012800887
 21
177.45947348104943
  0
LINE
  8
_1-0_
  6
CONTINUOUS
 62
    3
 10
225.14052107527451
 20
174.25947034681167
 11
283.14048973289698
 21
174.25947034681167
  0
LINE
  8
_1-1_
  6
CONTINUOUS
 62
    3
 10
232.94051711623734
 20
179.85947892472552
 11
234.14052602407097
 21
179.85947892472552
  0
LINE
  8
_1-1_
  6
CONTINUOUS
 62
    3
 10
284.2783170133024
 20
179.85947892472552
 11
294.1405012800887
 21
179.85947892472552
  0
LINE
  8
_1-1_
  6
CONTINUOUS
 62
    3
 10
286.1404996304899
 20
177.45947348104943
 11
283.14048973289698
 21
174.25947034681167
  0
LINE
  8
_1-1_
  6
CONTINUOUS
 62
    3
 10
292.54050589896536
 20
177.45947348104943
 11
292.54050589896536
 21
177.05947463576859
  0
LINE
  8
_1-1_
  6
CONTINUOUS
 62
    3
 10
291.74050820840375
 20
177.45947348104943
 11
291.74050820840375
 21
177.05947463576859
  0
LINE
  8
_1-1_
  6
CONTINUOUS
 62
    3
 10
290.14051282728042
 20
177.45947348104943
 11
290.14051282728042
 21
177.05947463576859
  0
LINE
  8
_1-1_
  6
CONTINUOUS
 62
    3
 10
289.34051513671875
 20
177.45947348104943
 11
289.34051513671875
 21
177.05947463576859
  0
LINE
  8
_1-1_
  6
CONTINUOUS
 62
    3
 10
286.1404996304899
 20
177.45947348104943
 11
289.34051513671875
 21
177.45947348104943
  0
LINE
  8
_1-1_
  6
CONTINUOUS
 62
    3
 10
290.14051282728042
 20
177.45947348104943
 11
291.74050820840375
 21
177.45947348104943
  0
LINE
  8
_1-1_
  6
CONTINUOUS
 62
    3
 10
292.54050589896536
 20
177.45947348104943
 11
294.1405012800887
 21
177.45947348104943
  0
LINE
  8
_1-1_
  6
CONTINUOUS
 62
    3
 10
289.34051513671875
 20
177.05947463576859
 11
290.14051282728042
 21
177.05947463576859
  0
LINE
  8
_1-1_
  6
CONTINUOUS
 62
    3
 10
291.74050820840375
 20
177.05947463576859
 11
292.54050589896536
 21
177.05947463576859
  0
LINE
  8
_1-1_
  6
CONTINUOUS
 62
    3
 10
237.74052800358953
 20
177.25946787241344
 11
281.54049435177365
 21
177.25946787241344
  0
LINE
  8
_1-1_
  6
CONTINUOUS
 62
    3
 10
226.34050523912586
 20
176.8594690271326
 11
226.62459089949326
 21
176.25947694520693
  0
LINE
  8
_1-1_
  6
CONTINUOUS
 62
    3
 10
225.14052107527451
 20
176.8594690271326
 11
226.34050523912586
 21
176.8594690271326
  0
LINE
  8
_1-1_
  6
CONTINUOUS
 62
    3
 10
226.62459089949326
 20
176.25947694520693
 11
232.94051711623734
 21
176.25947694520693
  0
LINE
  8
_1-0_
  6
CONTINUOUS
 62
    3
 10
225.14052107527451
 20
174.25947034681167
 11
283.14048973289698
 21
174.25947034681167
  0
LINE
  8
_1-1_
  6
CONTINUOUS
 62
    7
 10
221.94050556904563
 20
174.25947034681167
 11
225.14052107527451
 21
174.25947034681167
  0
LINE
  8
_1-0_
  6
CONTINUOUS
 62
    3
 10
163.94052453943203
 20
174.25947034681167
 11
221.94050556904563
 21
174.25947034681167
  0
LINE
  8
_1-1_
  6
CONTINUOUS
 62
    7
 10
160.74050903320312
 20
174.25947034681167
 11
163.94052453943203
 21
174.25947034681167
  0
LINE
  8
_1-0_
  6
CONTINUOUS
 62
    3
 10
47.140552417652032
 20
174.25947034681167
 11
99.540512497360652
 21
174.25947034681167
  0
LINE
  8
_1-0_
  6
CONTINUOUS
 62
    3
 10
102.74052800358953
 20
174.25947034681167
 11
160.74050903320312
 21
174.25947034681167
  0
LINE
  8
_1-1_
  6
CONTINUOUS
 62
    7
 10
102.74052800358953
 20
174.25947034681167
 11
99.540512497360652
 21
174.25947034681167
  0
LINE
  8
_1-2_
  6
CONTINUOUS
 62
    7
 10
165.96108101509714
 20
177.17077306798987
 11
197.58827003272805
 21
90.27581498429582
  0
LINE
  8
_1-2_
  6
CONTINUOUS
 62
    7
 10
197.58827003272805
 20
90.27581498429582
 11
203.51351351351352
 21
90.27581498429582
  0
LINE
  8
_0-1_
  6
CONTINUOUS
 62
    7
 10
184.84930090002112
 20
125.27581292229731
 11
203.51351351351352
 21
125.27581292229731
  0
LINE
  8
_0-1_
  6
CONTINUOUS
 62
    7
 10
187.39708977776607
 20
118.27581457189612
 11
203.51351351351352
 21
118.27581457189612
  0
LINE
  8
_0-1_
  6
CONTINUOUS
 62
    7
 10
189.94490339949326
 20
111.27581622149494
 11
203.51351351351352
 21
111.27581622149494
  0
LINE
  8
_0-1_
  6
CONTINUOUS
 62
    7
 10
192.49269227723818
 20
104.27581787109375
 11
203.51351351351352
 21
104.27581787109375
  0
LINE
  8
_0-1_
  6
CONTINUOUS
 62
    7
 10
195.04048115498313
 20
97.275813334697006
 11
203.51351351351352
 21
97.275813334697006
  0
LINE
  8
_1-1_
  6
CONTINUOUS
 62
    3
 10
287.03744424356
 20
179.85947892472552
 11
285.83743533572635
 21
179.85947892472552
  0
LINE
  8
_1-1_
  6
CONTINUOUS
 62
    3
 10
294.14052602407094
 20
179.85947892472552
 11
294.14052602407094
 21
177.45947348104943
  0
LINE
  8
_1-0_
  6
CONTINUOUS
 62
    7
 10
52.54053064294763
 20
167.05945401578336
 11
46.084726694467918
 21
160.60365006730365
  0
LINE
  8
_1-1_
  6
CONTINUOUS
 62
    3
 10
46.084726694467918
 20
174.25947034681167
 11
99.540512497360652
 21
174.25947034681167
  0
LINE
  8
_1-1_
  6
CONTINUOUS
 62
    3
 10
46.084726694467918
 20
176.25947694520693
 11
49.340539880701016
 21
176.25947694520693
  0
LINE
  8
_1-0_
  6
CONTINUOUS
 62
    7
 10
52.54053064294763
 20
155.05945154138513
 11
46.084726694467918
 21
155.05945154138513
  0
LINE
  8
_1-0_
  6
CONTINUOUS
 62
    7
 10
46.084726694467918
 20
167.05945401578336
 11
52.54053064294763
 21
167.05945401578336
  0
LINE
  8
_1-0_
  6
CONTINUOUS
 62
    7
 10
46.084726694467918
 20
153.85945500554266
 11
295.34053493190459
 21
153.85945500554266
  0
LINE
  8
_1-0_
  6
CONTINUOUS
 62
    7
 10
46.084726694467918
 20
155.05945154138513
 11
295.34053493190459
 21
155.05945154138513
  0
LINE
  8
_1-0_
  6
CONTINUOUS
 62
    7
 10
46.084726694467918
 20
167.05945401578336
 11
295.34053493190459
 21
167.05945401578336
  0
LINE
  8
_1-0_
  6
CONTINUOUS
 62
    7
 10
46.084726694467918
 20
169.45945945945948
 11
295.34053493190459
 21
169.45945945945948
  0
LINE
  8
_1-0_
  6
DASHED1
 62
    3
 10
46.084726694467918
 20
170.05946391337628
 11
294.91929337785052
 21
170.05946391337628
  0
LINE
  8
_1-0_
  6
CONTINUOUS
 62
    2
 10
276.46988327438771
 20
170.3423123746305
 11
294.46989317198057
 21
170.3423123746305
  0
LINE
  8
_1-0_
  6
CONTINUOUS
 62
    2
 10
276.46988327438771
 20
173.8715341928843
 11
276.46988327438771
 21
170.3423123746305
  0
LINE
  8
_1-0_
  6
CONTINUOUS
 62
    2
 10
276.46988327438771
 20
173.8715341928843
 11
278.64859091269005
 21
173.8715341928843
  0
LINE
  8
_1-0_
  6
CONTINUOUS
 62
    7
 10
47.140552417652032
 20
171.2594728212099
 11
276.08706912478885
 21
171.2594728212099
  0
LINE
  8
_1-0_
  6
CONTINUOUS
 62
    7
 10
47.140552417652032
 20
170.65946836729307
 11
276.08706912478885
 21
170.65946836729307
  0
LINE
  8
_1-0_
  6
CONTINUOUS
 62
    7
 10
276.08706912478885
 20
170.65946836729307
 11
276.08706912478885
 21
174.25947034681167
  0
LINE
  8
_1-0_
  6
CONTINUOUS
 62
    7
 10
271.28708298141896
 20
170.65946836729307
 11
271.28708298141896
 21
171.2594728212099
  0
LINE
  8
_1-0_
  6
CONTINUOUS
 62
    7
 10
271.28708298141896
 20
171.2594728212099
 11
276.08706912478885
 21
171.2594728212099
  0
LINE
  8
_1-0_
  6
CONTINUOUS
 62
    7
 10
276.08706912478885
 20
171.2594728212099
 11
276.08706912478885
 21
170.65946836729307
  0
LINE
  8
_1-0_
  6
CONTINUOUS
 62
    7
 10
276.08706912478885
 20
170.65946836729307
 11
271.28708298141896
 21
170.65946836729307
  0
LINE
  8
_1-0_
  6
CONTINUOUS
 62
    7
 10
271.28708298141896
 20
171.2594728212099
 11
276.08706912478885
 21
170.65946836729307
  0
LINE
  8
_1-0_
  6
DASHED1
 62
    3
 10
294.91929337785052
 20
170.05946391337628
 11
294.91929337785052
 21
230.05945154138516
  0
LINE
  8
_1-0_
  6
CONTINUOUS
 62
    2
 10
294.46989317198057
 20
170.3423123746305
 11
294.46989317198057
 21
200.3423123746305
  0
LINE
  8
_1-0_
  6
CONTINUOUS
 62
    2
 10
294.46989317198057
 20
200.3423123746305
 11
294.24135775179479
 21
199.2022705078125
  0
LINE
  8
_1-0_
  6
CONTINUOUS
 62
    7
 10
295.34053493190459
 20
94.86486486486487
 11
295.34053493190459
 21
248.27681257918076
  0
LINE
  8
_1-0_
  6
CONTINUOUS
 62
    2
 10
272.92909364442568
 20
182.85946407833615
 11
272.92909364442568
 21
179.56250164959883
  0
LINE
  8
_1-0_
  6
CONTINUOUS
 62
    2
 10
272.92909364442568
 20
182.85946407833615
 11
293.92908869562922
 21
182.85946407833615
  0
LINE
  8
_1-0_
  6
CONTINUOUS
 62
    7
 10
290.91930492504224
 20
187.8594682023332
 11
290.91930492504224
 21
248.27681257918076
  0
LINE
  8
_1-0_
  6
CONTINUOUS
 62
    7
 10
288.51931185335729
 20
187.8594682023332
 11
290.91930492504224
 21
187.8594682023332
  0
LINE
  8
_1-0_
  6
CONTINUOUS
 62
    7
 10
288.51931185335729
 20
187.8594682023332
 11
288.51931185335729
 21
248.27681257918076
  0
LINE
  8
_1-0_
  6
CONTINUOUS
 62
    7
 10
275.52562816722974
 20
182.85946407833615
 11
275.52562816722974
 21
177.25946787241344
  0
LINE
  8
_1-0_
  6
CONTINUOUS
 62
    7
 10
280.52561991923568
 20
182.85946407833615
 11
280.52561991923568
 21
177.25946787241344
  0
LINE
  8
_1-0_
  6
CONTINUOUS
 62
    7
 10
279.9313684411951
 20
177.25946787241344
 11
280.52561991923568
 21
177.85371935045399
  0
LINE
  8
_1-0_
  6
CONTINUOUS
 62
    7
 10
279.08282305743245
 20
177.25946787241344
 11
280.52561991923568
 21
178.70225236222552
  0
LINE
  8
_1-0_
  6
CONTINUOUS
 62
    7
 10
278.23430241765203
 20
177.25946787241344
 11
280.52561991923568
 21
179.55077300200591
  0
LINE
  8
_1-0_
  6
CONTINUOUS
 62
    7
 10
277.38578177787161
 20
177.25946787241344
 11
280.52561991923568
 21
180.39929364178633
  0
LINE
  8
_1-0_
  6
CONTINUOUS
 62
    7
 10
276.53726113809125
 20
177.25946787241344
 11
280.52561991923568
 21
181.24781428156675
  0
LINE
  8
_1-0_
  6
CONTINUOUS
 62
    7
 10
275.68874049831084
 20
177.25946787241344
 11
280.52561991923568
 21
182.09633492134714
  0
LINE
  8
_1-0_
  6
CONTINUOUS
 62
    7
 10
275.52562816722974
 20
177.94487618111276
 11
280.44020369246203
 21
182.85946407833615
  0
LINE
  8
_1-0_
  6
CONTINUOUS
 62
    7
 10
275.52562816722974
 20
178.79339682089318
 11
279.59170779666385
 21
182.85946407833615
  0
LINE
  8
_1-0_
  6
CONTINUOUS
 62
    7
 10
275.52562816722974
 20
179.64192983266472
 11
278.7431624129012
 21
182.85946407833615
  0
LINE
  8
_1-0_
  6
CONTINUOUS
 62
    7
 10
275.52562816722974
 20
180.4904504724451
 11
277.89464177312078
 21
182.85946407833615
  0
LINE
  8
_1-0_
  6
CONTINUOUS
 62
    7
 10
275.52562816722974
 20
181.33897111222552
 11
277.04612113334036
 21
182.85946407833615
  0
LINE
  8
_1-0_
  6
CONTINUOUS
 62
    7
 10
275.52562816722974
 20
182.18751649598818
 11
276.19757574957771
 21
182.85946407833615
  0
LINE
  8
_1-0_
  6
CONTINUOUS
 62
    7
 10
275.52562816722974
 20
177.58829065271328
 11
275.85445094752959
 21
177.25946787241344
  0
LINE
  8
_1-0_
  6
CONTINUOUS
 62
    7
 10
275.52562816722974
 20
178.43681129249367
 11
276.70297158731
 21
177.25946787241344
  0
LINE
  8
_1-0_
  6
CONTINUOUS
 62
    7
 10
275.52562816722974
 20
179.28533193227409
 11
277.55149222709036
 21
177.25946787241344
  0
LINE
  8
_1-0_
  6
CONTINUOUS
 62
    7
 10
275.52562816722974
 20
180.13384020006336
 11
278.39998812288854
 21
177.25946787241344
  0
LINE
  8
_1-0_
  6
CONTINUOUS
 62
    7
 10
275.52562816722974
 20
180.98236083984375
 11
279.24850876266896
 21
177.25946787241344
  0
LINE
  8
_1-0_
  6
CONTINUOUS
 62
    7
 10
275.52562816722974
 20
181.83088147962417
 11
280.09702940244932
 21
177.25946787241344
  0
LINE
  8
_1-0_
  6
CONTINUOUS
 62
    7
 10
275.52562816722974
 20
182.67937737542232
 11
280.52561991923568
 21
177.67939799540753
  0
LINE
  8
_1-0_
  6
CONTINUOUS
 62
    7
 10
276.1940621040963
 20
182.85946407833615
 11
280.52561991923568
 21
178.5279062631968
  0
LINE
  8
_1-0_
  6
CONTINUOUS
 62
    7
 10
277.04258274387672
 20
182.85946407833615
 11
280.52561991923568
 21
179.37642690297722
  0
LINE
  8
_1-0_
  6
CONTINUOUS
 62
    7
 10
277.89110338365708
 20
182.85946407833615
 11
280.52561991923568
 21
180.2249475427576
  0
LINE
  8
_1-0_
  6
CONTINUOUS
 62
    7
 10
278.7396240234375
 20
182.85946407833615
 11
280.52561991923568
 21
181.07346818253802
  0
LINE
  8
_1-0_
  6
CONTINUOUS
 62
    7
 10
279.58814466321792
 20
182.85946407833615
 11
280.52561991923568
 21
181.92198882231841
  0
LINE
  8
_1-0_
  6
CONTINUOUS
 62
    7
 10
280.43666530299834
 20
182.85946407833615
 11
280.52561991923568
 21
182.77050946209883
  0
LINE
  8
_1-0_
  6
CONTINUOUS
 62
    7
 10
283.3405448294975
 20
167.05945401578336
 11
283.3405448294975
 21
155.05945154138513
  0
LINE
  8
_1-0_
  6
CONTINUOUS
 62
    7
 10
295.34053493190459
 20
167.05945401578336
 11
283.3405448294975
 21
155.05945154138513
  0
LINE
  8
_1-3_
  6
CONTINUOUS
 62
    7
 10
369.26013843433282
 20
230.05945154138516
 11
369.26013843433282
 21
170.05946391337628
  0
LINE
  8
_1-3_
  6
CONTINUOUS
 62
    7
 10
306.51466988228464
 20
230.05945154138516
 11
369.26013843433282
 21
230.05945154138516
  0
LINE
  8
_1-3_
  6
CONTINUOUS
 62
    7
 10
306.51466988228464
 20
170.05946391337628
 11
369.26013843433282
 21
170.05946391337628
  0
LINE
  8
_1-3_
  6
CONTINUOUS
 62
    7
 10
351.08108108108109
 20
170.05946391337628
 11
351.08108108108109
 21
200.3423123746305
  0
LINE
  8
_1-3_
  6
CONTINUOUS
 62
    7
 10
306.51466988228464
 20
170.05946391337628
 11
351.08108108108109
 21
170.05946391337628
  0
LINE
  8
_1-3_
  6
CONTINUOUS
 62
    7
 10
306.51466988228464
 20
200.3423123746305
 11
351.08108108108109
 21
200.3423123746305
  0
LINE
  8
_1-3_
  6
CONTINUOUS
 62
    7
 10
337.69329998944261
 20
182.85946407833615
 11
337.69329998944261
 21
204.85946242873734
  0
LINE
  8
_1-3_
  6
CONTINUOUS
 62
    7
 10
306.51466988228464
 20
182.85946407833615
 11
337.69329998944261
 21
182.85946407833615
  0
LINE
  8
_1-3_
  6
CONTINUOUS
 62
    7
 10
255.3405266839105
 20
133.7837837837838
 11
295.34053493190459
 21
133.7837837837838
  0
LINE
  8
_1-3_
  6
CONTINUOUS
 62
    7
 10
255.3405266839105
 20
145.94594594594597
 11
255.3405266839105
 21
133.7837837837838
  0
LINE
  8
_1-3_
  6
CONTINUOUS
 62
    7
 10
295.34053493190459
 20
145.94594594594597
 11
295.34053493190459
 21
133.7837837837838
  0
LINE
  8
_1-3_
  6
CONTINUOUS
 62
    7
 10
317.83783783783787
 20
230.05945154138516
 11
315.88551289326438
 21
226.67793892525339
  0
LINE
  8
_1-3_
  6
CONTINUOUS
 62
    7
 10
317.83783783783787
 20
230.05945154138516
 11
319.79016278241136
 21
226.67793892525339
  0
LINE
  8
_1-3_
  6
CONTINUOUS
 62
    7
 10
255.3405266839105
 20
120
 11
258.27825597814615
 21
121.69610100823481
  0
LINE
  8
_1-3_
  6
CONTINUOUS
 62
    7
 10
255.3405266839105
 20
120
 11
258.27825597814615
 21
118.30389899176521
  0
LINE
  8
_1-3_
  6
CONTINUOUS
 62
    7
 10
255.3405266839105
 20
133.7837837837838
 11
255.3405266839105
 21
120
  0
LINE
  8
_1-3_
  6
CONTINUOUS
 62
    7
 10
307.83782958984375
 20
120
 11
255.3405266839105
 21
120
  0
LINE
  8
_1-3_
  6
CONTINUOUS
 62
    7
 10
317.83783783783787
 20
129.99999587600297
 11
317.83783783783787
 21
230.05945154138516
  0
LINE
  8
_1-3_
  6
CONTINUOUS
 62
    7
 10
317.83783783783787
 20
134.59459459459461
 11
325.13513513513516
 21
138.64864864864865
  0
LINE
  8
_1-3_
  6
CONTINUOUS
 62
    7
 10
317.83783783783787
 20
134.59459459459461
 11
333.24324324324328
 21
134.59459459459461
  0
LINE
  8
_1-3_
  6
CONTINUOUS
 62
    7
 10
289.22154606999578
 20
220.38245123785896
 11
279.2923303552576
 21
247.66274117134714
  0
LINE
  8
_1-3_
  6
CONTINUOUS
 62
    7
 10
285.83743533572635
 20
182.85946407833615
 11
268.31025819520693
 21
231.01498990445526
  0
LINE
  8
_1-3_
  6
CONTINUOUS
 62
    7
 10
277.92581919077281
 20
180.16324842298354
 11
264.35953501108531
 21
217.43633373363599
  0
LINE
  8
_1-3_
  6
CONTINUOUS
 62
    7
 10
279.26780906883448
 20
170.3423123746305
 11
264.91389918971709
 21
209.77935791015625
  0
LINE
  8
_1-3_
  6
CONTINUOUS
 62
    7
 10
279.2923303552576
 20
247.66274117134714
 11
275.29234190244932
 21
247.66274117134714
  0
LINE
  8
_1-3_
  6
CONTINUOUS
 62
    7
 10
268.31025819520693
 20
231.01498990445526
 11
264.31026974239865
 21
231.01498990445526
  0
LINE
  8
_1-3_
  6
CONTINUOUS
 62
    7
 10
264.35953501108531
 20
217.43633373363599
 11
260.35954655827703
 21
217.43633373363599
  0
LINE
  8
_1-3_
  6
CONTINUOUS
 62
    7
 10
264.91389918971709
 20
209.77935791015625
 11
260.9139107369088
 21
209.77935791015625
  0
LINE
  8
_0-0_
  6
CONTINUOUS
 62
    5
 10
412.43244892842063
 20
28.513511451515001
 11
12.432415936444272
 21
28.513511451515001
  0
LINE
  8
_1-3_
  6
CONTINUOUS
 62
    5
 10
412.43244892842063
 20
8.5135135135135158
 11
12.432415936444272
 21
8.5135135135135158
  0
LINE
  8
_1-3_
  6
CONTINUOUS
 62
    7
 10
337.69329998944261
 20
204.85946242873734
 11
337.69329998944261
 21
230.05945154138516
  0
LINE
  8
_1-3_
  6
CONTINUOUS
 62
    7
 10
337.69329998944261
 20
230.05945154138516
 11
335.74097504486912
 21
226.67793892525339
  0
LINE
  8
_1-3_
  6
CONTINUOUS
 62
    7
 10
337.69329998944261
 20
230.05945154138516
 11
339.64562493401604
 21
226.67793892525339
  0
LINE
  8
_1-3_
  6
CONTINUOUS
 62
    7
 10
337.85359150654563
 20
214.71093255120357
 11
346.62857468063771
 21
247.45961782094597
  0
LINE
  8
_1-3_
  6
CONTINUOUS
 62
    7
 10
346.62857468063771
 20
247.45961782094597
 11
350.13798894108953
 21
247.45961782094597
  0
LINE
  8
_1-3_
  6
CONTINUOUS
 62
    7
 10
336.90864356788433
 20
190.70910891971073
 11
347.19283645217484
 21
152.32800045528927
  0
LINE
  8
_1-3_
  6
CONTINUOUS
 62
    7
 10
347.19283645217484
 20
152.32800045528927
 11
350.70497255067568
 21
152.32800045528927
  0
LINE
  8
_1-0_
  6
CONTINUOUS
 62
    7
 10
290.91930492504224
 20
212.129467113598
 11
294.79485589104729
 21
212.129467113598
  0
LINE
  8
_1-0_
  6
CONTINUOUS
 62
    7
 10
294.79485589104729
 20
220.1294687631968
 11
294.79485589104729
 21
212.129467113598
  0
LINE
  8
_1-0_
  6
CONTINUOUS
 62
    7
 10
290.91930492504224
 20
220.1294687631968
 11
294.79485589104729
 21
220.1294687631968
  0
LINE
  8
_1-0_
  6
CONTINUOUS
 62
    7
 10
294.79485589104729
 20
220.1294687631968
 11
290.91930492504224
 21
212.129467113598
  0
LINE
  8
_1-3_
  6
CONTINUOUS
 62
    7
 10
306.51466988228464
 20
206.85945665514149
 11
337.69329998944261
 21
206.85945665514149
  0
LINE
  8
_1-0_
  6
CONTINUOUS
 62
    2
 10
293.92908869562922
 20
182.85946407833615
 11
293.92908869562922
 21
206.85945665514149
  0
LINE
  8
_1-3_
  6
CONTINUOUS
 62
    7
 10
337.69329998944261
 20
206.85945665514149
 11
335.74097504486912
 21
210.24098164326438
  0
LINE
  8
_1-3_
  6
CONTINUOUS
 62
    7
 10
337.69329998944261
 20
206.85945665514149
 11
339.64562493401604
 21
210.24098164326438
  0
ARC
  8
_1-1_
  6
CONTINUOUS
 62
    3
 10
54.386679159628386
 20
181.39254183382602
 40
4.1404008865356445
 50
201.73239135742187
 51
266.59201049804687
  0
ARC
  8
_1-1_
  6
CONTINUOUS
 62
    3
 10
97.935889991554063
 20
180.00581483583193
 40
2.7463450302948824
 50
270.09652709960937
 51
356.94560241699224
  0
ARC
  8
_1-1_
  6
CONTINUOUS
 62
    3
 10
115.58666332347974
 20
181.39254183382602
 40
4.1404008865356445
 50
201.73239135742187
 51
266.59201049804687
  0
ARC
  8
_1-1_
  6
CONTINUOUS
 62
    3
 10
159.13587415540542
 20
180.00581483583193
 40
2.7463450302948824
 50
270.09652709960937
 51
356.94560241699224
  0
ARC
  8
_1-1_
  6
CONTINUOUS
 62
    3
 10
176.78664748733109
 20
181.39254183382602
 40
4.1404008865356445
 50
201.73239135742187
 51
266.59201049804687
  0
ARC
  8
_1-1_
  6
CONTINUOUS
 62
    3
 10
220.33585831925677
 20
180.00581483583193
 40
2.7463450302948824
 50
270.09652709960937
 51
356.94560241699224
  0
ARC
  8
_1-1_
  6
CONTINUOUS
 62
    3
 10
237.98665639516472
 20
181.39254183382602
 40
4.1404008865356445
 50
201.73239135742187
 51
266.59201049804687
  0
ARC
  8
_1-1_
  6
CONTINUOUS
 62
    3
 10
281.53586722709036
 20
180.00581483583193
 40
2.7463450302948824
 50
270.09652709960937
 51
356.94560241699224
  0
ARC
  8
_1-3_
  6
CONTINUOUS
 62
    7
 10
307.83782958984375
 20
129.99999587600297
 40
9.9999997422501856
 50
270
 51
0
  0
TEXT
  8
_0-0_
 62
    7
 10
147.56756962956609
 20
22.702702702702709
 40
2.5
 41
1
 50
0
  1
図名
  0
TEXT
  8
_0-0_
 62
    7
 10
147.56756962956609
 20
12.972972972972968
 40
2.5
 41
1
 50
0
  1
縮尺
  0
TEXT
  8
_0-0_
 62
    7
 10
382.77784605284
 20
21.243871740392734
 40
2.5
 41
1
 50
0
  1
ＮＯ
  0
TEXT
  8
_0-0_
 62
    7
 10
31.231870393495313
 20
18.589955922719582
 40
2.5
 41
1
 50
0
  1
木造
  0
TEXT
  8
_0-0_
 62
    7
 10
20.270270012520456
 20
22.702702702702709
 40
2.5
 41
1
 50
0
  1
Ｆ形
  0
TEXT
  8
_0-0_
 62
    7
 10
389.99062615471917
 20
16.178650211643514
 40
2.5
 41
1
 50
0
  1
Ｆ
  0
TEXT
  8
_0-0_
 62
    7
 10
171.37221877639359
 20
12.362518826046511
 40
2.5
 41
1
 50
0
  1
1/5
  0
TEXT
  8
_0-1_
 62
    7
 10
207.90878295898437
 20
123.33247004328548
 40
2.5
 41
1
 50
0
  1
桟瓦
  0
TEXT
  8
_0-1_
 62
    7
 10
207.90878295898437
 20
95.126266479492187
 40
2.5
 41
1
 50
0
  1
野地板　　ｔ＝12
  0
TEXT
  8
_0-0_
 62
    7
 10
45.397583729511979
 20
13.77361400707349
 40
2.5
 41
1
 50
0
  1
壁際　2
  0
TEXT
  8
_1-3_
 62
    7
 10
350.58107943148229
 20
183.32588814400339
 40
2.5
 41
1
 50
90
  1
150
  0
TEXT
  8
_1-3_
 62
    7
 10
273.46554317989865
 20
134.2837854333826
 40
2.5
 41
1
 50
0
  1
200
  0
TEXT
  8
_1-3_
 62
    7
 10
262.641036574905
 20
246.38491243929477
 40
2.5
 41
1
 50
0
  1
外壁
  0
TEXT
  8
_1-3_
 62
    7
 10
243.14166919605151
 20
229.83311833562078
 40
2.5
 41
1
 50
0
  1
壁際水切鉄板
  0
TEXT
  8
_1-3_
 62
    7
 10
237.01978116422089
 20
216.00217252164276
 40
2.5
 41
1
 50
0
  1
発泡弾性シール材
  0
TEXT
  8
_0-0_
 62
    7
 10
400.37148140572219
 20
13.765001554746874
 40
2.5
 41
1
 50
0
  1
10
  0
TEXT
  8
_1-3_
 62
    7
 10
351.40806868269635
 20
246.12381393845018
 40
2.5
 41
1
 50
0
  1
水切鉄板上端より
  0
TEXT
  8
_1-3_
 62
    7
 10
351.89498076567781
 20
243.39710132495779
 40
2.5
 41
1
 50
0
  1
50ｍｍ以上
  0
TEXT
  8
_1-3_
 62
    7
 10
351.69631463128167
 20
250.81945470861487
 40
3
 41
1
 50
0
  1
雨押え板上端より50mm以上とする
  0
TEXT
  8
_1-3_
 62
    7
 10
351.64991636534
 20
151.39903712917018
 40
2.5
 41
1
 50
0
  1
水切り鉄板立上がり寸法
  0
TEXT
  8
_1-3_
 62
    7
 10
368.76013678473396
 20
198.18445154138516
 40
2.5
 41
1
 50
90
  1
300　以上
  0
TEXT
  8
_1-3_
 62
    7
 10
337.19329833984375
 20
191.98446325353675
 40
2.5
 41
1
 50
90
  1
120
  0
TEXT
  8
_1-3_
 62
    7
 10
207.90878295898437
 20
116.03203026024072
 40
2.5
 41
1
 50
0
  1
瓦桟
  0
TEXT
  8
_1-3_
 62
    7
 10
222.5241418786951
 20
112.58542859876479
 40
2.5
 41
1
 50
0
  1
※　地域により瓦桟木の大きさは、異なります
  0
POINT
  8
_1-3_
 62
    7
 10
369.26013843433282
 20
230.05945154138516
  0
POINT
  8
_1-3_
 62
    7
 10
369.26013843433282
 20
170.05946391337628
  0
POINT
  8
_1-3_
 62
    7
 10
351.08108108108109
 20
170.05946391337628
  0
POINT
  8
_1-3_
 62
    7
 10
351.08108108108109
 20
200.3423123746305
  0
POINT
  8
_1-3_
 62
    7
 10
337.69329998944261
 20
182.85946407833615
  0
POINT
  8
_1-3_
 62
    7
 10
255.3405266839105
 20
133.7837837837838
  0
POINT
  8
_1-3_
 62
    7
 10
295.34053493190459
 20
133.7837837837838
  0
POINT
  8
_1-3_
 62
    7
 10
337.69329998944261
 20
206.85945665514149
  0
TEXT
  8
_1-3_
 62
    7
 10
253.32778702163063
 20
208.2504159733777
 40
2.5
 41
1
 50
0
  1
捨谷
  0
TEXT
  8
_1-3_
 62
    7
 10
222.21617002744932
 20
116.17507522170608
 40
2.5
 41
1
 50
0
  1
15×21　（樹脂桟木）
  0
TEXT
  8
_0-1_
 62
    7
 10
207.90878708298143
 20
108.89752362225508
 40
2.5
 41
1
 50
0
  1
縦桟
  0
TEXT
  8
_1-3_
 62
    7
 10
208.09040791279563
 20
101.96803324931378
 40
2.5
 41
1
 50
0
  1
ルーフィング
  0
TEXT
  8
_0-1_
 62
    7
 10
207.90878295898437
 20
88.323595201646967
 40
2.5
 41
1
 50
0
  1
たる木
  0
TEXT
  8
_1-3_
 62
    7
 10
351.30969155801313
 20
256.4665510847762
 40
3
 41
1
 50
0
  1
ルーフィング立上げ長さは、300ｍｍ以上かつ
  0
TEXT
  8
_1-3_
 62
    7
 10
371.45180367134719
 20
212.28438918654984
 40
2.5
 41
1
 50
0
  1
ルーフィング立上がり寸法
  0
TEXT
  8
_1-3_
 62
    7
 10
335.70065515806988
 20
133.49571027454243
 40
2.5
 41
1
 50
0
  1
ルーフィング
  0
TEXT
  8
_1-3_
 62
    7
 10
352.28785357737104
 20
133.65832986688852
 40
2.5
 41
1
 50
0
  1
２重貼り
  0
ENDSEC
  0
EOF
