  0
SECTION
  2
HEADER
  9
$ACADVER
  1
AC1009
  9
$INSBASE
 10
0
 20
0
 30
0
  9
$EXTMIN
 10
0
 20
0
  9
$EXTMAX
 10
420
 20
297
  9
$LIMMIN
 10
0
 20
0
  9
$LIMMAX
 10
420
 20
297
  9
$LTSCALE
 40
1
  0
ENDSEC
  0
SECTION
  2
TABLES
  0
TABLE
  2
LTYPE
 70
     9
  0
LTYPE
  2
CONTINUOUS
 70
    64
  3
実線
 72
    65
 73
     0
 40
0.0
  0
LTYPE
  2
DASHED1
 70
    64
  3
--  --  --  --  --  --  --  --  
 72
    65
 73
     2
 40
2.5
 49
1.25
 49
-1.25
  0
LTYPE
  2
DASHED2
 70
    64
  3
----    ----    ----    ----    
 72
    65
 73
     2
 40
5.0
 49
2.5
 49
-2.5
  0
LTYPE
  2
DASHED3
 70
    64
  3
------  ------  ------  ------  
 72
    65
 73
     2
 40
5.0
 49
3.75
 49
-1.25
  0
LTYPE
  2
CENTER1
 70
    64
  3
----- - ----- - ----- - ----- - 
 72
    65
 73
     4
 40
10.0
 49
6.25
 49
-1.25
 49
1.25
 49
-1.25
  0
LTYPE
  2
CENTER2
 70
    64
  3
----------  --  ----------  --  
 72
    65
 73
     4
 40
20.0
 49
12.5
 49
-2.5
 49
2.5
 49
-2.5
  0
LTYPE
  2
PHANTOM1
 70
    64
  3
--- - - --- - - --- - - --- - - 
 72
    65
 73
     6
 40
10.0
 49
3.25
 49
-1.25
 49
1.25
 49
-1.25
 49
1.25
 49
-1.25
  0
LTYPE
  2
PHANTOM2
 70
    64
  3
--------  -  -  --------  -  -  
 72
    65
 73
     6
 40
20.0
 49
10.0
 49
-2.5
 49
1.25
 49
-2.5
 49
1.25
 49
-2.5
  0
LTYPE
  2
DOT
 70
    64
  3
-   -   -   -   -   -   -   -   
 72
    65
 73
     2
 40
2.5
 49
0.625
 49
-1.875
  0
LTYPE
  2
DUMMY
 70
    64
  3
ダミー
 72
    65
 73
     0
 40
0.0
  0
LTYPE
  2
RAND1
 70
    64
  3
ランダム線1
 72
    65
 73
     4
 40
10.0
 49
1.0
 49
-2.0
 49
3.0
 49
-4.0
  0
LTYPE
  2
RAND2
 70
    64
  3
ランダム線2
 72
    65
 73
     4
 40
14.0
 49
2.0
 49
-3.0
 49
4.0
 49
-5.0
  0
LTYPE
  2
RAND3
 70
    64
  3
ランダム線3
 72
    65
 73
     4
 40
18.0
 49
3.0
 49
-4.0
 49
5.0
 49
-6.0
  0
LTYPE
  2
RAND4
 70
    64
  3
ランダム線4
 72
    65
 73
     4
 40
22.0
 49
4.0
 49
-5.0
 49
6.0
 49
-7.0
  0
LTYPE
  2
RAND5
 70
    64
  3
ランダム線5
 72
    65
 73
     4
 40
26.0
 49
5.0
 49
-6.0
 49
7.0
 49
-8.0
  0
LTYPE
  2
LONG1
 70
    64
  3
----------  --  ----------  --  
 72
    65
 73
     4
 40
40.0
 49
32.5
 49
-2.5
 49
2.5
 49
-2.5
  0
LTYPE
  2
LONG2
 70
    64
  3
--------  -  -  --------  -  -  
 72
    65
 73
     6
 40
40.0
 49
30.0
 49
-2.5
 49
1.25
 49
-2.5
 49
1.25
 49
-2.5
  0
LTYPE
  2
LONG3
 70
    64
  3
+++++++++++++++..+++++++++++++++
 72
    65
 73
     2
 40
40.0
 49
37.5
 49
-2.5
  0
LTYPE
  2
LONG4
 70
    64
  3
+++++++++++++++..+++++++++++++++
 72
    65
 73
     2
 40
80.0
 49
75.0
 49
-5.0
  0
LTYPE
  2
LONG5
 70
    64
  3
----------  --  ----------  --  
 72
    65
 73
     4
 40
60.0
 49
37.5
 49
-7.5
 49
7.5
 49
-7.5
  0
LTYPE
  2
dashed
 70
   64
  3
-------   -------------   ------
 72
   65
 73
    2
 40
7.5
 49
6
 49
-1.5
  0
LTYPE
  2
dashed_spaced
 70
   64
  3
----        --------        ----
 72
   65
 73
    2
 40
12
 49
6
 49
-6
  0
LTYPE
  2
long_dashed_dotted
 70
   64
  3
------------- --- --------------
 72
   65
 73
    4
 40
15.25
 49
12
 49
-1.5
 49
0.25
 49
-1.5
  0
LTYPE
  2
long_dashed_double-dotted
 70
   64
  3
----------- --- --- ------------
 72
   65
 73
    6
 40
17
 49
12
 49
-1.5
 49
0.25
 49
-1.5
 49
0.25
 49
-1.5
  0
LTYPE
  2
long_dashed_triplicate-dotted
 70
   64
  3
--------- --- --- --- ----------
 72
   65
 73
    8
 40
18.75
 49
12
 49
-1.5
 49
0.25
 49
-1.5
 49
0.25
 49
-1.5
 49
0.25
 49
-1.5
  0
LTYPE
  2
dotted
 70
   64
  3
   -       -       -       -    
 72
   65
 73
    2
 40
1.75
 49
0.25
 49
-1.5
  0
LTYPE
  2
chain
 70
   64
  3
-------------- -- --------------
 72
   65
 73
    4
 40
18.5
 49
12
 49
-1.5
 49
3.5
 49
-1.5
  0
LTYPE
  2
chain_double_dash
 70
   64
  3
------------ -- -- -------------
 72
   65
 73
    6
 40
23.5
 49
12
 49
-1.5
 49
3.5
 49
-1.5
 49
3.5
 49
-1.5
  0
LTYPE
  2
dashed_dotted
 70
   64
  3
-----------     -     ----------
 72
   65
 73
    4
 40
9.25
 49
6
 49
-1.5
 49
0.25
 49
-1.5
  0
LTYPE
  2
double-dashed_dotted
 70
   64
  3
------   -----------   -   -----
 72
   65
 73
    6
 40
16.75
 49
6
 49
-1.5
 49
6
 49
-1.5
 49
0.25
 49
-1.5
  0
LTYPE
  2
dashed_double-dotted
 70
   64
  3
---------    -    -    ---------
 72
   65
 73
    6
 40
11
 49
6
 49
-1.5
 49
0.25
 49
-1.5
 49
0.25
 49
-1.5
  0
LTYPE
  2
double-dashed_double-dotted
 70
   64
  3
-----   ---------   -   -   ----
 72
   65
 73
    8
 40
18.5
 49
6
 49
-1.5
 49
6
 49
-1.5
 49
0.25
 49
-1.5
 49
0.25
 49
-1.5
  0
LTYPE
  2
dashed_triplicate-dotted
 70
   64
  3
-------    -    -    -    ------
 72
   65
 73
    8
 40
12.75
 49
6
 49
-1.5
 49
0.25
 49
-1.5
 49
0.25
 49
-1.5
 49
0.25
 49
-1.5
  0
LTYPE
  2
double-dashed_triplicate-dotted
 70
   64
  3
-----  ---------  -  -  -  -----
 72
   65
 73
   10
 40
20.25
 49
6
 49
-1.5
 49
6
 49
-1.5
 49
0.25
 49
-1.5
 49
0.25
 49
-1.5
 49
0.25
 49
-1.5
  0
LTYPE
  2
undefined
 70
   64
  3
--------------------------------
 72
   65
 73
    0
 40
0
  0
LTYPE
  2
DOT_17
 70
   64
  3
--             ---             -
 72
   65
 73
    2
 40
5
 49
1
 49
-4
  0
LTYPE
  2
DASHED
 70
   64
  3
---          ------          ---
 72
   65
 73
    2
 40
5
 49
2
 49
-3
  0
LTYPE
  2
DASHED2_19
 70
   64
  3
---          ------          ---
 72
   65
 73
    2
 40
10
 49
4
 49
-6
  0
LTYPE
  2
CENTER
 70
   64
  3
----------    ----    ----------
 72
   65
 73
    4
 40
9
 49
6
 49
-1
 49
1
 49
-1
  0
LTYPE
  2
CENTER2_21
 70
   64
  3
----------    ----    ----------
 72
   65
 73
    4
 40
18
 49
12
 49
-2
 49
2
 49
-2
  0
LTYPE
  2
PHANTOM
 70
   64
  3
---------   ---   ---   --------
 72
   65
 73
    6
 40
10
 49
5
 49
-1
 49
1
 49
-1
 49
1
 49
-1
  0
LTYPE
  2
PHANTOM2_23
 70
   64
  3
------    ----    ----    ------
 72
   65
 73
    6
 40
16
 49
6
 49
-2
 49
2
 49
-2
 49
2
 49
-2
  0
LTYPE
  2
HIDDEN
 70
   64
  3
--             ---             -
 72
   65
 73
    2
 40
2.5
 49
0.5
 49
-2
  0
ENDTAB
  0
TABLE
  2
STYLE
  5
3
100
AcDbSymbolTable
 70
     1
  0
STYLE
  5
10
100
AcDbSymbolTableRecord
100
AcDbTextStyleTableRecord
  2
STANDARD
 70
     0
 40
0.0
 41
1.0
 50
0.0
 71
     0
 42
0.2
  3
txt
  4
bigfont.shx
  0
STYLE
  5
26
100
AcDbSymbolTableRecord
100
AcDbTextStyleTableRecord
  2
TATEGAKI
 70
    68
 40
0.0
 41
1.0
 50
0.0
 71
     0
 42
1.0
  3
txt
  4
bigfont.shx
  0
ENDTAB
  0
TABLE
  2
LAYER
 70
    9
  0
LAYER
  2
_0-0_
 70
   64
 62
    7
  6
CONTINUOUS
  0
LAYER
  2
_0-1_
 70
   64
 62
    7
  6
CONTINUOUS
  0
LAYER
  2
_1-0_
 70
   64
 62
    7
  6
CONTINUOUS
  0
LAYER
  2
_1-1_
 70
   64
 62
    7
  6
CONTINUOUS
  0
LAYER
  2
_1-2_
 70
   64
 62
    7
  6
CONTINUOUS
  0
LAYER
  2
_1-3_
 70
   64
 62
    7
  6
CONTINUOUS
  0
LAYER
  2
_1-4_
 70
   64
 62
    7
  6
CONTINUOUS
  0
LAYER
  2
_1-5_
 70
   64
 62
    7
  6
CONTINUOUS
  0
LAYER
  2
ADD_LINE
 70
   64
 62
    7
  6
CONTINUOUS
  0
ENDTAB
  0
ENDSEC
  0
SECTION
  2
BLOCKS
  0
ENDSEC
  0
SECTION
  2
ENTITIES
  0
ARC
  8
_1-3_
  6
CONTINUOUS
 62
    3
 10
262.68127268905647
 20
126.80973361240959
 40
41.612016832506335
 50
101.41805079796902
 51
130.93269923546902
  0
LINE
  8
_0-0_
  6
CONTINUOUS
 62
    5
 10
12.432428308435391
 20
278.51351351351354
 11
412.43244892842063
 21
278.51351351351354
  0
LINE
  8
_0-0_
  6
CONTINUOUS
 62
    5
 10
412.43244892842063
 20
8.5135135135135158
 11
12.432428308435391
 21
8.5135135135135158
  0
LINE
  8
_0-0_
  6
CONTINUOUS
 62
    5
 10
412.43244892842063
 20
28.513511451515001
 11
12.432415936444272
 21
28.513511451515001
  0
LINE
  8
_0-0_
  6
CONTINUOUS
 62
    5
 10
377.43248192039698
 20
8.5135135135135158
 11
377.43248192039698
 21
28.513511451515001
  0
LINE
  8
_0-0_
  6
CONTINUOUS
 62
    5
 10
142.70271507469386
 20
28.513511451515001
 11
142.70271507469386
 21
8.5135135135135158
  0
LINE
  8
_0-0_
  6
CONTINUOUS
 62
    5
 10
220.54054054054055
 20
28.513511451515001
 11
220.54054054054055
 21
8.5135135135135158
  0
LINE
  8
_0-0_
  6
CONTINUOUS
 62
    5
 10
142.70271507469386
 20
18.513512482514244
 11
220.54054054054055
 21
18.513512482514244
  0
LINE
  8
_0-0_
  6
CONTINUOUS
 62
    5
 10
402.16218690614443
 20
24.324325870823216
 11
389.59456985061234
 21
11.756758303255651
  0
LINE
  8
_1-1_
  6
CONTINUOUS
 62
    7
 10
93.380003233213685
 20
86.063356141786329
 11
92.148903511665964
 21
88.799125052787161
  0
LINE
  8
_1-1_
  6
CONTINUOUS
 62
    7
 10
92.148903511665964
 20
88.799125052787161
 11
96.52615109005491
 21
90.768882132865286
  0
LINE
  8
_1-1_
  6
CONTINUOUS
 62
    7
 10
96.52615109005491
 20
90.768882132865286
 11
97.757238439611498
 21
88.033113221864454
  0
LINE
  8
_1-1_
  6
CONTINUOUS
 62
    7
 10
97.757238439611498
 20
88.033113221864454
 11
93.380003233213685
 21
86.063356141786329
  0
LINE
  8
_1-1_
  6
CONTINUOUS
 62
    7
 10
93.380003233213685
 20
86.063356141786329
 11
96.52615109005491
 21
90.768882132865286
  0
LINE
  8
_1-1_
  6
CONTINUOUS
 62
    7
 10
144.44759884396115
 20
109.04377292942357
 11
143.21651149440456
 21
111.77954184042441
  0
LINE
  8
_1-1_
  6
CONTINUOUS
 62
    7
 10
143.21651149440456
 20
111.77954184042441
 11
147.59374670080237
 21
113.74929892050254
  0
LINE
  8
_1-1_
  6
CONTINUOUS
 62
    7
 10
147.59374670080237
 20
113.74929892050254
 11
148.82483405035896
 21
111.01353000950169
  0
LINE
  8
_1-1_
  6
CONTINUOUS
 62
    7
 10
148.82483405035896
 20
111.01353000950169
 11
144.44759884396115
 21
109.04377292942357
  0
LINE
  8
_1-1_
  6
CONTINUOUS
 62
    7
 10
144.44759884396115
 20
109.04377292942357
 11
147.59374670080237
 21
113.74929892050254
  0
LINE
  8
_1-1_
  6
CONTINUOUS
 62
    7
 10
195.51519445470862
 20
132.02421446104307
 11
194.28410710515203
 21
134.75998337204393
  0
LINE
  8
_1-1_
  6
CONTINUOUS
 62
    7
 10
194.28410710515203
 20
134.75998337204393
 11
198.66134231154984
 21
136.72972808013091
  0
LINE
  8
_1-1_
  6
CONTINUOUS
 62
    7
 10
198.66134231154984
 20
136.72972808013091
 11
199.89242966110643
 21
133.99395916913008
  0
LINE
  8
_1-1_
  6
CONTINUOUS
 62
    7
 10
199.89242966110643
 20
133.99395916913008
 11
195.51519445470862
 21
132.02421446104307
  0
LINE
  8
_1-1_
  6
CONTINUOUS
 62
    7
 10
195.51519445470862
 20
132.02421446104307
 11
198.66134231154984
 21
136.72972808013091
  0
LINE
  8
_1-1_
  6
CONTINUOUS
 62
    7
 10
246.58279006545609
 20
155.00464362067146
 11
245.35170271589951
 21
157.74041253167232
  0
LINE
  8
_1-1_
  6
CONTINUOUS
 62
    7
 10
245.35170271589951
 20
157.74041253167232
 11
249.72893792229732
 21
159.7101572397593
  0
LINE
  8
_1-1_
  6
CONTINUOUS
 62
    7
 10
246.58279006545609
 20
155.00464362067146
 11
249.72893792229732
 21
159.7101572397593
  0
LINE
  8
_0-1_
  6
CONTINUOUS
 62
    7
 10
74.581257588154585
 20
144.71349767736487
 11
80.669316472233959
 21
144.71349767736487
  0
LINE
  8
_0-1_
  6
CONTINUOUS
 62
    7
 10
64.390102077174845
 20
172.71349107896961
 11
80.669316472233959
 21
172.71349107896961
  0
LINE
  8
_0-1_
  6
CONTINUOUS
 62
    7
 10
66.937890954919766
 20
165.71349272856841
 11
80.669316472233959
 21
165.71349272856841
  0
LINE
  8
_0-1_
  6
CONTINUOUS
 62
    7
 10
69.485679832664687
 20
158.71349437816724
 11
80.669316472233959
 21
158.71349437816724
  0
LINE
  8
_0-1_
  6
CONTINUOUS
 62
    7
 10
72.033468710409636
 20
151.71349602776607
 11
80.669316472233959
 21
151.71349602776607
  0
LINE
  8
_1-2_
  6
CONTINUOUS
 62
    3
 10
95.603819151182435
 20
96.149337356154987
 11
96.934105125633451
 21
96.585536647487331
  0
LINE
  8
_1-2_
  6
CONTINUOUS
 62
    3
 10
94.270415434966225
 20
95.08068187816724
 11
95.483291213576862
 21
95.478379533097552
  0
LINE
  8
_1-2_
  6
CONTINUOUS
 62
    3
 10
95.603819151182435
 20
96.149337356154987
 11
95.483291213576862
 21
95.478379533097552
  0
LINE
  8
_1-2_
  6
CONTINUOUS
 62
    3
 10
94.270415434966225
 20
95.08068187816724
 11
93.881019386085313
 21
93.058702623521967
  0
LINE
  8
_1-2_
  6
CONTINUOUS
 62
    3
 10
97.177165263407943
 20
94.560464395059128
 11
97.557257574957774
 21
94.685099833720443
  0
LINE
  8
_1-2_
  6
CONTINUOUS
 62
    7
 10
96.934105125633451
 20
96.585536647487331
 11
97.557257574957774
 21
94.685099833720443
  0
LINE
  8
_1-2_
  6
CONTINUOUS
 62
    3
 10
97.177165263407943
 20
94.560464395059128
 11
98.236529376055742
 21
91.329716862858959
  0
LINE
  8
_1-2_
  6
CONTINUOUS
 62
    7
 10
96.52615109005491
 20
90.768882132865286
 11
97.844065073374168
 21
88.675306165540547
  0
LINE
  8
_1-2_
  6
CONTINUOUS
 62
    7
 10
97.844065073374168
 20
88.675306165540547
 11
99.364409575591225
 21
89.173823176203555
  0
LINE
  8
_1-2_
  6
CONTINUOUS
 62
    3
 10
96.934105125633451
 20
96.585536647487331
 11
97.557257574957774
 21
94.685099833720443
  0
LINE
  8
_1-2_
  6
CONTINUOUS
 62
    7
 10
97.557257574957774
 20
94.685099833720443
 11
99.364409575591225
 21
89.173823176203555
  0
LINE
  8
ADD_LINE
  6
DOT
 62
    4
 10
95.416878365181589
 20
96.71947582347974
 11
96.747164339632604
 21
97.155675114812084
  0
LINE
  8
ADD_LINE
  6
DOT
 62
    4
 10
96.747164339632604
 20
97.155675114812084
 11
147.59374670080237
 21
113.74929892050254
  0
LINE
  8
_1-2_
  6
CONTINUOUS
 62
    3
 10
146.67896167652029
 20
119.13104083086994
 11
148.00986625052789
 21
119.56538432353253
  0
LINE
  8
_1-2_
  6
CONTINUOUS
 62
    3
 10
145.34404857738599
 20
118.06425352354309
 11
146.5574934675887
 21
118.46025621568835
  0
LINE
  8
_1-2_
  6
CONTINUOUS
 62
    3
 10
146.67896167652029
 20
119.13104083086994
 11
146.5574934675887
 21
118.46025621568835
  0
LINE
  8
_1-2_
  6
CONTINUOUS
 62
    3
 10
145.34404857738599
 20
118.06425352354309
 11
144.95183171452703
 21
116.04283100849874
  0
LINE
  8
_1-2_
  6
CONTINUOUS
 62
    3
 10
148.25008083034206
 20
117.53996565535263
 11
148.63034634976773
 21
117.66405672640414
  0
LINE
  8
_1-2_
  6
CONTINUOUS
 62
    7
 10
148.00986625052789
 20
119.56538432353253
 11
148.63034634976773
 21
117.66405672640414
  0
LINE
  8
_1-2_
  6
CONTINUOUS
 62
    3
 10
148.25008083034206
 20
117.53996565535263
 11
149.30491679423565
 21
114.30773348421664
  0
LINE
  8
_1-2_
  6
CONTINUOUS
 62
    7
 10
147.59374670080237
 20
113.74929892050254
 11
148.90871615023227
 21
111.65386715450803
  0
LINE
  8
_1-2_
  6
CONTINUOUS
 62
    7
 10
148.90871615023227
 20
111.65386715450803
 11
150.42975348395271
 21
112.15025618269638
  0
LINE
  8
_1-2_
  6
CONTINUOUS
 62
    3
 10
84.069919070682019
 20
89.862782246357696
 11
83.096466064453125
 21
94.80462564004435
  0
LINE
  8
_1-2_
  6
CONTINUOUS
 62
    3
 10
86.011072107263516
 20
96.807688120249168
 11
144.95183171452703
 21
116.04283100849874
  0
LINE
  8
_1-2_
  6
CONTINUOUS
 62
    3
 10
84.069919070682019
 20
89.862782246357696
 11
85.542940706820104
 21
90.506298993084883
  0
LINE
  8
_1-2_
  6
CONTINUOUS
 62
    3
 10
86.418654983108112
 20
93.784987990920612
 11
149.30491679423565
 21
114.30773348421664
  0
LINE
  8
_1-2_
  6
CONTINUOUS
 62
    3
 10
85.731959987331081
 20
92.912651268211576
 11
85.542940706820104
 21
90.506298993084883
  0
LINE
  8
_1-2_
  6
CONTINUOUS
 62
    3
 10
148.00986625052789
 20
119.56538432353253
 11
148.63034634976773
 21
117.66405672640414
  0
LINE
  8
_1-2_
  6
CONTINUOUS
 62
    7
 10
148.63034634976773
 20
117.66405672640414
 11
150.42975348395271
 21
112.15025618269638
  0
LINE
  8
_1-2_
  6
CONTINUOUS
 62
    3
 10
197.74655728726773
 20
142.11146999049831
 11
199.07746186127534
 21
142.54580111116977
  0
LINE
  8
_1-2_
  6
CONTINUOUS
 62
    3
 10
196.41164418813347
 20
141.04468268317146
 11
197.62508907833615
 21
141.44068537531672
  0
LINE
  8
_1-2_
  6
CONTINUOUS
 62
    3
 10
197.74655728726773
 20
142.11146999049831
 11
197.62508907833615
 21
141.44068537531672
  0
LINE
  8
_1-2_
  6
CONTINUOUS
 62
    3
 10
196.41164418813347
 20
141.04468268317146
 11
196.01942732527451
 21
139.02324779613599
  0
LINE
  8
_1-2_
  6
CONTINUOUS
 62
    3
 10
199.31767644108953
 20
140.52038244298987
 11
199.69794196051521
 21
140.64449825802365
  0
LINE
  8
_1-2_
  6
CONTINUOUS
 62
    7
 10
199.07746186127534
 20
142.54580111116977
 11
199.69794196051521
 21
140.64449825802365
  0
LINE
  8
_1-2_
  6
CONTINUOUS
 62
    3
 10
199.31767644108953
 20
140.52038244298987
 11
200.37251240498313
 21
137.28815027185388
  0
LINE
  8
_1-2_
  6
CONTINUOUS
 62
    7
 10
198.66134231154984
 20
136.72972808013091
 11
199.97631176097974
 21
134.63430868612755
  0
LINE
  8
_1-2_
  6
CONTINUOUS
 62
    7
 10
199.97631176097974
 20
134.63430868612755
 11
201.49734909470018
 21
135.13069771431589
  0
LINE
  8
_1-2_
  6
CONTINUOUS
 62
    3
 10
135.13752705342063
 20
112.84321140598607
 11
134.16404930320948
 21
117.78505479967272
  0
LINE
  8
_1-2_
  6
CONTINUOUS
 62
    3
 10
137.07866771801099
 20
119.78811727987754
 11
196.01942732527451
 21
139.02324779613599
  0
LINE
  8
_1-2_
  6
CONTINUOUS
 62
    3
 10
135.13752705342063
 20
112.84321140598607
 11
136.61053631756758
 21
113.48672815271327
  0
LINE
  8
_1-2_
  6
CONTINUOUS
 62
    3
 10
137.48625059385557
 20
116.765417150549
 11
200.37251240498313
 21
137.28815027185388
  0
LINE
  8
_1-2_
  6
CONTINUOUS
 62
    3
 10
136.79955559807854
 20
115.89308042783996
 11
136.61053631756758
 21
113.48672815271327
  0
LINE
  8
_1-2_
  6
CONTINUOUS
 62
    3
 10
199.07746186127534
 20
142.54580111116977
 11
199.69794196051521
 21
140.64449825802365
  0
LINE
  8
_1-2_
  6
CONTINUOUS
 62
    7
 10
199.69794196051521
 20
140.64449825802365
 11
201.49734909470018
 21
135.13069771431589
  0
LINE
  8
_1-2_
  6
CONTINUOUS
 62
    3
 10
248.81415289801521
 20
165.09189915012669
 11
250.14505747202281
 21
165.52623027079815
  0
LINE
  8
_1-2_
  6
CONTINUOUS
 62
    3
 10
247.47923979888094
 20
164.02511184279984
 11
248.69268468908362
 21
164.4211145349451
  0
LINE
  8
_1-2_
  6
CONTINUOUS
 62
    3
 10
248.81415289801521
 20
165.09189915012669
 11
248.69268468908362
 21
164.4211145349451
  0
LINE
  8
_1-2_
  6
CONTINUOUS
 62
    3
 10
247.47923979888094
 20
164.02511184279984
 11
247.08702293602198
 21
162.00367695576438
  0
LINE
  8
_1-2_
  6
CONTINUOUS
 62
    3
 10
250.38527205183701
 20
163.50081160261826
 11
250.76553757126268
 21
163.62492741765203
  0
LINE
  8
_1-2_
  6
CONTINUOUS
 62
    7
 10
250.14505747202281
 20
165.52623027079815
 11
250.76553757126268
 21
163.62492741765203
  0
LINE
  8
_1-2_
  6
CONTINUOUS
 62
    3
 10
250.38527205183701
 20
163.50081160261826
 11
251.4401080157306
 21
160.26857943148227
  0
LINE
  8
_1-2_
  6
CONTINUOUS
 62
    7
 10
249.72893792229732
 20
159.7101572397593
 11
251.04390737172722
 21
157.61473784575591
  0
LINE
  8
_1-2_
  6
CONTINUOUS
 62
    7
 10
251.04390737172722
 20
157.61473784575591
 11
252.56494470544766
 21
158.11112687394427
  0
LINE
  8
_1-2_
  6
CONTINUOUS
 62
    3
 10
186.20509792018581
 20
135.82365293760557
 11
185.23166965793919
 21
140.76549633129224
  0
LINE
  8
_1-2_
  6
CONTINUOUS
 62
    3
 10
188.14626332875847
 20
142.76854643950591
 11
247.08702293602198
 21
162.00367695576438
  0
LINE
  8
_1-2_
  6
CONTINUOUS
 62
    3
 10
186.20509792018581
 20
135.82365293760557
 11
187.67813192831505
 21
136.46714494035052
  0
LINE
  8
_1-2_
  6
CONTINUOUS
 62
    3
 10
188.55384620460305
 20
139.74584631017737
 11
251.4401080157306
 21
160.26857943148227
  0
LINE
  8
_1-2_
  6
CONTINUOUS
 62
    3
 10
187.86715120882602
 20
138.87349721547722
 11
187.67813192831505
 21
136.46714494035052
  0
LINE
  8
_1-2_
  6
CONTINUOUS
 62
    3
 10
250.14505747202281
 20
165.52623027079815
 11
250.76553757126268
 21
163.62492741765203
  0
LINE
  8
_1-2_
  6
CONTINUOUS
 62
    7
 10
250.76553757126268
 20
163.62492741765203
 11
252.56494470544766
 21
158.11112687394427
  0
LINE
  8
_1-2_
  6
CONTINUOUS
 62
    3
 10
73.271187447212839
 20
83.14361572265625
 11
98.236529376055742
 21
91.329716862858959
  0
LINE
  8
_1-2_
  6
CONTINUOUS
 62
    3
 10
73.271187447212839
 20
86.300768465609167
 11
93.881019386085313
 21
93.058702623521967
  0
LINE
  8
ADD_LINE
  6
DOT
 62
    7
 10
258.5649397566512
 20
123.41193534232475
 11
258.5649397566512
 21
113.81280435098185
  0
LINE
  8
_1-0_
  6
CONTINUOUS
 62
    7
 10
258.5649397566512
 20
117.5838985958615
 11
258.5649397566512
 21
80.270270270270274
  0
LINE
  8
_1-0_
  6
CONTINUOUS
 62
    7
 10
73.271187447212839
 20
59.249700597814609
 11
258.5649397566512
 21
142.6319101694468
  0
LINE
  8
_1-0_
  6
CONTINUOUS
 62
    7
 10
73.271187447212839
 20
72.408729759422513
 11
258.5649397566512
 21
155.79093314505914
  0
LINE
  8
_1-0_
  6
CONTINUOUS
 62
    7
 10
73.271187447212839
 20
75.040536828943203
 11
258.5649397566512
 21
158.4227278425887
  0
LINE
  8
_1-0_
  6
DASHED1
 62
    3
 10
73.271187447212839
 20
75.698491689321159
 11
258.03059345967063
 21
158.84024542731208
  0
LINE
  8
_1-1_
  6
CONTINUOUS
 62
    7
 10
251.47576409417232
 20
157.20646213840794
 11
246.58279006545609
 21
155.00464362067146
  0
LINE
  8
_1-0_
  6
CONTINUOUS
 62
    7
 10
73.271187447212839
 20
76.356440363703555
 11
251.7220162056588
 21
156.65929845861487
  0
LINE
  8
_1-0_
  6
CONTINUOUS
 62
    7
 10
73.271187447212839
 20
77.014389038085938
 11
251.47576409417232
 21
157.20646213840794
  0
LINE
  8
_1-0_
  6
CONTINUOUS
 62
    7
 10
251.47576409417232
 20
157.20646213840794
 11
251.7220162056588
 21
156.65929845861487
  0
LINE
  8
_1-1_
  6
CONTINUOUS
 62
    7
 10
251.63061193517737
 20
182.33109345307221
 11
254.03060500686234
 21
182.33109345307221
  0
LINE
  8
_1-1_
  6
CONTINUOUS
 62
    7
 10
251.63061193517737
 20
182.33109345307221
 11
251.63061193517737
 21
241.62162162162164
  0
LINE
  8
_1-0_
  6
CONTINUOUS
 62
    7
 10
258.5649397566512
 20
117.5838985958615
 11
258.5649397566512
 21
241.62162162162164
  0
LINE
  8
_1-1_
  6
CONTINUOUS
 62
    7
 10
254.03060500686234
 20
182.33109345307221
 11
254.03060500686234
 21
241.62162162162164
  0
LINE
  8
_1-0_
  6
DASHED1
 62
    3
 10
258.03059345967063
 20
158.84024542731208
 11
258.03059345967063
 21
218.84023305532097
  0
LINE
  8
_1-1_
  6
CONTINUOUS
 62
    7
 10
246.56494965424409
 20
115.33429944837417
 11
258.5649397566512
 21
115.33429944837417
  0
LINE
  8
_1-1_
  6
CONTINUOUS
 62
    7
 10
251.23693517736487
 20
139.33430439717063
 11
258.5649397566512
 21
139.33430439717063
  0
LINE
  8
_1-1_
  6
CONTINUOUS
 62
    7
 10
246.56494965424409
 20
137.23190720016893
 11
246.56494965424409
 21
115.33429944837417
  0
LINE
  8
_1-1_
  6
CONTINUOUS
 62
    7
 10
258.5649397566512
 20
139.33430439717063
 11
246.56494965424409
 21
115.33429944837417
  0
LINE
  8
_1-1_
  6
CONTINUOUS
 62
    7
 10
247.40589863545188
 20
137.65238169077281
 11
258.5649397566512
 21
115.33429944837417
  0
LINE
  8
_1-4_
  6
CONTINUOUS
 62
    7
 10
322.54698882231844
 20
158.84024542731208
 11
322.54698882231844
 21
218.84023305532097
  0
LINE
  8
_1-4_
  6
CONTINUOUS
 62
    7
 10
271.04954075168922
 20
158.84024542731208
 11
322.54698882231844
 21
158.84024542731208
  0
LINE
  8
_1-4_
  6
CONTINUOUS
 62
    7
 10
271.04954075168922
 20
218.84023305532097
 11
322.54698882231844
 21
218.84023305532097
  0
LINE
  8
_1-4_
  6
CONTINUOUS
 62
    7
 10
303.71362634607266
 20
177.33108932907518
 11
303.71362634607266
 21
199.33108767947635
  0
LINE
  8
_1-4_
  6
CONTINUOUS
 62
    7
 10
271.04954075168922
 20
177.33108932907518
 11
303.71362634607266
 21
177.33108932907518
  0
LINE
  8
_1-4_
  6
CONTINUOUS
 62
    7
 10
218.56493150865711
 20
103.78378378378379
 11
223.60104947476776
 21
106.69137490762247
  0
LINE
  8
ADD_LINE
  6
DOT
 62
    7
 10
215.16307933910474
 20
103.78378378378379
 11
227.3252415012669
 21
103.78378378378379
  0
LINE
  8
_1-4_
  6
CONTINUOUS
 62
    7
 10
218.56493150865711
 20
103.78378378378379
 11
223.60104947476776
 21
100.8761926599451
  0
LINE
  8
ADD_LINE
  6
DOT
 62
    7
 10
215.16307933910474
 20
103.78378378378379
 11
216.49512213629646
 21
103.78378378378379
  0
LINE
  8
ADD_LINE
  6
DOT
 62
    7
 10
217.01635412267737
 20
103.78378378378379
 11
227.3252415012669
 21
103.78378378378379
  0
LINE
  8
_1-4_
  6
CONTINUOUS
 62
    7
 10
274.08199001002959
 20
103.78378378378379
 11
218.56493150865711
 21
103.78378378378379
  0
LINE
  8
_1-4_
  6
CONTINUOUS
 62
    7
 10
218.56493150865711
 20
115.94594594594595
 11
218.56493150865711
 21
96.515449317725938
  0
LINE
  8
_1-4_
  6
CONTINUOUS
 62
    7
 10
284.08199825802365
 20
218.84023305532097
 11
282.11480218010979
 21
215.43296195365289
  0
LINE
  8
_1-4_
  6
CONTINUOUS
 62
    7
 10
284.08199825802365
 20
218.84023305532097
 11
286.0491943359375
 21
215.43296195365289
  0
LINE
  8
_1-4_
  6
CONTINUOUS
 62
    7
 10
284.08199825802365
 20
113.78377965978675
 11
284.08199825802365
 21
218.84023305532097
  0
LINE
  8
_1-4_
  6
CONTINUOUS
 62
    7
 10
241.69756090318836
 20
169.10414824614654
 11
228.70424837679477
 21
204.80299666121201
  0
LINE
  8
_1-4_
  6
CONTINUOUS
 62
    7
 10
234.20305406725086
 20
163.39402894716005
 11
224.37937143686656
 21
190.38439364046664
  0
LINE
  8
_1-4_
  6
CONTINUOUS
 62
    7
 10
231.6522959116343
 20
224.68800312763938
 11
227.65230745882602
 21
224.68800312763938
  0
LINE
  8
_1-4_
  6
CONTINUOUS
 62
    7
 10
228.70424837679477
 20
204.80299666121201
 11
224.70425992398651
 21
204.80299666121201
  0
LINE
  8
_1-4_
  6
CONTINUOUS
 62
    7
 10
224.37937143686656
 20
190.38439364046664
 11
220.37935824007602
 21
190.38439364046664
  0
LINE
  8
_1-4_
  6
CONTINUOUS
 62
    7
 10
99.21713339315879
 20
77.027027027027032
 11
64.390102077174845
 21
172.71349107896961
  0
LINE
  8
_1-4_
  6
CONTINUOUS
 62
    7
 10
252.67010663006758
 20
216.07796333931589
 11
243.04123337204393
 21
242.53309095228042
  0
LINE
  8
_1-4_
  6
CONTINUOUS
 62
    7
 10
243.04123337204393
 20
242.53309095228042
 11
239.04124491923565
 21
242.53309095228042
  0
LINE
  8
_1-4_
  6
CONTINUOUS
 62
    7
 10
250.03635715793919
 20
174.17818636507602
 11
231.6522959116343
 21
224.68800312763938
  0
LINE
  8
_1-4_
  6
CONTINUOUS
 62
    7
 10
284.08199825802365
 20
120.57680697054477
 11
288.63694474503802
 21
123.22838448189401
  0
LINE
  8
_1-4_
  6
CONTINUOUS
 62
    7
 10
284.08199825802365
 20
120.57680697054477
 11
294.31888064822635
 21
120.57680697054477
  0
LINE
  8
_1-4_
  6
CONTINUOUS
 62
    7
 10
218.56488202069258
 20
111.60779385953337
 11
258.56491501266891
 21
111.60779385953337
  0
LINE
  8
_1-4_
  6
CONTINUOUS
 62
    7
 10
303.71362634607266
 20
199.33108767947635
 11
303.71362634607266
 21
218.84023305532097
  0
LINE
  8
_1-4_
  6
CONTINUOUS
 62
    7
 10
303.71362634607266
 20
218.84023305532097
 11
301.7464302681588
 21
215.43296195365289
  0
LINE
  8
_1-4_
  6
CONTINUOUS
 62
    7
 10
303.71362634607266
 20
218.84023305532097
 11
305.68082242398651
 21
215.43296195365289
  0
LINE
  8
_1-4_
  6
CONTINUOUS
 62
    7
 10
303.74203243771115
 20
207.96322384396117
 11
310.55221970016896
 21
233.37917843380492
  0
LINE
  8
_1-4_
  6
CONTINUOUS
 62
    7
 10
310.55221970016896
 20
233.37917843380492
 11
313.758544921875
 21
233.37917843380492
  0
LINE
  8
_1-4_
  6
CONTINUOUS
 62
    7
 10
303.59685949377115
 20
184.3010237410262
 11
315.42049923458615
 21
140.174560546875
  0
LINE
  8
_1-4_
  6
CONTINUOUS
 62
    7
 10
315.42049923458615
 20
140.174560546875
 11
318.83937526393584
 21
140.174560546875
  0
LINE
  8
_1-1_
  6
CONTINUOUS
 62
    7
 10
257.70476470122469
 20
212.62687064505914
 11
257.70476470122469
 21
204.62686899546031
  0
LINE
  8
_1-1_
  6
CONTINUOUS
 62
    7
 10
254.03060500686234
 20
212.62687064505914
 11
257.70476470122469
 21
212.62687064505914
  0
LINE
  8
_1-1_
  6
CONTINUOUS
 62
    7
 10
254.03060500686234
 20
204.62686899546031
 11
257.70476470122469
 21
204.62686899546031
  0
LINE
  8
_1-1_
  6
CONTINUOUS
 62
    7
 10
254.03060500686234
 20
212.62687064505914
 11
257.70476470122469
 21
204.62686899546031
  0
LINE
  8
_1-4_
  6
CONTINUOUS
 62
    7
 10
271.04954075168922
 20
201.3310819058805
 11
303.71362634607266
 21
201.3310819058805
  0
LINE
  8
_1-4_
  6
CONTINUOUS
 62
    7
 10
303.71362634607266
 20
201.3310819058805
 11
301.7464302681588
 21
204.73835300754857
  0
LINE
  8
_1-4_
  6
CONTINUOUS
 62
    7
 10
303.71362634607266
 20
201.3310819058805
 11
305.68082242398651
 21
204.73835300754857
  0
ARC
  8
_1-2_
  6
CONTINUOUS
 62
    3
 10
87.807485219594597
 20
91.071785591744089
 40
6.01062568458351
 50
107.389892578125
 51
141.6080322265625
  0
ARC
  8
_1-2_
  6
CONTINUOUS
 62
    3
 10
86.728895032728047
 20
92.834336564347552
 40
0.9999999162313101
 50
108.07392883300781
 51
175.50869750976562
  0
ARC
  8
_1-2_
  6
CONTINUOUS
 62
    3
 10
138.87508083034206
 20
114.05221475137247
 40
6.01062568458351
 50
107.389892578125
 51
141.6080322265625
  0
ARC
  8
_1-2_
  6
CONTINUOUS
 62
    3
 10
137.79649064347552
 20
115.81476572397594
 40
0.9999999162313101
 50
108.07392883300781
 51
175.50869750976562
  0
ARC
  8
_1-2_
  6
CONTINUOUS
 62
    3
 10
189.94267644108953
 20
137.03264391100086
 40
6.01062568458351
 50
107.389892578125
 51
141.6080322265625
  0
ARC
  8
_1-2_
  6
CONTINUOUS
 62
    3
 10
188.864086254223
 20
138.79518251161318
 40
0.9999999162313101
 50
108.07392883300781
 51
175.50869750976562
  0
ARC
  8
_1-4_
  6
CONTINUOUS
 62
    7
 10
274.08199001002959
 20
113.78377965978675
 40
9.9999997422501856
 50
270
 51
0
  0
TEXT
  8
_0-0_
 62
    7
 10
147.56756962956609
 20
22.702702702702709
 40
2.5
 41
1
 50
0
  1
図名
  0
TEXT
  8
_0-0_
 62
    7
 10
147.56756962956609
 20
12.972972972972968
 40
2.5
 41
1
 50
0
  1
縮尺
  0
TEXT
  8
_0-0_
 62
    7
 10
382.77784605284
 20
21.243871740392734
 40
2.5
 41
1
 50
0
  1
ＮＯ
  0
TEXT
  8
_0-0_
 62
    7
 10
31.231870393495313
 20
18.589955922719582
 40
2.5
 41
1
 50
0
  1
木造
  0
TEXT
  8
_0-0_
 62
    7
 10
20.270270012520456
 20
22.702702702702709
 40
2.5
 41
1
 50
0
  1
Ｆ形
  0
TEXT
  8
_0-0_
 62
    7
 10
389.99062615471917
 20
16.178650211643514
 40
2.5
 41
1
 50
0
  1
Ｆ
  0
TEXT
  8
_0-0_
 62
    7
 10
171.37221877639359
 20
12.362518826046511
 40
2.5
 41
1
 50
0
  1
1/5
  0
TEXT
  8
_1-4_
 62
    7
 10
45.397583729511979
 20
13.77361400707349
 40
2.5
 41
1
 50
0
  1
壁際　3
  0
TEXT
  8
_0-1_
 62
    7
 10
87.155801927721186
 20
170.82510458456505
 40
2.5
 41
1
 50
0
  1
瓦桟
  0
TEXT
  8
_0-1_
 62
    7
 10
87.155802958720443
 20
149.41688331397805
 40
2.5
 41
1
 50
0
  1
野地板
  0
TEXT
  8
_0-1_
 62
    7
 10
101.53750239191828
 20
149.41688331397805
 40
2.5
 41
1
 50
0
  1
耐水合板　ｔ＝12
  0
TEXT
  8
_1-4_
 62
    7
 10
225.33421284443625
 20
241.19743553367823
 40
2.5
 41
1
 50
0
  1
外壁
  0
TEXT
  8
_1-4_
 62
    7
 10
214.99091483451224
 20
223.46602156355576
 40
2.5
 41
1
 50
0
  1
水切鉄板
  0
TEXT
  8
_1-4_
 62
    7
 10
201.3229493837099
 20
202.77940904771961
 40
2.5
 41
1
 50
0
  1
発泡弾性シール材
  0
TEXT
  8
_1-4_
 62
    7
 10
236.68989851668076
 20
112.10779550913219
 40
2.5
 41
1
 50
0
  1
200
  0
TEXT
  8
_1-4_
 62
    7
 10
320.72654517921239
 20
139.58964992213893
 40
2.5
 41
1
 50
0
  1
水切り鉄板立上がり寸法
  0
TEXT
  8
_1-4_
 62
    7
 10
322.04698717271964
 20
186.96523305532097
 40
2.5
 41
1
 50
90
  1
300　以上
  0
TEXT
  8
_1-4_
 62
    7
 10
314.82592196077917
 20
231.82740907411318
 40
2.5
 41
1
 50
0
  1
水切鉄板上端より
  0
TEXT
  8
_1-4_
 62
    7
 10
315.31283404376057
 20
229.10069646062078
 40
2.5
 41
1
 50
0
  1
50ｍｍ以上
  0
TEXT
  8
_1-4_
 62
    7
 10
397.66983444626271
 20
13.624907313166432
 40
2.5
 41
1
 50
0
  1
11
  0
TEXT
  8
_1-4_
 62
    7
 10
310.00319939690667
 20
236.64085594383448
 40
3
 41
1
 50
0
  1
水切鉄板上端より50mm以上とする
  0
TEXT
  8
_1-4_
 62
    7
 10
303.21362469647386
 20
186.45608850427578
 40
2.5
 41
1
 50
90
  1
120
  0
TEXT
  8
_1-4_
 62
    7
 10
101.53750032991977
 20
170.82510458456505
 40
2.5
 41
1
 50
0
  1
１５×２１　以上　（防腐処理）
  0
TEXT
  8
_1-2_
 62
    7
 10
101.75749598322687
 20
167.43744308884081
 40
2.5
 41
1
 50
0
  1
※　地域により瓦桟木の大きさは、異なります
  0
POINT
  8
_1-4_
 62
    7
 10
322.54698882231844
 20
158.84024542731208
  0
POINT
  8
_1-4_
 62
    7
 10
322.54698882231844
 20
218.84023305532097
  0
POINT
  8
_1-4_
 62
    7
 10
303.71362634607266
 20
177.33108932907518
  0
POINT
  8
_1-4_
 62
    7
 10
218.56488202069258
 20
111.60779385953337
  0
POINT
  8
_1-4_
 62
    7
 10
258.56491501266891
 20
111.60779385953337
  0
POINT
  8
_1-4_
 62
    7
 10
303.71362634607266
 20
201.3310819058805
  0
LINE
  8
_1-3_
  6
CONTINUOUS
 62
    3
 10
234.34921644624131
 20
163.53988845490792
 11
235.41823729645148
 21
158.24675863898261
  0
LINE
  8
_1-3_
  6
CONTINUOUS
 62
    3
 10
254.44348024774848
 20
167.59820206254287
 11
253.73081598322307
 21
171.12695275259478
  0
ARC
  8
_1-3_
  6
CONTINUOUS
 62
    3
 10
265.64205938568512
 20
112.14972704141439
 40
60.168024011560398
 50
101.41805079796902
 51
121.33833888390653
  0
LINE
  8
_1-1_
  6
CONTINUOUS
 62
    7
 10
240.76676644632181
 20
166.96344829035763
 11
239.61570571840736
 21
169.73383850169091
  0
LINE
  8
_1-1_
  6
CONTINUOUS
 62
    7
 10
239.61570571840736
 20
169.73383850169091
 11
242.38609592974061
 21
170.88489922960534
  0
LINE
  8
_1-1_
  6
CONTINUOUS
 62
    7
 10
242.38609592974061
 20
170.88489922960534
 11
243.53715665765506
 21
168.11450901827209
  0
LINE
  8
_1-1_
  6
CONTINUOUS
 62
    7
 10
243.53715665765506
 20
168.11450901827209
 11
240.76676644632181
 21
166.96344829035763
  0
LINE
  8
_1-1_
  6
CONTINUOUS
 62
    7
 10
240.42689195086032
 20
167.78148246954504
 11
241.24065411088387
 21
167.1603314189399
  0
LINE
  8
_1-1_
  6
CONTINUOUS
 62
    7
 10
239.96763240469957
 20
168.88683894322716
 11
241.88099185483199
 21
167.42638251824147
  0
LINE
  8
_1-1_
  6
CONTINUOUS
 62
    7
 10
239.76536761307506
 20
169.79602177162664
 11
242.52130507477901
 21
167.69243032542667
  0
LINE
  8
_1-1_
  6
CONTINUOUS
 62
    7
 10
240.40570535702315
 20
170.0620728709282
 11
243.16164281872713
 21
167.95848142472823
  0
LINE
  8
_1-1_
  6
CONTINUOUS
 62
    7
 10
241.04601857697017
 20
170.32812067811341
 11
243.34724596785577
 21
168.5716068520577
  0
LINE
  8
_1-1_
  6
CONTINUOUS
 62
    7
 10
241.68635796697646
 20
170.59415951541442
 11
242.88798642169499
 21
169.67696332573982
  0
LINE
  8
_1-1_
  6
CONTINUOUS
 62
    7
 10
242.32667118692348
 20
170.86020732259968
 11
242.4287285215924
 21
170.78230753742142
  0
LINE
  8
_1-1_
  6
CONTINUOUS
 62
    7
 10
242.968682384803
 20
167.87831483930557
 11
243.40032660193964
 21
168.44381650565035
  0
LINE
  8
_1-1_
  6
CONTINUOUS
 62
    7
 10
241.86332755717905
 20
167.41904303114427
 11
243.13428776463863
 21
169.08415589565661
  0
LINE
  8
_1-1_
  6
CONTINUOUS
 62
    7
 10
240.76463460319474
 20
166.96854226984206
 11
242.86822604939471
 21
169.72447973154604
  0
LINE
  8
_1-1_
  6
CONTINUOUS
 62
    7
 10
240.49859576589375
 20
167.60888165984829
 11
242.60218721209372
 21
170.36481912155227
  0
LINE
  8
_1-1_
  6
CONTINUOUS
 62
    7
 10
240.23255692859274
 20
168.24922104985458
 11
242.17852286234694
 21
170.79865165612597
  0
LINE
  8
_1-1_
  6
CONTINUOUS
 62
    7
 10
239.96649356729066
 20
168.88955714774451
 11
241.07314186466374
 21
170.33938881784891
  0
LINE
  8
_1-1_
  6
CONTINUOUS
 62
    7
 10
239.70043020598854
 20
169.52989324563444
 11
239.96776251303874
 21
169.88011371757131
  0
LINE
  8
_1-1_
  6
CONTINUOUS
 62
    2
 10
257.11862924936656
 20
177.91013827364995
 11
257.11862924936656
 21
201.3310819058805
  0
TEXT
  8
_1-4_
 62
    7
 10
214.60503490822501
 20
188.57542487045666
 40
2.5
 41
1
 50
0
  1
のし
  0
TEXT
  8
_0-1_
 62
    7
 10
87.155802958720443
 20
163.3211950353674
 40
2.5
 41
1
 50
0
  1
縦桟
  0
TEXT
  8
_1-4_
 62
    7
 10
87.155802958720443
 20
156.03797706397805
 40
2.5
 41
1
 50
0
  1
ルーフィング
  0
TEXT
  8
_0-1_
 62
    7
 10
87.155801927721186
 20
142.79577719198693
 40
2.5
 41
1
 50
0
  1
たる木
  0
TEXT
  8
_1-4_
 62
    7
 10
309.61657632363813
 20
242.28795231999578
 40
3
 41
1
 50
0
  1
ルーフィング立上げ長さは、300ｍｍ以上かつ
  0
TEXT
  8
_1-4_
 62
    7
 10
324.88953049118459
 20
191.29341331688136
 40
2.5
 41
1
 50
0
  1
ルーフィング立上がり寸法
  0
TEXT
  8
_1-4_
 62
    7
 10
297.47296173044924
 20
119.24875207986689
 40
2.5
 41
1
 50
0
  1
ルーフィング
  0
TEXT
  8
_1-4_
 62
    7
 10
314.15141430948421
 20
119.24875207986689
 40
2.5
 41
1
 50
0
  1
２重貼り
  0
LINE
  8
_1-5_
  6
CONTINUOUS
 62
    7
 10
239.07632992167643
 20
161.0787665987298
 11
238.28779767586752
 21
159.13207761688901
  0
LINE
  8
_1-5_
  6
CONTINUOUS
 62
    7
 10
258.03059345967063
 20
175.97813709512926
 11
248.7469481114656
 21
169.89698956083993
  0
SOLID
  8
_1-5_
  6
CONTINUOUS
 62
    8
 10
239.07632992167643
 20
161.0787665987298
 11
238.28779767586752
 21
159.13207761688901
 12
247.47923979888094
 22
164.02511184279984
 13
247.08702293602198
 23
162.00367695576438
  0
SOLID
  8
_1-5_
  6
CONTINUOUS
 62
    8
 10
239.07632992167643
 20
161.0787665987298
 11
248.69268468908362
 21
164.4211145349451
 12
248.81415289801521
 22
165.09189915012669
 13
248.81415289801521
 23
165.09189915012669
  0
SOLID
  8
_1-5_
  6
CONTINUOUS
 62
    8
 10
239.07632992167643
 20
161.0787665987298
 11
248.81415289801521
 21
165.09189915012669
 12
245.74347208801061
 22
164.86029342358918
 13
245.74347208801061
 23
164.86029342358918
  0
SOLID
  8
_1-5_
  6
CONTINUOUS
 62
    8
 10
239.07632992167643
 20
161.0787665987298
 11
245.74347208801061
 21
164.86029342358918
 12
244.32193428781102
 22
164.1570063013852
 13
244.32193428781102
 23
164.1570063013852
  0
SOLID
  8
_1-5_
  6
CONTINUOUS
 62
    8
 10
239.07632992167643
 20
161.0787665987298
 11
244.32193428781102
 21
164.1570063013852
 12
243.16974049185976
 22
163.57342762551377
 13
243.16974049185976
 23
163.57342762551377
  0
SOLID
  8
_1-5_
  6
CONTINUOUS
 62
    8
 10
239.07632992167643
 20
161.0787665987298
 11
243.16974049185976
 21
163.57342762551377
 12
242.09236447486637
 22
162.98984894964235
 13
242.09236447486637
 23
162.98984894964235
  0
SOLID
  8
_1-5_
  6
CONTINUOUS
 62
    8
 10
239.07632992167643
 20
161.0787665987298
 11
242.09236447486637
 21
162.98984894964235
 12
240.86535289995726
 22
162.24167116006365
 13
240.86535289995726
 23
162.24167116006365
  0
SOLID
  8
_1-5_
  6
CONTINUOUS
 62
    8
 10
239.07632992167643
 20
161.0787665987298
 11
240.86535289995726
 21
162.24167116006365
 12
239.84783110613017
 22
161.58327470523434
 13
239.84783110613017
 23
161.58327470523434
  0
SOLID
  8
_1-5_
  6
CONTINUOUS
 62
    8
 10
239.07632992167643
 20
161.0787665987298
 11
239.84783110613017
 21
161.58327470523434
 12
239.0697262049683
 22
161.08947736411238
 13
239.0697262049683
 23
161.08947736411238
  0
SOLID
  8
_1-5_
  6
CONTINUOUS
 62
    8
 10
245.85674998854375
 20
164.86883739545635
 11
248.81415289801521
 21
165.09189915012669
 12
250.14505747202281
 22
165.52623027079815
 13
250.14505747202281
 23
165.52623027079815
  0
SOLID
  8
_1-5_
  6
CONTINUOUS
 62
    8
 10
245.85674998854375
 20
164.86883739545635
 11
254.44348024774848
 21
167.59820206254287
 12
252.96816968772237
 22
167.25683397194359
 13
252.96816968772237
 23
167.25683397194359
  0
SOLID
  8
_1-5_
  6
CONTINUOUS
 62
    8
 10
245.85674998854375
 20
164.86883739545635
 11
252.96816968772237
 21
167.25683397194359
 12
251.93653646100094
 22
167.00871965159288
 13
251.93653646100094
 23
167.00871965159288
  0
SOLID
  8
_1-5_
  6
CONTINUOUS
 62
    8
 10
245.85674998854375
 20
164.86883739545635
 11
251.93653646100094
 21
167.00871965159288
 12
250.73514080456587
 22
166.66919479216557
 13
250.73514080456587
 23
166.66919479216557
  0
SOLID
  8
_1-5_
  6
CONTINUOUS
 62
    8
 10
245.85674998854375
 20
164.86883739545635
 11
250.73514080456587
 21
166.66919479216557
 12
249.70350757784448
 22
166.34272858117779
 13
249.70350757784448
 23
166.34272858117779
  0
SOLID
  8
_1-5_
  6
CONTINUOUS
 62
    8
 10
245.85674998854375
 20
164.86883739545635
 11
249.70350757784448
 21
166.34272858117779
 12
248.8155194839577
 22
166.05543831550855
 13
248.8155194839577
 23
166.05543831550855
  0
SOLID
  8
_1-5_
  6
CONTINUOUS
 62
    8
 10
245.85674998854375
 20
164.86883739545635
 11
248.8155194839577
 21
166.05543831550855
 12
247.86223814787334
 22
165.68979615920222
 13
247.86223814787334
 23
165.68979615920222
  0
SOLID
  8
_1-5_
  6
CONTINUOUS
 62
    8
 10
245.85674998854375
 20
164.86883739545635
 11
247.86223814787334
 21
165.68979615920222
 12
246.94813275710754
 22
165.35027129977493
 13
246.94813275710754
 23
165.35027129977493
  0
SOLID
  8
_1-5_
  6
CONTINUOUS
 62
    8
 10
245.85674998854375
 20
164.86883739545635
 11
246.94813275710754
 21
165.35027129977493
 12
245.87732358506759
 22
164.89321860439202
 13
245.87732358506759
 23
164.89321860439202
  0
SOLID
  8
_1-5_
  6
CONTINUOUS
 62
    8
 10
258.03059345967063
 20
175.97813709512926
 11
248.74694811146568
 21
169.89698956083996
 12
249.85806033205887
 22
170.21245935434843
 13
249.85806033205887
 23
170.21245935434843
  0
SOLID
  8
_1-5_
  6
CONTINUOUS
 62
    8
 10
258.03059345967063
 20
175.97813709512926
 11
249.85806033205887
 21
170.21245935434843
 12
251.36447032780916
 22
170.60602592981471
 13
251.36447032780916
 23
170.60602592981471
  0
SOLID
  8
_1-5_
  6
CONTINUOUS
 62
    8
 10
258.03059345967063
 20
175.97813709512926
 11
251.36447032780916
 21
170.60602592981471
 12
252.49088500931614
 22
170.87745115427421
 13
252.49088500931614
 23
170.87745115427421
  0
SOLID
  8
_1-5_
  6
CONTINUOUS
 62
    8
 10
258.03059345967063
 20
175.97813709512926
 11
252.49088500931614
 21
170.87745115427421
 12
253.73081598322307
 22
171.12695275259478
 13
253.73081598322307
 23
171.12695275259478
  0
SOLID
  8
_1-5_
  6
CONTINUOUS
 62
    8
 10
258.03059345967063
 20
175.97813709512926
 11
253.73081598322307
 21
171.12695275259478
 12
253.73082666092978
 22
171.12695695629279
 13
253.73082666092978
 23
171.12695695629279
  0
SOLID
  8
_1-5_
  6
CONTINUOUS
 62
    8
 10
249.72883465446952
 20
159.71011076949947
 11
250.96002527185391
 21
156.97438832875847
 12
249.72893792229732
 22
159.7101572397593
 13
249.73467276219321
 23
159.71221333352523
  0
SOLID
  8
_1-5_
  6
CONTINUOUS
 62
    8
 10
250.96002527185391
 20
156.97438832875847
 11
251.04390737172722
 21
157.61473784575591
 12
249.73467276219321
 22
159.71221333352523
 13
249.73467276219321
 23
159.71221333352523
  0
SOLID
  8
_1-5_
  6
CONTINUOUS
 62
    8
 10
251.04390737172722
 20
157.61473784575591
 11
250.96002527185391
 21
156.97438832875847
 12
251.04710677980896
 22
157.61867671719011
 13
252.56494470544766
 23
158.11112687394427
  0
SOLID
  8
_1-5_
  6
CONTINUOUS
 62
    8
 10
250.96002527185391
 20
156.97438832875847
 11
251.47576409417232
 21
157.20646213840794
 12
252.56494470544766
 22
158.11112687394427
 13
252.56494470544766
 23
158.11112687394427
  0
SOLID
  8
_1-5_
  6
CONTINUOUS
 62
    8
 10
251.98298015249821
 20
156.07903937575617
 11
258.03059345967063
 21
158.84024542731208
 12
252.56494470544766
 22
158.11112687394427
 13
252.56494470544766
 23
158.11112687394427
  0
SOLID
  8
_1-5_
  6
CONTINUOUS
 62
    8
 10
251.98298015249821
 20
156.07903937575617
 11
252.56494470544766
 21
158.11112687394427
 12
251.48834126030243
 22
157.20434285550152
 13
251.48834126030243
 23
157.20434285550152
  0
SOLID
  8
_1-5_
  6
CONTINUOUS
 62
    8
 10
251.98298015249821
 20
156.07903937575617
 11
251.48834126030243
 21
157.20434285550152
 12
251.47576409417232
 22
157.20646213840794
 13
251.47576409417232
 23
157.20646213840794
  0
LINE
  8
_1-1_
  6
CONTINUOUS
 62
    2
 10
237.37909817020952
 20
169.12242909231207
 11
257.11862924936656
 21
177.91013827364995
  0
LINE
  8
_1-1_
  6
CONTINUOUS
 62
    2
 10
237.37909817020952
 20
169.12242909231207
 11
240.4436821606248
 21
167.07782603802886
  0
LINE
  8
_1-1_
  6
CONTINUOUS
 62
    7
 10
252.84286889797482
 20
167.01713454074638
 11
252.84286889797482
 21
159.81713454074639
  0
LINE
  8
_1-1_
  6
CONTINUOUS
 62
    7
 10
257.87457567001428
 20
159.81713454074639
 11
252.84286889797482
 21
159.81713454074639
  0
LINE
  8
_1-1_
  6
CONTINUOUS
 62
    7
 10
257.87457567001428
 20
167.01713454074638
 11
257.87457567001428
 21
159.81713454074639
  0
LINE
  8
_1-1_
  6
CONTINUOUS
 62
    7
 10
257.87457567001428
 20
167.01713454074638
 11
252.84286889797482
 21
167.01713454074638
  0
LINE
  8
_1-1_
  6
CONTINUOUS
 62
    7
 10
253.67252495840268
 20
159.06832362728787
 11
261.61497945347151
 21
129.42665375793894
  0
LINE
  8
_1-3_
  6
CONTINUOUS
 62
    7
 10
261.61497945347151
 20
129.42665375793894
 11
267.40258936245027
 21
129.42665375793894
  0
TEXT
  8
_1-3_
 62
    7
 10
268.86990866790052
 20
127.89184456368318
 40
2.5
 41
1
 50
0
  1
葺き土
  0
LINE
  8
_1-1_
  6
CONTINUOUS
 62
    7
 10
252.84286889797482
 20
167.01713454074638
 11
257.68872856229035
 21
159.81713454074639
  0
LINE
  8
_1-1_
  6
CONTINUOUS
 62
    7
 10
252.74213810965017
 20
170.98055709189188
 11
253.76615934359498
 21
171.19901495513344
  0
LINE
  8
_1-1_
  6
CONTINUOUS
 62
    7
 10
253.76615934359498
 20
171.19901495513344
 11
254.54220734935217
 21
167.52572106121602
  0
LINE
  8
_1-1_
  6
DASHED1
 62
    7
 10
252.74213810965017
 20
170.98055709189188
 11
253.50892114702199
 21
167.30528667138557
  0
LINE
  8
_1-1_
  6
CONTINUOUS
 62
    7
 10
253.50892114702199
 20
167.30528667138557
 11
254.54220734935217
 21
167.52572106121602
  0
LINE
  8
_1-1_
  6
DASHED1
 62
    7
 10
255.26770401037095
 20
166.84066011894862
 11
255.26770401037095
 21
163.341973571718
  0
LINE
  8
_1-1_
  6
DASHED1
 62
    7
 10
255.66770401037095
 20
166.84066011894862
 11
255.66770401037095
 21
163.341973571718
  0
LINE
  8
_1-1_
  6
DASHED1
 62
    7
 10
255.66770401037095
 20
163.341973571718
 11
255.46770401037097
 21
162.96628983244653
  0
LINE
  8
_1-1_
  6
DASHED1
 62
    7
 10
255.26770401037095
 20
163.341973571718
 11
255.46770401037097
 21
162.96628983244653
  0
LINE
  8
ADD_LINE
  6
DOT
 62
    4
 10
255.46770401037097
 20
167.40280914141118
 11
255.46770401037097
 21
162.96628983244653
  0
LINE
  8
_1-1_
  6
CONTINUOUS
 62
    7
 10
254.86770401037097
 20
167.06042294655737
 11
256.06770401037096
 21
167.06042294655737
  0
LINE
  8
_1-1_
  6
CONTINUOUS
 62
    7
 10
256.06770401037096
 20
167.06042294655737
 11
256.06770401037096
 21
167.36042294655735
  0
LINE
  8
_1-1_
  6
CONTINUOUS
 62
    7
 10
256.06770401037096
 20
167.36042294655735
 11
254.86770401037097
 21
167.36042294655735
  0
LINE
  8
_1-1_
  6
CONTINUOUS
 62
    7
 10
254.86770401037097
 20
167.36042294655735
 11
254.86770401037097
 21
167.06042294655737
  0
LINE
  8
_1-1_
  6
CONTINUOUS
 62
    7
 10
255.26770401037095
 20
167.06042294655737
 11
255.26770401037095
 21
166.84066011894862
  0
LINE
  8
_1-1_
  6
CONTINUOUS
 62
    7
 10
255.66770401037095
 20
167.06042294655737
 11
255.66770401037095
 21
166.84066011894862
  0
LINE
  8
_1-1_
  6
CONTINUOUS
 62
    7
 10
253.50892114702199
 20
167.30528667138557
 11
254.79028037713073
 21
167.03210712318071
  0
LINE
  8
_1-1_
  6
CONTINUOUS
 62
    7
 10
254.79028037713073
 20
167.03210712318071
 11
256.29850657943916
 21
167.03210712318071
  0
LINE
  8
ADD_LINE
  6
DOT
 62
    7
 10
252.84286889797482
 20
167.01713454074638
 11
252.78795437952212
 21
167.84074385944265
  0
LINE
  8
ADD_LINE
  6
DOT
 62
    7
 10
254.44329777744173
 20
167.59815984123577
 11
254.86770401037097
 21
167.36042294655735
  0
SOLID
  8
ADD_LINE
  6
DOT
 62
    8
 10
245.85674998854375
 20
164.86883739545635
 11
250.14505747202281
 21
165.52623027079815
 12
245.87732358506759
 22
164.89321860439202
 13
252.83814832805876
 23
167.08793376619684
  0
SOLID
  8
ADD_LINE
  6
DOT
 62
    8
 10
250.14505747202281
 20
165.52623027079815
 11
252.84286889797482
 21
167.01713454074638
 12
252.83814832805876
 22
167.08793376619684
 13
252.83814832805876
 23
167.08793376619684
  0
SOLID
  8
ADD_LINE
  6
DOT
 62
    8
 10
250.14505747202281
 20
165.52623027079815
 11
252.56494470544766
 21
158.11112687394427
 12
252.84286889797482
 22
167.01713454074638
 13
252.84286889797482
 23
159.81713454074639
  0
SOLID
  8
ADD_LINE
  6
DOT
 62
    8
 10
252.84286889797482
 20
159.81713454074639
 11
252.56494470544766
 21
158.11112687394427
 12
252.84286889797482
 22
159.81713454074639
 13
258.03059345967063
 23
158.84024542731208
  0
SOLID
  8
ADD_LINE
  6
DOT
 62
    8
 10
252.84286889797482
 20
159.81713454074639
 11
258.03059345967063
 21
158.84024542731208
 12
252.84286889797482
 22
159.81713454074639
 13
257.99672911952212
 23
159.77903025769996
  0
SOLID
  8
ADD_LINE
  6
DOT
 62
    8
 10
254.44329777744173
 20
167.59815984123577
 11
252.83814832805876
 21
167.08793376619684
 12
254.86770401037097
 22
167.36042294655735
 13
254.86947197969016
 23
167.03048361775046
  0
SOLID
  8
ADD_LINE
  6
DOT
 62
    8
 10
252.83814832805876
 20
167.08793376619684
 11
252.84286889797482
 21
167.01713454074638
 12
254.86947197969016
 22
167.03048361775046
 13
254.86947197969016
 23
167.03048361775046
  0
SOLID
  8
ADD_LINE
  6
DOT
 62
    8
 10
254.86770401037097
 20
167.36042294655735
 11
256.06770401037096
 21
167.36042294655735
 12
258.03059345967063
 22
175.97813709512926
 13
258.03059345967063
 23
175.97813709512926
  0
SOLID
  8
ADD_LINE
  6
DOT
 62
    8
 10
254.86770401037097
 20
167.36042294655735
 11
258.03059345967063
 21
175.97813709512926
 12
253.72813950205079
 22
171.12641418525158
 13
253.72813950205079
 23
171.12641418525158
  0
SOLID
  8
ADD_LINE
  6
DOT
 62
    8
 10
253.72813950205079
 20
171.12641418525158
 11
254.44329777744173
 21
167.59815984123577
 12
254.44350146786456
 22
167.59820097974386
 13
254.44350146786456
 23
167.59820097974386
  0
SOLID
  8
ADD_LINE
  6
DOT
 62
    8
 10
253.72813950205079
 20
171.12641418525158
 11
254.44350146786456
 21
167.59820097974386
 12
254.86770401037097
 22
167.36042294655735
 13
254.86770401037097
 23
167.36042294655735
  0
SOLID
  8
ADD_LINE
  6
DOT
 62
    8
 10
258.03059345967063
 20
175.97813709512926
 11
256.06770401037096
 21
167.36042294655735
 12
258.03059345967063
 22
175.97813709512926
 13
258.01321691632734
 23
167.0317232557878
  0
SOLID
  8
ADD_LINE
  6
DOT
 62
    8
 10
256.06770401037096
 20
167.36042294655735
 11
256.07967159808112
 21
167.00342747064275
 12
258.01321691632734
 22
167.0317232557878
 13
258.01321691632734
 23
167.0317232557878
  0
ENDSEC
  0
EOF
