  0
SECTION
  2
HEADER
  9
$ACADVER
  1
AC1009
  9
$INSBASE
 10
0
 20
0
 30
0
  9
$EXTMIN
 10
0
 20
0
  9
$EXTMAX
 10
420
 20
297
  9
$LIMMIN
 10
0
 20
0
  9
$LIMMAX
 10
420
 20
297
  9
$LTSCALE
 40
1
  0
ENDSEC
  0
SECTION
  2
TABLES
  0
TABLE
  2
LTYPE
 70
     9
  0
LTYPE
  2
CONTINUOUS
 70
    64
  3
実線
 72
    65
 73
     0
 40
0.0
  0
LTYPE
  2
DASHED1
 70
    64
  3
--  --  --  --  --  --  --  --  
 72
    65
 73
     2
 40
2.5
 49
1.25
 49
-1.25
  0
LTYPE
  2
DASHED2
 70
    64
  3
----    ----    ----    ----    
 72
    65
 73
     2
 40
5.0
 49
2.5
 49
-2.5
  0
LTYPE
  2
DASHED3
 70
    64
  3
------  ------  ------  ------  
 72
    65
 73
     2
 40
5.0
 49
3.75
 49
-1.25
  0
LTYPE
  2
CENTER1
 70
    64
  3
----- - ----- - ----- - ----- - 
 72
    65
 73
     4
 40
10.0
 49
6.25
 49
-1.25
 49
1.25
 49
-1.25
  0
LTYPE
  2
CENTER2
 70
    64
  3
----------  --  ----------  --  
 72
    65
 73
     4
 40
20.0
 49
12.5
 49
-2.5
 49
2.5
 49
-2.5
  0
LTYPE
  2
PHANTOM1
 70
    64
  3
--- - - --- - - --- - - --- - - 
 72
    65
 73
     6
 40
10.0
 49
3.25
 49
-1.25
 49
1.25
 49
-1.25
 49
1.25
 49
-1.25
  0
LTYPE
  2
PHANTOM2
 70
    64
  3
--------  -  -  --------  -  -  
 72
    65
 73
     6
 40
20.0
 49
10.0
 49
-2.5
 49
1.25
 49
-2.5
 49
1.25
 49
-2.5
  0
LTYPE
  2
DOT
 70
    64
  3
-   -   -   -   -   -   -   -   
 72
    65
 73
     2
 40
2.5
 49
0.625
 49
-1.875
  0
LTYPE
  2
DUMMY
 70
    64
  3
ダミー
 72
    65
 73
     0
 40
0.0
  0
LTYPE
  2
RAND1
 70
    64
  3
ランダム線1
 72
    65
 73
     4
 40
10.0
 49
1.0
 49
-2.0
 49
3.0
 49
-4.0
  0
LTYPE
  2
RAND2
 70
    64
  3
ランダム線2
 72
    65
 73
     4
 40
14.0
 49
2.0
 49
-3.0
 49
4.0
 49
-5.0
  0
LTYPE
  2
RAND3
 70
    64
  3
ランダム線3
 72
    65
 73
     4
 40
18.0
 49
3.0
 49
-4.0
 49
5.0
 49
-6.0
  0
LTYPE
  2
RAND4
 70
    64
  3
ランダム線4
 72
    65
 73
     4
 40
22.0
 49
4.0
 49
-5.0
 49
6.0
 49
-7.0
  0
LTYPE
  2
RAND5
 70
    64
  3
ランダム線5
 72
    65
 73
     4
 40
26.0
 49
5.0
 49
-6.0
 49
7.0
 49
-8.0
  0
LTYPE
  2
LONG1
 70
    64
  3
----------  --  ----------  --  
 72
    65
 73
     4
 40
40.0
 49
32.5
 49
-2.5
 49
2.5
 49
-2.5
  0
LTYPE
  2
LONG2
 70
    64
  3
--------  -  -  --------  -  -  
 72
    65
 73
     6
 40
40.0
 49
30.0
 49
-2.5
 49
1.25
 49
-2.5
 49
1.25
 49
-2.5
  0
LTYPE
  2
LONG3
 70
    64
  3
+++++++++++++++..+++++++++++++++
 72
    65
 73
     2
 40
40.0
 49
37.5
 49
-2.5
  0
LTYPE
  2
LONG4
 70
    64
  3
+++++++++++++++..+++++++++++++++
 72
    65
 73
     2
 40
80.0
 49
75.0
 49
-5.0
  0
LTYPE
  2
LONG5
 70
    64
  3
----------  --  ----------  --  
 72
    65
 73
     4
 40
60.0
 49
37.5
 49
-7.5
 49
7.5
 49
-7.5
  0
LTYPE
  2
dashed
 70
   64
  3
-------   -------------   ------
 72
   65
 73
    2
 40
7.5
 49
6
 49
-1.5
  0
LTYPE
  2
dashed_spaced
 70
   64
  3
----        --------        ----
 72
   65
 73
    2
 40
12
 49
6
 49
-6
  0
LTYPE
  2
long_dashed_dotted
 70
   64
  3
------------- --- --------------
 72
   65
 73
    4
 40
15.25
 49
12
 49
-1.5
 49
0.25
 49
-1.5
  0
LTYPE
  2
long_dashed_double-dotted
 70
   64
  3
----------- --- --- ------------
 72
   65
 73
    6
 40
17
 49
12
 49
-1.5
 49
0.25
 49
-1.5
 49
0.25
 49
-1.5
  0
LTYPE
  2
long_dashed_triplicate-dotted
 70
   64
  3
--------- --- --- --- ----------
 72
   65
 73
    8
 40
18.75
 49
12
 49
-1.5
 49
0.25
 49
-1.5
 49
0.25
 49
-1.5
 49
0.25
 49
-1.5
  0
LTYPE
  2
dotted
 70
   64
  3
   -       -       -       -    
 72
   65
 73
    2
 40
1.75
 49
0.25
 49
-1.5
  0
LTYPE
  2
chain
 70
   64
  3
-------------- -- --------------
 72
   65
 73
    4
 40
18.5
 49
12
 49
-1.5
 49
3.5
 49
-1.5
  0
LTYPE
  2
chain_double_dash
 70
   64
  3
------------ -- -- -------------
 72
   65
 73
    6
 40
23.5
 49
12
 49
-1.5
 49
3.5
 49
-1.5
 49
3.5
 49
-1.5
  0
LTYPE
  2
dashed_dotted
 70
   64
  3
-----------     -     ----------
 72
   65
 73
    4
 40
9.25
 49
6
 49
-1.5
 49
0.25
 49
-1.5
  0
LTYPE
  2
double-dashed_dotted
 70
   64
  3
------   -----------   -   -----
 72
   65
 73
    6
 40
16.75
 49
6
 49
-1.5
 49
6
 49
-1.5
 49
0.25
 49
-1.5
  0
LTYPE
  2
dashed_double-dotted
 70
   64
  3
---------    -    -    ---------
 72
   65
 73
    6
 40
11
 49
6
 49
-1.5
 49
0.25
 49
-1.5
 49
0.25
 49
-1.5
  0
LTYPE
  2
double-dashed_double-dotted
 70
   64
  3
-----   ---------   -   -   ----
 72
   65
 73
    8
 40
18.5
 49
6
 49
-1.5
 49
6
 49
-1.5
 49
0.25
 49
-1.5
 49
0.25
 49
-1.5
  0
LTYPE
  2
dashed_triplicate-dotted
 70
   64
  3
-------    -    -    -    ------
 72
   65
 73
    8
 40
12.75
 49
6
 49
-1.5
 49
0.25
 49
-1.5
 49
0.25
 49
-1.5
 49
0.25
 49
-1.5
  0
LTYPE
  2
double-dashed_triplicate-dotted
 70
   64
  3
-----  ---------  -  -  -  -----
 72
   65
 73
   10
 40
20.25
 49
6
 49
-1.5
 49
6
 49
-1.5
 49
0.25
 49
-1.5
 49
0.25
 49
-1.5
 49
0.25
 49
-1.5
  0
LTYPE
  2
undefined
 70
   64
  3
--------------------------------
 72
   65
 73
    0
 40
0
  0
ENDTAB
  0
TABLE
  2
STYLE
  5
3
100
AcDbSymbolTable
 70
     1
  0
STYLE
  5
10
100
AcDbSymbolTableRecord
100
AcDbTextStyleTableRecord
  2
STANDARD
 70
     0
 40
0.0
 41
1.0
 50
0.0
 71
     0
 42
0.2
  3
txt
  4
bigfont.shx
  0
STYLE
  5
26
100
AcDbSymbolTableRecord
100
AcDbTextStyleTableRecord
  2
TATEGAKI
 70
    68
 40
0.0
 41
1.0
 50
0.0
 71
     0
 42
1.0
  3
txt
  4
bigfont.shx
  0
ENDTAB
  0
TABLE
  2
LAYER
 70
    9
  0
LAYER
  2
_0-0_
 70
   64
 62
    7
  6
CONTINUOUS
  0
LAYER
  2
_0-1_
 70
   64
 62
    7
  6
CONTINUOUS
  0
LAYER
  2
_1-0_
 70
   64
 62
    7
  6
CONTINUOUS
  0
LAYER
  2
_1-1_
 70
   64
 62
    7
  6
CONTINUOUS
  0
LAYER
  2
_1-2_
 70
   64
 62
    7
  6
CONTINUOUS
  0
LAYER
  2
_1-3_
 70
   64
 62
    7
  6
CONTINUOUS
  0
LAYER
  2
_1-4_
 70
   64
 62
    7
  6
CONTINUOUS
  0
LAYER
  2
_1-5_
 70
   64
 62
    7
  6
CONTINUOUS
  0
LAYER
  2
ADD_LINE
 70
   64
 62
    7
  6
CONTINUOUS
  0
ENDTAB
  0
ENDSEC
  0
SECTION
  2
BLOCKS
  0
ENDSEC
  0
SECTION
  2
ENTITIES
  0
LINE
  8
_1-5_
  6
DASHED1
 62
    7
 10
191.79275925095018
 20
187.93713956265836
 11
192.50250326620568
 21
187.82412142366977
  0
LINE
  8
_1-5_
  6
DASHED1
 62
    7
 10
192.50250326620568
 20
187.82412142366977
 11
191.97880925358953
 21
187.36671653953761
  0
LINE
  8
_1-5_
  6
DASHED1
 62
    7
 10
216.59852723817568
 20
187.23233197186445
 11
216.18636672561234
 21
187.69597233952703
  0
LINE
  8
_1-5_
  6
DASHED1
 62
    7
 10
216.18636672561234
 20
187.69597233952703
 11
216.78457724081505
 21
187.80275499498524
  0
LINE
  8
_1-5_
  6
DASHED1
 62
    7
 10
186.62151439769849
 20
186.25047838365711
 11
191.79275925095018
 21
187.93713956265836
  0
LINE
  8
_1-5_
  6
DASHED1
 62
    7
 10
186.80756440033784
 20
185.68005536053633
 11
191.97880925358953
 21
187.36671653953761
  0
LINE
  8
_1-5_
  6
DASHED1
 62
    7
 10
187.00180466110643
 20
186.37450759475297
 11
187.18785466374578
 21
185.80408457163219
  0
LINE
  8
_1-5_
  6
DASHED1
 62
    7
 10
187.38208255252323
 20
186.49853680584883
 11
187.56813255516261
 21
185.92811378272805
  0
LINE
  8
_1-5_
  6
DASHED1
 62
    7
 10
187.76236044394005
 20
186.62256601694469
 11
187.9484104465794
 21
186.05214299382391
  0
LINE
  8
_1-5_
  6
DASHED1
 62
    7
 10
188.14263833535685
 20
186.74659522804055
 11
188.3286883379962
 21
186.17617220491977
  0
LINE
  8
_1-5_
  6
DASHED1
 62
    7
 10
188.52291622677365
 20
186.87062443913641
 11
188.70896622941302
 21
186.30020141601562
  0
LINE
  8
_1-5_
  6
DASHED1
 62
    7
 10
188.90319411819047
 20
186.99465365023227
 11
189.08924412082982
 21
186.42423062711148
  0
LINE
  8
_1-5_
  6
DASHED1
 62
    7
 10
189.28347200960727
 20
187.11868286132812
 11
189.46952201224664
 21
186.54825983820737
  0
LINE
  8
_1-5_
  6
DASHED1
 62
    7
 10
189.66374990102409
 20
187.24271207242398
 11
189.84979990366344
 21
186.67228904930323
  0
LINE
  8
_1-5_
  6
DASHED1
 62
    7
 10
190.04402779244089
 20
187.36674128351987
 11
190.23007779508023
 21
186.79631826039909
  0
LINE
  8
_1-5_
  6
DASHED1
 62
    7
 10
190.42430568385771
 20
187.49077049461573
 11
190.61035568649706
 21
186.92034747149495
  0
LINE
  8
_1-5_
  6
DASHED1
 62
    7
 10
190.80458357527451
 20
187.61479970571159
 11
190.99063357791385
 21
187.04437668259081
  0
LINE
  8
_1-5_
  6
DASHED1
 62
    7
 10
191.1848614666913
 20
187.73882891680745
 11
191.37091146933068
 21
187.16840589368667
  0
LINE
  8
_1-5_
  6
DASHED1
 62
    7
 10
191.56513935810813
 20
187.86285812790331
 11
191.75118936074747
 21
187.29243510478253
  0
LINE
  8
_1-5_
  6
DASHED1
 62
    7
 10
221.60039953283362
 20
186.23203174487966
 11
221.41432478621201
 21
185.66160872175888
  0
LINE
  8
_1-5_
  6
DASHED1
 62
    7
 10
221.22010926942568
 20
186.35608569995779
 11
221.03403452280406
 21
185.78566267683701
  0
LINE
  8
_1-5_
  6
DASHED1
 62
    7
 10
220.83981900601776
 20
186.48013965503591
 11
220.65374425939612
 21
185.90971663191513
  0
LINE
  8
_1-5_
  6
DASHED1
 62
    7
 10
220.45952874260982
 20
186.60419361011404
 11
220.27345399598818
 21
186.03377058699326
  0
LINE
  8
_1-5_
  6
DASHED1
 62
    7
 10
220.07923847920188
 20
186.72824756519216
 11
219.89316373258026
 21
186.15782454207138
  0
LINE
  8
_1-5_
  6
DASHED1
 62
    7
 10
219.69894821579393
 20
186.85230152027029
 11
219.51287346917232
 21
186.28187849714951
  0
LINE
  8
_1-5_
  6
DASHED1
 62
    7
 10
219.31865795238599
 20
186.97635547534841
 11
219.13258320576438
 21
186.40593245222763
  0
LINE
  8
_1-5_
  6
DASHED1
 62
    7
 10
218.93836768897805
 20
187.10040943042654
 11
218.75229294235643
 21
186.52998640730576
  0
LINE
  8
_1-5_
  6
DASHED1
 62
    7
 10
218.5580774255701
 20
187.22446338550466
 11
218.37200267894849
 21
186.65404036238388
  0
LINE
  8
_1-5_
  6
DASHED1
 62
    7
 10
218.17778716216216
 20
187.34851734058279
 11
217.99171241554055
 21
186.77809431746201
  0
LINE
  8
_1-5_
  6
DASHED1
 62
    7
 10
217.79749689875425
 20
187.47257129566091
 11
217.6114221521326
 21
186.90214827254013
  0
LINE
  8
_1-5_
  6
DASHED1
 62
    7
 10
217.4172066353463
 20
187.59662525073904
 11
217.23113188872466
 21
187.02620222761826
  0
LINE
  8
_1-5_
  6
DASHED1
 62
    7
 10
217.03691637193836
 20
187.72067920581716
 11
216.85084162531675
 21
187.15025618269638
  0
LINE
  8
_1-5_
  6
DASHED1
 62
    7
 10
221.9806650522593
 20
186.1080025337838
 11
216.78457724081505
 21
187.80275499498524
  0
LINE
  8
_1-5_
  6
DASHED1
 62
    7
 10
221.79461504961995
 20
185.53757951066302
 11
216.59852723817568
 21
187.23233197186445
  0
LINE
  8
_1-5_
  6
CONTINUOUS
 62
    7
 10
186.62151439769849
 20
186.25047838365711
 11
185.14422442461995
 21
185.76863881703972
  0
LINE
  8
_1-5_
  6
CONTINUOUS
 62
    7
 10
186.80756440033784
 20
185.68005536053633
 11
185.3302744272593
 21
185.19822816591005
  0
LINE
  8
_1-5_
  6
CONTINUOUS
 62
    7
 10
221.9806650522593
 20
186.1080025337838
 11
223.45795502533784
 21
185.62617533915753
  0
LINE
  8
_1-5_
  6
CONTINUOUS
 62
    7
 10
221.79461504961995
 20
185.53757951066302
 11
223.27190502269849
 21
185.05573994404563
  0
LINE
  8
ADD_LINE
  6
DOT
 62
    7
 10
190.39340045001057
 20
189.42605920740078
 11
194.2251916833826
 21
176.24021375501479
  0
LINE
  8
_1-5_
  6
CONTINUOUS
 62
    7
 10
193.59883488835516
 20
177.32054839263091
 11
193.90819652660474
 21
177.26832621806378
  0
LINE
  8
_1-5_
  6
CONTINUOUS
 62
    7
 10
193.90819652660474
 20
177.26832621806378
 11
194.17499851536107
 21
177.48797854861698
  0
LINE
  8
_1-5_
  6
DASHED1
 62
    7
 10
191.9932844832137
 20
182.8455332163218
 11
193.59883488835516
 21
177.32054839263091
  0
LINE
  8
_1-5_
  6
DASHED1
 62
    7
 10
192.56400443412164
 20
183.03168219489021
 11
194.17499851536107
 21
177.48797854861698
  0
LINE
  8
_1-5_
  6
CONTINUOUS
 62
    7
 10
190.31535792995146
 20
188.61956622149495
 11
190.31807976800044
 21
188.61021299619932
  0
LINE
  8
_1-5_
  6
CONTINUOUS
 62
    7
 10
191.15567593961148
 20
185.72788547825169
 11
191.9932844832137
 21
182.8455332163218
  0
LINE
  8
_1-5_
  6
CONTINUOUS
 62
    7
 10
191.72639589051943
 20
185.9140344568201
 11
192.56400443412164
 21
183.03168219489021
  0
LINE
  8
_1-5_
  6
DASHED1
 62
    7
 10
191.72639589051943
 20
185.91402208482899
 11
190.88878734691724
 21
188.79636197476773
  0
LINE
  8
_1-5_
  6
DASHED1
 62
    7
 10
191.15567593961148
 20
185.72787310626057
 11
190.31807976800044
 21
188.61021299619932
  0
LINE
  8
_1-5_
  6
DASHED1
 62
    7
 10
214.39759950380068
 20
178.06370915593328
 11
214.51112489442568
 21
177.47991201039909
  0
LINE
  8
_1-5_
  6
DASHED1
 62
    7
 10
214.51112489442568
 20
177.47991201039909
 11
214.91717364336995
 21
177.73194184174409
  0
LINE
  8
_1-5_
  6
DASHED1
 62
    7
 10
214.39759950380068
 20
178.06370915593328
 11
216.13108866923565
 21
183.0165265057538
  0
LINE
  8
_1-5_
  6
DASHED1
 62
    7
 10
217.12238208667654
 20
185.84875983160896
 11
218.11365076013516
 21
188.680980785473
  0
LINE
  8
_1-5_
  6
DASHED1
 62
    7
 10
214.91717364336995
 20
177.73194184174409
 11
216.70163541226776
 21
182.83043938714107
  0
LINE
  8
_1-5_
  6
DASHED1
 62
    7
 10
217.69292882970862
 20
185.6626727129962
 11
218.68419750316724
 21
188.49489366686024
  0
LINE
  8
_1-5_
  6
CONTINUOUS
 62
    7
 10
217.12238208667654
 20
185.84875983160896
 11
216.13108866923565
 21
183.0165265057538
  0
LINE
  8
_1-5_
  6
CONTINUOUS
 62
    7
 10
216.70163541226776
 20
182.83043938714107
 11
217.69292882970862
 21
185.6626727129962
  0
LINE
  8
_1-5_
  6
DASHED1
 62
    7
 10
192.07705523516682
 20
182.55726582295188
 11
192.64668645085516
 21
182.74713877085094
  0
LINE
  8
_1-5_
  6
DASHED1
 62
    7
 10
192.41217535895271
 20
181.40406015756969
 11
193.02616016284841
 21
181.6087176348712
  0
LINE
  8
_1-5_
  6
DASHED1
 62
    7
 10
192.20354647249789
 20
182.17779211095862
 11
192.7583931587838
 21
182.36274100638727
  0
LINE
  8
_1-5_
  6
DASHED1
 62
    7
 10
192.33003770982899
 20
181.79831839896539
 11
192.87009986671242
 21
181.97833086993245
  0
LINE
  8
_1-5_
  6
DASHED1
 62
    7
 10
192.52388206688136
 20
181.01966239310602
 11
193.09351328256969
 21
181.20953534100508
  0
LINE
  8
_1-5_
  6
DASHED1
 62
    7
 10
192.63558877480997
 20
180.6352522566512
 11
193.20521999049834
 21
180.82512520455026
  0
LINE
  8
_1-5_
  6
DASHED1
 62
    7
 10
192.74729548273862
 20
180.2508544921875
 11
193.31692669842695
 21
180.44072744008659
  0
LINE
  8
_1-5_
  6
DASHED1
 62
    7
 10
192.85900219066724
 20
179.86645672772383
 11
193.42863340635557
 21
180.05632967562289
  0
LINE
  8
_1-5_
  6
DASHED1
 62
    7
 10
192.97070889859586
 20
179.48204659126901
 11
193.54034011428422
 21
179.67191953916807
  0
LINE
  8
_1-5_
  6
DASHED1
 62
    7
 10
193.08241560652451
 20
179.09764882680534
 11
193.65204682221284
 21
179.2875217747044
  0
LINE
  8
_1-5_
  6
DASHED1
 62
    7
 10
193.19412231445312
 20
178.71325106234164
 11
193.76375353014149
 21
178.90312401024073
  0
LINE
  8
_1-5_
  6
DASHED1
 62
    7
 10
193.30582902238177
 20
178.32884092588682
 11
193.8754602380701
 21
178.51871387378591
  0
LINE
  8
_1-5_
  6
DASHED1
 62
    7
 10
193.41753573031039
 20
177.94444316142315
 11
193.98716694599875
 21
178.13431610932221
  0
LINE
  8
_1-5_
  6
DASHED1
 62
    7
 10
193.52924243823904
 20
177.56004539695948
 11
194.09887365392737
 21
177.74991834485854
  0
LINE
  8
_1-5_
  6
DASHED1
 62
    7
 10
216.12708014410896
 20
183.03816511824326
 11
216.68797673405828
 21
182.82448845940669
  0
LINE
  8
_1-5_
  6
DASHED1
 62
    7
 10
215.55254961993245
 20
181.52223741686024
 11
216.39755661423143
 21
181.24663894240922
  0
LINE
  8
_1-5_
  6
DASHED1
 62
    7
 10
216.2694817620355
 20
183.41196008630703
 11
216.83037835198482
 21
183.19828342747044
  0
LINE
  8
_1-5_
  6
DASHED1
 62
    7
 10
215.99890631598396
 20
182.63889622043919
 11
216.56947780299834
 21
182.45280910182643
  0
LINE
  8
_1-5_
  6
DASHED1
 62
    7
 10
215.86674870671453
 20
182.26125356313347
 11
216.43729544974664
 21
182.0751664445207
  0
LINE
  8
_1-5_
  6
DASHED1
 62
    7
 10
215.73456635346284
 20
181.88362327781886
 11
216.30511309649495
 21
181.69753615920609
  0
LINE
  8
_1-5_
  6
DASHED1
 62
    7
 10
215.60240874419341
 20
181.5059806205131
 11
216.17295548722552
 21
181.31989350190034
  0
LINE
  8
_1-5_
  6
DASHED1
 62
    7
 10
215.47022639094175
 20
181.12833796320737
 11
216.04077313397383
 21
180.94225084459461
  0
LINE
  8
_1-5_
  6
DASHED1
 62
    7
 10
215.33804403769005
 20
180.75070767789273
 11
215.9086155247044
 21
180.56462055928
  0
LINE
  8
_1-5_
  6
DASHED1
 62
    7
 10
215.20588642842063
 20
180.37306502058701
 11
215.77643317145271
 21
180.18697790197425
  0
LINE
  8
_1-5_
  6
DASHED1
 62
    7
 10
215.07370407516893
 20
179.99542236328125
 11
215.64425081820102
 21
179.80933524466852
  0
LINE
  8
_1-5_
  6
DASHED1
 62
    7
 10
214.94152172191724
 20
179.61779207796664
 11
215.51209320893159
 21
179.43170495935391
  0
LINE
  8
_1-5_
  6
DASHED1
 62
    7
 10
214.80936411264781
 20
179.24014942066091
 11
215.37991085567992
 21
179.05406230204815
  0
LINE
  8
_1-5_
  6
DASHED1
 62
    7
 10
214.67718175939612
 20
178.8625191353463
 11
215.2477532464105
 21
178.67643201673354
  0
LINE
  8
_1-5_
  6
DASHED1
 62
    7
 10
214.54499940614443
 20
178.48487647804055
 11
215.1155708931588
 21
178.29878935942779
  0
LINE
  8
_1-5_
  6
DASHED1
 62
    7
 10
214.412841796875
 20
178.10723382073482
 11
214.98338853990711
 21
177.92114670212206
  0
LINE
  8
_1-5_
  6
CONTINUOUS
 62
    7
 10
228.08569830817146
 20
185.12769544446792
 11
234.93661416543497
 21
203.95046749630492
  0
LINE
  8
_1-5_
  6
CONTINUOUS
 62
    7
 10
228.08569830817146
 20
185.12769544446792
 11
224.20213029191302
 21
185.25715595967063
  0
LINE
  8
_1-5_
  6
CONTINUOUS
 62
    7
 10
234.93661416543497
 20
203.95046749630492
 11
236.62954794394005
 21
203.95046749630492
  0
LINE
  8
_1-5_
  6
CONTINUOUS
 62
    7
 10
224.20213029191302
 20
185.25715595967063
 11
225.01083786423143
 21
185.43508993612755
  0
LINE
  8
_1-1_
  6
CONTINUOUS
 62
    7
 10
39.020777521906666
 20
107.14443722286741
 11
37.789677800358959
 21
109.88020613386826
  0
LINE
  8
_1-1_
  6
CONTINUOUS
 62
    7
 10
37.789677800358959
 20
109.88020613386826
 11
42.166925378747891
 21
111.84996321394638
  0
LINE
  8
_1-1_
  6
CONTINUOUS
 62
    7
 10
42.166925378747891
 20
111.84996321394638
 11
43.398012728304479
 21
109.11419430294553
  0
LINE
  8
_1-1_
  6
CONTINUOUS
 62
    7
 10
43.398012728304479
 20
109.11419430294553
 11
39.020777521906666
 21
107.14443722286741
  0
LINE
  8
_1-1_
  6
CONTINUOUS
 62
    7
 10
90.088373132654141
 20
130.12485401050466
 11
88.857285783097552
 21
132.8606229215055
  0
LINE
  8
_1-1_
  6
CONTINUOUS
 62
    7
 10
88.857285783097552
 20
132.8606229215055
 11
93.234520989495365
 21
134.83038000158362
  0
LINE
  8
_1-1_
  6
CONTINUOUS
 62
    7
 10
93.234520989495365
 20
134.83038000158362
 11
94.465608339051954
 21
132.09461109058279
  0
LINE
  8
_1-1_
  6
CONTINUOUS
 62
    7
 10
94.465608339051954
 20
132.09461109058279
 11
90.088373132654141
 21
130.12485401050466
  0
LINE
  8
_1-1_
  6
CONTINUOUS
 62
    7
 10
90.088373132654141
 20
130.12485401050466
 11
93.234520989495365
 21
134.83038000158362
  0
LINE
  8
_1-1_
  6
CONTINUOUS
 62
    7
 10
141.15596874340162
 20
153.10529554212417
 11
139.92488139384503
 21
155.841064453125
  0
LINE
  8
_1-1_
  6
CONTINUOUS
 62
    7
 10
139.92488139384503
 20
155.841064453125
 11
144.30211660024284
 21
157.81080916121201
  0
LINE
  8
_1-1_
  6
CONTINUOUS
 62
    7
 10
144.30211660024284
 20
157.81080916121201
 11
145.53320394979943
 21
155.07504025021115
  0
LINE
  8
_1-1_
  6
CONTINUOUS
 62
    7
 10
145.53320394979943
 20
155.07504025021115
 11
141.15596874340162
 21
153.10529554212417
  0
LINE
  8
_1-1_
  6
CONTINUOUS
 62
    7
 10
141.15596874340162
 20
153.10529554212417
 11
144.30211660024284
 21
157.81080916121201
  0
LINE
  8
_1-1_
  6
CONTINUOUS
 62
    7
 10
192.22356435414909
 20
176.08572470175255
 11
190.9924770045925
 21
178.82149361275339
  0
LINE
  8
_1-1_
  6
CONTINUOUS
 62
    7
 10
190.9924770045925
 20
178.82149361275339
 11
195.36971221099029
 21
180.79123832084039
  0
LINE
  8
_1-1_
  6
CONTINUOUS
 62
    7
 10
195.36971221099029
 20
180.79123832084039
 11
196.60079956054687
 21
178.05546940983953
  0
LINE
  8
_1-1_
  6
CONTINUOUS
 62
    7
 10
196.60079956054687
 20
178.05546940983953
 11
192.22356435414909
 21
176.08572470175255
  0
LINE
  8
_1-1_
  6
CONTINUOUS
 62
    7
 10
192.22356435414909
 20
176.08572470175255
 11
195.36971221099029
 21
180.79123832084039
  0
LINE
  8
_1-2_
  6
CONTINUOUS
 62
    3
 10
41.222125903980157
 20
117.22652126002957
 11
42.550605567725938
 21
117.66827557538008
  0
LINE
  8
_1-2_
  6
CONTINUOUS
 62
    3
 10
39.893200848553647
 20
116.15231075802366
 11
41.104418780352603
 21
116.55506855732686
  0
LINE
  8
_1-2_
  6
CONTINUOUS
 62
    3
 10
41.222125903980157
 20
117.22652126002957
 11
41.104418780352603
 21
116.55506855732686
  0
LINE
  8
_1-2_
  6
CONTINUOUS
 62
    3
 10
39.893200848553647
 20
116.15231075802366
 11
39.512242497624584
 21
114.12874788851352
  0
LINE
  8
_1-2_
  6
CONTINUOUS
 62
    3
 10
42.802103403452293
 20
115.64421782622468
 11
43.181676091374584
 21
115.77043687975085
  0
LINE
  8
_1-2_
  6
CONTINUOUS
 62
    7
 10
42.550605567725938
 20
117.66827557538008
 11
43.181676091374584
 21
115.77043687975085
  0
LINE
  8
_1-2_
  6
CONTINUOUS
 62
    3
 10
42.802103403452293
 20
115.64421782622468
 11
43.874928242451432
 21
112.41792421083193
  0
LINE
  8
_1-2_
  6
CONTINUOUS
 62
    7
 10
43.493524499841641
 20
109.76189278267526
 11
45.011790507548568
 21
110.26675662478885
  0
LINE
  8
_1-2_
  6
CONTINUOUS
 62
    3
 10
42.550605567725938
 20
117.66827557538008
 11
43.181676091374584
 21
115.77043687975085
  0
LINE
  8
_1-2_
  6
CONTINUOUS
 62
    7
 10
43.181676091374584
 20
115.77043687975085
 11
45.011790507548568
 21
110.26675662478885
  0
LINE
  8
ADD_LINE
  6
DOT
 62
    4
 10
42.063050141205679
 20
118.13846072635135
 11
42.738808296822214
 21
118.36316082928633
  0
LINE
  8
ADD_LINE
  6
DOT
 62
    4
 10
42.361289359427786
 20
118.23762223527238
 11
93.234520989495365
 21
134.83038000158362
  0
LINE
  8
_1-2_
  6
CONTINUOUS
 62
    3
 10
92.320651492557019
 20
140.21228274783573
 11
93.651630298511407
 21
140.64639117266682
  0
LINE
  8
_1-2_
  6
CONTINUOUS
 62
    3
 10
90.985565185546875
 20
139.14570576435813
 11
92.199059563714115
 21
139.54149813265414
  0
LINE
  8
_1-2_
  6
CONTINUOUS
 62
    3
 10
92.320651492557019
 20
140.21228274783573
 11
92.199059563714115
 21
139.54149813265414
  0
LINE
  8
_1-2_
  6
CONTINUOUS
 62
    3
 10
90.985565185546875
 20
139.14570576435813
 11
90.593001906936237
 21
137.12436985325169
  0
LINE
  8
_1-2_
  6
CONTINUOUS
 62
    3
 10
93.891498462573907
 20
138.62093538851352
 11
94.27178872598185
 21
138.74496459960937
  0
LINE
  8
_1-2_
  6
CONTINUOUS
 62
    7
 10
93.651630298511407
 20
140.64639117266682
 11
94.27178872598185
 21
138.74496459960937
  0
LINE
  8
_1-2_
  6
CONTINUOUS
 62
    3
 10
93.891498462573907
 20
138.62093538851352
 11
94.94576531487543
 21
135.38851763751057
  0
LINE
  8
_1-2_
  6
CONTINUOUS
 62
    7
 10
93.234520989495365
 20
134.83038000158362
 11
94.549144023173568
 21
132.73472553974875
  0
LINE
  8
_1-2_
  6
CONTINUOUS
 62
    7
 10
94.549144023173568
 20
132.73472553974875
 11
96.070255588840794
 21
133.23085475612331
  0
LINE
  8
_1-2_
  6
CONTINUOUS
 62
    3
 10
29.706635346283775
 20
110.95465170370566
 11
28.734023635451848
 21
115.89666830526816
  0
LINE
  8
_1-2_
  6
CONTINUOUS
 62
    3
 10
31.648963722022813
 20
117.89924827781884
 11
90.593001906936237
 21
137.12436985325169
  0
LINE
  8
_1-2_
  6
CONTINUOUS
 62
    3
 10
29.706635346283775
 20
110.95465170370566
 11
31.179780702333204
 21
111.59792101061022
  0
LINE
  8
_1-2_
  6
CONTINUOUS
 62
    3
 10
32.05602697423987
 20
114.8764739165435
 11
94.94576531487543
 21
135.38851763751057
  0
LINE
  8
_1-2_
  6
CONTINUOUS
 62
    3
 10
31.369195886560391
 20
114.00423616976352
 11
31.179780702333204
 21
111.59792101061022
  0
LINE
  8
_1-2_
  6
CONTINUOUS
 62
    3
 10
93.651630298511407
 20
140.64639117266682
 11
94.27178872598185
 21
138.74496459960937
  0
LINE
  8
_1-2_
  6
CONTINUOUS
 62
    7
 10
94.27178872598185
 20
138.74496459960937
 11
96.070255588840794
 21
133.23085475612331
  0
LINE
  8
_1-2_
  6
CONTINUOUS
 62
    3
 10
143.38824710330448
 20
163.19269953547297
 11
144.71922590925888
 21
163.62683270428633
  0
LINE
  8
_1-2_
  6
CONTINUOUS
 62
    3
 10
142.05316079629435
 20
162.12613492398648
 11
143.26665517446159
 21
162.52193966427365
  0
LINE
  8
_1-2_
  6
CONTINUOUS
 62
    3
 10
143.38824710330448
 20
163.19269953547297
 11
143.26665517446159
 21
162.52193966427365
  0
LINE
  8
_1-2_
  6
CONTINUOUS
 62
    3
 10
142.05316079629435
 20
162.12613492398648
 11
141.6605975176837
 21
160.10479901288008
  0
LINE
  8
_1-2_
  6
CONTINUOUS
 62
    3
 10
144.95909407332138
 20
161.6013645481419
 11
145.33938433672932
 21
161.72540613122891
  0
LINE
  8
_1-2_
  6
CONTINUOUS
 62
    7
 10
144.71922590925888
 20
163.62683270428633
 11
145.33938433672932
 21
161.72540613122891
  0
LINE
  8
_1-2_
  6
CONTINUOUS
 62
    3
 10
144.95909407332138
 20
161.6013645481419
 11
146.01336092562289
 21
158.36895916913008
  0
LINE
  8
_1-2_
  6
CONTINUOUS
 62
    7
 10
144.30211660024284
 20
157.81080916121201
 11
145.61673963392104
 21
155.71516707136826
  0
LINE
  8
_1-2_
  6
CONTINUOUS
 62
    7
 10
145.61673963392104
 20
155.71516707136826
 11
147.13785119958825
 21
156.21128391575169
  0
LINE
  8
_1-2_
  6
CONTINUOUS
 62
    3
 10
80.774243329022397
 20
133.93508086333404
 11
79.801606874208204
 21
138.87709746489654
  0
LINE
  8
_1-2_
  6
CONTINUOUS
 62
    3
 10
82.716546960779141
 20
140.87967743744721
 11
141.6605975176837
 21
160.10479901288008
  0
LINE
  8
_1-2_
  6
CONTINUOUS
 62
    3
 10
80.774243329022397
 20
133.93508086333404
 11
82.247376313080665
 21
134.57835017023859
  0
LINE
  8
_1-2_
  6
CONTINUOUS
 62
    3
 10
83.123634956978464
 20
137.85690307617187
 11
146.01336092562289
 21
158.36895916913008
  0
LINE
  8
_1-2_
  6
CONTINUOUS
 62
    3
 10
82.436791497307865
 20
136.9846653293919
 11
82.247376313080665
 21
134.57835017023859
  0
LINE
  8
_1-2_
  6
CONTINUOUS
 62
    3
 10
144.71922590925888
 20
163.62683270428633
 11
145.33938433672932
 21
161.72540613122891
  0
LINE
  8
_1-2_
  6
CONTINUOUS
 62
    7
 10
145.33938433672932
 20
161.72540613122891
 11
147.13785119958825
 21
156.21128391575169
  0
LINE
  8
_1-2_
  6
CONTINUOUS
 62
    3
 10
194.45584271405195
 20
186.17312869510135
 11
195.78682152000636
 21
186.60726186391472
  0
LINE
  8
_1-2_
  6
CONTINUOUS
 62
    3
 10
193.12075640704182
 20
185.10656408361487
 11
194.33425078520904
 21
185.50236882390203
  0
LINE
  8
_1-2_
  6
CONTINUOUS
 62
    3
 10
194.45584271405195
 20
186.17312869510135
 11
194.33425078520904
 21
185.50236882390203
  0
LINE
  8
_1-2_
  6
CONTINUOUS
 62
    3
 10
193.12075640704182
 20
185.10656408361487
 11
192.72819312843117
 21
183.08522817250847
  0
LINE
  8
_1-2_
  6
CONTINUOUS
 62
    3
 10
196.02668968406886
 20
184.58179370777029
 11
196.40697994747677
 21
184.70583529085727
  0
LINE
  8
_1-2_
  6
CONTINUOUS
 62
    7
 10
195.78682152000636
 20
186.60726186391472
 11
196.40697994747677
 21
184.70583529085727
  0
LINE
  8
_1-2_
  6
CONTINUOUS
 62
    3
 10
196.02668968406886
 20
184.58179370777029
 11
197.08095653637037
 21
181.34938832875847
  0
LINE
  8
_1-2_
  6
CONTINUOUS
 62
    7
 10
195.36971221099029
 20
180.79123832084039
 11
196.68433524466852
 21
178.69559623099664
  0
LINE
  8
_1-2_
  6
CONTINUOUS
 62
    7
 10
196.68433524466852
 20
178.69559623099664
 11
198.20544681033573
 21
179.19171307538008
  0
LINE
  8
_1-2_
  6
CONTINUOUS
 62
    3
 10
131.84181419578761
 20
156.9154976509713
 11
130.86922722893792
 21
161.8575142525338
  0
LINE
  8
_1-2_
  6
CONTINUOUS
 62
    3
 10
131.84181419578761
 20
156.9154976509713
 11
133.31497192382812
 21
157.55879170185813
  0
LINE
  8
_1-2_
  6
CONTINUOUS
 62
    3
 10
134.19120582374367
 20
160.83731986380914
 11
197.08095653637037
 21
181.34938832875847
  0
LINE
  8
_1-2_
  6
CONTINUOUS
 62
    3
 10
133.50438710805534
 20
159.96509448902029
 11
133.31497192382812
 21
157.55879170185813
  0
LINE
  8
_1-2_
  6
CONTINUOUS
 62
    3
 10
195.78682152000636
 20
186.60726186391472
 11
196.40697994747677
 21
184.70583529085727
  0
LINE
  8
_1-2_
  6
CONTINUOUS
 62
    7
 10
196.40697994747677
 20
184.70583529085727
 11
198.20544681033573
 21
179.19171307538008
  0
LINE
  8
_0-0_
  6
CONTINUOUS
 62
    5
 10
12.432428308435391
 20
278.51351351351354
 11
412.43244892842063
 21
278.51351351351354
  0
LINE
  8
_0-0_
  6
CONTINUOUS
 62
    5
 10
412.43244892842063
 20
8.5135135135135158
 11
12.432428308435391
 21
8.5135135135135158
  0
LINE
  8
_0-0_
  6
CONTINUOUS
 62
    5
 10
412.43244892842063
 20
28.513511451515001
 11
12.432415936444272
 21
28.513511451515001
  0
LINE
  8
_0-0_
  6
CONTINUOUS
 62
    5
 10
377.43248192039698
 20
8.5135135135135158
 11
377.43248192039698
 21
28.513511451515001
  0
LINE
  8
_0-0_
  6
CONTINUOUS
 62
    5
 10
142.70271507469386
 20
28.513511451515001
 11
142.70271507469386
 21
8.5135135135135158
  0
LINE
  8
_0-0_
  6
CONTINUOUS
 62
    5
 10
220.54054054054055
 20
28.513511451515001
 11
220.54054054054055
 21
8.5135135135135158
  0
LINE
  8
_0-0_
  6
CONTINUOUS
 62
    5
 10
142.70271507469386
 20
18.513512482514244
 11
220.54054054054055
 21
18.513512482514244
  0
LINE
  8
_0-0_
  6
CONTINUOUS
 62
    5
 10
402.16218690614443
 20
24.324325870823216
 11
389.59456985061234
 21
11.756758303255651
  0
LINE
  8
_0-1_
  6
CONTINUOUS
 62
    7
 10
114.09747149493244
 20
71.818158948743672
 11
120.18553037901184
 21
71.818158948743672
  0
LINE
  8
_0-1_
  6
CONTINUOUS
 62
    7
 10
103.90631598395271
 20
99.818152350348399
 11
120.18553037901184
 21
99.818152350348399
  0
LINE
  8
_0-1_
  6
CONTINUOUS
 62
    7
 10
106.45410486169764
 20
92.818153999947214
 11
120.18553037901184
 21
92.818153999947214
  0
LINE
  8
_0-1_
  6
CONTINUOUS
 62
    7
 10
109.00189373944258
 20
85.818155649546028
 11
120.18553037901184
 21
85.818155649546028
  0
LINE
  8
_0-1_
  6
CONTINUOUS
 62
    7
 10
111.5496826171875
 20
78.818157299144858
 11
120.18553037901184
 21
78.818157299144858
  0
LINE
  8
_0-1_
  6
CONTINUOUS
 62
    7
 10
65.12817795212203
 20
127.29729729729731
 11
57.641985094225078
 21
147.86547274202914
  0
LINE
  8
_1-2_
  6
CONTINUOUS
 62
    3
 10
22.155204979149062
 20
105.19560117979309
 11
43.874928242451432
 21
112.41792421083193
  0
LINE
  8
_1-2_
  6
CONTINUOUS
 62
    3
 10
22.155204979149062
 20
108.35711504961994
 11
39.512242497624584
 21
114.12874788851352
  0
LINE
  8
ADD_LINE
  6
DOT
 62
    4
 10
22.155217351140209
 20
105.19558880780195
 11
42.166925378747891
 21
111.84996321394638
  0
LINE
  8
_1-4_
  6
CONTINUOUS
 62
    7
 10
57.641985094225078
 20
147.86547274202914
 11
54.008492134712839
 21
147.86547274202914
  0
LINE
  8
_1-1_
  6
CONTINUOUS
 62
    7
 10
369.62788349873313
 20
107.14443722286741
 11
370.85897084828974
 21
109.88020613386826
  0
LINE
  8
_1-1_
  6
CONTINUOUS
 62
    7
 10
370.85897084828974
 20
109.88020613386826
 11
366.48173564189193
 21
111.84996321394638
  0
LINE
  8
_1-1_
  6
CONTINUOUS
 62
    7
 10
366.48173564189193
 20
111.84996321394638
 11
365.25062354835308
 21
109.11419430294553
  0
LINE
  8
_1-1_
  6
CONTINUOUS
 62
    7
 10
365.25062354835308
 20
109.11419430294553
 11
369.62788349873313
 21
107.14443722286741
  0
LINE
  8
_1-1_
  6
CONTINUOUS
 62
    7
 10
318.56026314400339
 20
130.12485401050466
 11
319.79137523754224
 21
132.8606229215055
  0
LINE
  8
_1-1_
  6
CONTINUOUS
 62
    7
 10
319.79137523754224
 20
132.8606229215055
 11
315.41411528716219
 21
134.83038000158362
  0
LINE
  8
_1-1_
  6
CONTINUOUS
 62
    7
 10
315.41411528716219
 20
134.83038000158362
 11
314.18305268158787
 21
132.09461109058279
  0
LINE
  8
_1-1_
  6
CONTINUOUS
 62
    7
 10
314.18305268158787
 20
132.09461109058279
 11
318.56026314400339
 21
130.12485401050466
  0
LINE
  8
_1-1_
  6
CONTINUOUS
 62
    7
 10
318.56026314400339
 20
130.12485401050466
 11
315.41411528716219
 21
134.83038000158362
  0
LINE
  8
_1-1_
  6
CONTINUOUS
 62
    7
 10
267.49269227723818
 20
153.10529554212417
 11
268.7237548828125
 21
155.841064453125
  0
LINE
  8
_1-1_
  6
CONTINUOUS
 62
    7
 10
268.7237548828125
 20
155.841064453125
 11
264.34654442039698
 21
157.81080916121201
  0
LINE
  8
_1-1_
  6
CONTINUOUS
 62
    7
 10
264.34654442039698
 20
157.81080916121201
 11
263.11543232685813
 21
155.07504025021115
  0
LINE
  8
_1-1_
  6
CONTINUOUS
 62
    7
 10
263.11543232685813
 20
155.07504025021115
 11
267.49269227723818
 21
153.10529554212417
  0
LINE
  8
_1-1_
  6
CONTINUOUS
 62
    7
 10
267.49269227723818
 20
153.10529554212417
 11
264.34654442039698
 21
157.81080916121201
  0
LINE
  8
_1-1_
  6
CONTINUOUS
 62
    7
 10
216.42507192250847
 20
176.08572470175255
 11
217.65618401604732
 21
178.82149361275339
  0
LINE
  8
_1-1_
  6
CONTINUOUS
 62
    7
 10
217.65618401604732
 20
178.82149361275339
 11
213.27892406566724
 21
180.79123832084039
  0
LINE
  8
_1-1_
  6
CONTINUOUS
 62
    7
 10
213.27892406566724
 20
180.79123832084039
 11
212.04786146009292
 21
178.05546940983953
  0
LINE
  8
_1-1_
  6
CONTINUOUS
 62
    7
 10
212.04786146009292
 20
178.05546940983953
 11
216.42507192250847
 21
176.08572470175255
  0
LINE
  8
_1-1_
  6
CONTINUOUS
 62
    7
 10
216.42507192250847
 20
176.08572470175255
 11
213.27892406566724
 21
180.79123832084039
  0
LINE
  8
_1-2_
  6
CONTINUOUS
 62
    3
 10
367.4265103726774
 20
117.22652126002957
 11
366.09805545291385
 21
117.66827557538008
  0
LINE
  8
_1-2_
  6
CONTINUOUS
 62
    3
 10
368.75546017208615
 20
116.15231075802366
 11
367.54424224028719
 21
116.55506855732686
  0
LINE
  8
_1-2_
  6
CONTINUOUS
 62
    3
 10
367.4265103726774
 20
117.22652126002957
 11
367.54424224028719
 21
116.55506855732686
  0
LINE
  8
_1-2_
  6
CONTINUOUS
 62
    3
 10
368.75546017208615
 20
116.15231075802366
 11
369.13641852301521
 21
114.12874788851352
  0
LINE
  8
_1-2_
  6
CONTINUOUS
 62
    3
 10
365.8465576171875
 20
115.64421782622468
 11
365.46698492926521
 21
115.77043687975085
  0
LINE
  8
_1-2_
  6
CONTINUOUS
 62
    7
 10
366.09805545291385
 20
117.66827557538008
 11
365.46698492926521
 21
115.77043687975085
  0
LINE
  8
_1-2_
  6
CONTINUOUS
 62
    3
 10
365.8465576171875
 20
115.64421782622468
 11
364.77370803420609
 21
112.41792421083193
  0
LINE
  8
_1-2_
  6
CONTINUOUS
 62
    7
 10
365.15511177681589
 20
109.76189278267526
 11
363.63687051309125
 21
110.26675662478885
  0
LINE
  8
_1-2_
  6
CONTINUOUS
 62
    3
 10
366.09805545291385
 20
117.66827557538008
 11
365.46698492926521
 21
115.77043687975085
  0
LINE
  8
_1-2_
  6
CONTINUOUS
 62
    7
 10
365.46698492926521
 20
115.77043687975085
 11
363.63687051309125
 21
110.26675662478885
  0
LINE
  8
ADD_LINE
  6
DOT
 62
    4
 10
366.58561087943411
 20
118.13846072635135
 11
365.90985272381761
 21
118.36316082928633
  0
LINE
  8
ADD_LINE
  6
DOT
 62
    4
 10
366.28734691722974
 20
118.23762223527238
 11
315.41411528716219
 21
134.83038000158362
  0
LINE
  8
_1-2_
  6
CONTINUOUS
 62
    3
 10
316.32800952808276
 20
140.21228274783573
 11
314.99703072212839
 21
140.64639117266682
  0
LINE
  8
_1-2_
  6
CONTINUOUS
 62
    3
 10
317.66309583509292
 20
139.14570576435813
 11
316.44960145692568
 21
139.54149813265414
  0
LINE
  8
_1-2_
  6
CONTINUOUS
 62
    3
 10
316.32800952808276
 20
140.21228274783573
 11
316.44960145692568
 21
139.54149813265414
  0
LINE
  8
_1-2_
  6
CONTINUOUS
 62
    3
 10
317.66309583509292
 20
139.14570576435813
 11
318.0556343697213
 21
137.12436985325169
  0
LINE
  8
_1-2_
  6
CONTINUOUS
 62
    3
 10
314.75716255806589
 20
138.62093538851352
 11
314.37684755067568
 21
138.74496459960937
  0
LINE
  8
_1-2_
  6
CONTINUOUS
 62
    7
 10
314.99703072212839
 20
140.64639117266682
 11
314.37684755067568
 21
138.74496459960937
  0
LINE
  8
_1-2_
  6
CONTINUOUS
 62
    3
 10
314.75716255806589
 20
138.62093538851352
 11
313.70287096178214
 21
135.38851763751057
  0
LINE
  8
_1-2_
  6
CONTINUOUS
 62
    7
 10
315.41411528716219
 20
134.83038000158362
 11
314.09951699746625
 21
132.73472553974875
  0
LINE
  8
_1-2_
  6
CONTINUOUS
 62
    7
 10
314.09951699746625
 20
132.73472553974875
 11
312.57840543179901
 21
133.23085475612331
  0
LINE
  8
_1-2_
  6
CONTINUOUS
 62
    3
 10
378.9420133023649
 20
110.95465170370566
 11
379.91462501319683
 21
115.89666830526816
  0
LINE
  8
_1-2_
  6
CONTINUOUS
 62
    3
 10
376.99968492662589
 20
117.89924827781884
 11
318.0556343697213
 21
137.12436985325169
  0
LINE
  8
_1-2_
  6
CONTINUOUS
 62
    3
 10
378.9420133023649
 20
110.95465170370566
 11
377.46885557432432
 21
111.59792101061022
  0
LINE
  8
_1-2_
  6
CONTINUOUS
 62
    3
 10
376.5926216744088
 20
114.8764739165435
 11
313.70287096178214
 21
135.38851763751057
  0
LINE
  8
_1-2_
  6
CONTINUOUS
 62
    3
 10
377.27946513407943
 20
114.00423616976352
 11
377.46885557432432
 21
111.59792101061022
  0
LINE
  8
_1-2_
  6
CONTINUOUS
 62
    3
 10
314.99703072212839
 20
140.64639117266682
 11
314.37684755067568
 21
138.74496459960937
  0
LINE
  8
_1-2_
  6
CONTINUOUS
 62
    7
 10
314.37684755067568
 20
138.74496459960937
 11
312.57840543179901
 21
133.23085475612331
  0
LINE
  8
_1-2_
  6
CONTINUOUS
 62
    3
 10
265.26038917335308
 20
163.19269953547297
 11
263.92941036739865
 21
163.62683270428633
  0
LINE
  8
_1-2_
  6
CONTINUOUS
 62
    3
 10
266.59547548036318
 20
162.12613492398648
 11
265.38198110219594
 21
162.52193966427365
  0
LINE
  8
_1-2_
  6
CONTINUOUS
 62
    3
 10
265.26038917335308
 20
163.19269953547297
 11
265.38198110219594
 21
162.52193966427365
  0
LINE
  8
_1-2_
  6
CONTINUOUS
 62
    3
 10
266.59547548036318
 20
162.12613492398648
 11
266.98806350295609
 21
160.10479901288008
  0
LINE
  8
_1-2_
  6
CONTINUOUS
 62
    3
 10
263.68954220333615
 20
161.6013645481419
 11
263.30927668391047
 21
161.72540613122891
  0
LINE
  8
_1-2_
  6
CONTINUOUS
 62
    7
 10
263.92941036739865
 20
163.62683270428633
 11
263.30927668391047
 21
161.72540613122891
  0
LINE
  8
_1-2_
  6
CONTINUOUS
 62
    3
 10
263.68954220333615
 20
161.6013645481419
 11
262.63530009501693
 21
158.36895916913008
  0
LINE
  8
_1-2_
  6
CONTINUOUS
 62
    7
 10
264.34654442039698
 20
157.81080916121201
 11
263.03189664273651
 21
155.71516707136826
  0
LINE
  8
_1-2_
  6
CONTINUOUS
 62
    7
 10
263.03189664273651
 20
155.71516707136826
 11
261.51078507706927
 21
156.21128391575169
  0
LINE
  8
_1-2_
  6
CONTINUOUS
 62
    3
 10
327.87439294763516
 20
133.93508086333404
 11
328.84702940244932
 21
138.87709746489654
  0
LINE
  8
_1-2_
  6
CONTINUOUS
 62
    3
 10
325.93208931587839
 20
140.87967743744721
 11
266.98806350295609
 21
160.10479901288008
  0
LINE
  8
_1-2_
  6
CONTINUOUS
 62
    3
 10
327.87439294763516
 20
133.93508086333404
 11
326.40128470755911
 21
134.57835017023859
  0
LINE
  8
_1-2_
  6
CONTINUOUS
 62
    3
 10
325.52500131967906
 20
137.85690307617187
 11
262.63530009501693
 21
158.36895916913008
  0
LINE
  8
_1-2_
  6
CONTINUOUS
 62
    3
 10
326.21184477934969
 20
136.9846653293919
 11
326.40128470755911
 21
134.57835017023859
  0
LINE
  8
_1-2_
  6
CONTINUOUS
 62
    3
 10
263.92941036739865
 20
163.62683270428633
 11
263.30927668391047
 21
161.72540613122891
  0
LINE
  8
_1-2_
  6
CONTINUOUS
 62
    7
 10
263.30927668391047
 20
161.72540613122891
 11
261.51078507706927
 21
156.21128391575169
  0
LINE
  8
_1-2_
  6
CONTINUOUS
 62
    3
 10
214.19281830658784
 20
186.17312869510135
 11
212.86183950063347
 21
186.60726186391472
  0
LINE
  8
_1-2_
  6
CONTINUOUS
 62
    3
 10
215.527904613598
 20
185.10656408361487
 11
214.31441023543076
 21
185.50236882390203
  0
LINE
  8
_1-2_
  6
CONTINUOUS
 62
    3
 10
214.19281830658784
 20
186.17312869510135
 11
214.31441023543076
 21
185.50236882390203
  0
LINE
  8
_1-2_
  6
CONTINUOUS
 62
    3
 10
215.527904613598
 20
185.10656408361487
 11
215.92044314822635
 21
183.08522817250847
  0
LINE
  8
_1-2_
  6
CONTINUOUS
 62
    3
 10
212.62197133657097
 20
184.58179370777029
 11
212.24165632918076
 21
184.70583529085727
  0
LINE
  8
_1-2_
  6
CONTINUOUS
 62
    7
 10
212.86183950063347
 20
186.60726186391472
 11
212.24165632918076
 21
184.70583529085727
  0
LINE
  8
_1-2_
  6
CONTINUOUS
 62
    3
 10
212.62197133657097
 20
184.58179370777029
 11
211.56767974028716
 21
181.34938832875847
  0
LINE
  8
_1-2_
  6
CONTINUOUS
 62
    7
 10
213.27892406566724
 20
180.79123832084039
 11
211.9643257759713
 21
178.69559623099664
  0
LINE
  8
_1-2_
  6
CONTINUOUS
 62
    7
 10
211.9643257759713
 20
178.69559623099664
 11
210.44321421030406
 21
179.19171307538008
  0
LINE
  8
_1-2_
  6
CONTINUOUS
 62
    3
 10
276.80682208086995
 20
156.9154976509713
 11
277.77940904771958
 21
161.8575142525338
  0
LINE
  8
_1-2_
  6
CONTINUOUS
 62
    3
 10
276.80682208086995
 20
156.9154976509713
 11
275.33366435282943
 21
157.55879170185813
  0
LINE
  8
_1-2_
  6
CONTINUOUS
 62
    3
 10
274.45743045291385
 20
160.83731986380914
 11
211.56767974028716
 21
181.34938832875847
  0
LINE
  8
_1-2_
  6
CONTINUOUS
 62
    3
 10
275.14427391258448
 20
159.96509448902029
 11
275.33366435282943
 21
157.55879170185813
  0
LINE
  8
_1-2_
  6
CONTINUOUS
 62
    3
 10
212.86183950063347
 20
186.60726186391472
 11
212.24165632918076
 21
184.70583529085727
  0
LINE
  8
_1-2_
  6
CONTINUOUS
 62
    7
 10
212.24165632918076
 20
184.70583529085727
 11
210.44321421030406
 21
179.19171307538008
  0
LINE
  8
_1-2_
  6
CONTINUOUS
 62
    3
 10
386.49343129750849
 20
105.19560117979309
 11
364.77370803420609
 21
112.41792421083193
  0
LINE
  8
_1-2_
  6
CONTINUOUS
 62
    3
 10
386.49343129750849
 20
108.35711504961994
 11
369.13641852301521
 21
114.12874788851352
  0
LINE
  8
ADD_LINE
  6
DOT
 62
    4
 10
386.49343129750849
 20
105.19558880780195
 11
366.48173564189193
 21
111.84996321394638
  0
LINE
  8
_1-0_
  6
CONTINUOUS
 62
    7
 10
22.155204979149062
 20
94.949266588365717
 11
204.32432432432432
 21
176.9253869958826
  0
LINE
  8
_1-0_
  6
CONTINUOUS
 62
    7
 10
386.49343129750849
 20
94.949266588365717
 11
204.32432432432432
 21
176.9253869958826
  0
LINE
  8
_1-0_
  6
CONTINUOUS
 62
    7
 10
22.155204979149062
 20
97.581073657886407
 11
204.32429958034209
 21
179.55718169341216
  0
LINE
  8
_1-0_
  6
CONTINUOUS
 62
    7
 10
386.49343129750849
 20
97.581073657886407
 11
204.32429958034209
 21
179.55718169341216
  0
LINE
  8
_1-0_
  6
CONTINUOUS
 62
    7
 10
22.155204979149062
 20
81.790243612753386
 11
204.32432432432432
 21
163.76636402027029
  0
LINE
  8
_1-0_
  6
CONTINUOUS
 62
    7
 10
386.49343129750849
 20
81.790243612753386
 11
204.32432432432432
 21
163.76636402027029
  0
LINE
  8
_1-1_
  6
CONTINUOUS
 62
    7
 10
217.65618401604732
 20
178.82149361275339
 11
213.27892406566724
 21
180.79123832084039
  0
LINE
  8
_1-1_
  6
CONTINUOUS
 62
    7
 10
213.27892406566724
 20
180.79123832084039
 11
212.04786146009292
 21
178.05546940983953
  0
LINE
  8
_1-2_
  6
CONTINUOUS
 62
    3
 10
214.19281830658784
 20
186.17312869510135
 11
212.86183950063347
 21
186.60726186391472
  0
LINE
  8
_1-2_
  6
CONTINUOUS
 62
    3
 10
215.527904613598
 20
185.10656408361487
 11
214.31441023543076
 21
185.50236882390203
  0
LINE
  8
_1-2_
  6
CONTINUOUS
 62
    3
 10
214.19281830658784
 20
186.17312869510135
 11
214.31441023543076
 21
185.50236882390203
  0
LINE
  8
_1-2_
  6
CONTINUOUS
 62
    3
 10
215.527904613598
 20
185.10656408361487
 11
215.92044314822635
 21
183.08522817250847
  0
LINE
  8
_1-2_
  6
CONTINUOUS
 62
    3
 10
212.62197133657097
 20
184.58179370777029
 11
212.24165632918076
 21
184.70583529085727
  0
LINE
  8
_1-2_
  6
CONTINUOUS
 62
    7
 10
212.86183950063347
 20
186.60726186391472
 11
212.24165632918076
 21
184.70583529085727
  0
LINE
  8
_1-2_
  6
CONTINUOUS
 62
    3
 10
212.62197133657097
 20
184.58179370777029
 11
211.56767974028716
 21
181.34938832875847
  0
LINE
  8
_1-2_
  6
CONTINUOUS
 62
    7
 10
213.27892406566724
 20
180.79123832084039
 11
211.9643257759713
 21
178.69559623099664
  0
LINE
  8
_1-2_
  6
CONTINUOUS
 62
    7
 10
211.9643257759713
 20
178.69559623099664
 11
210.44321421030406
 21
179.19171307538008
  0
LINE
  8
_1-2_
  6
CONTINUOUS
 62
    3
 10
212.86183950063347
 20
186.60726186391472
 11
212.24165632918076
 21
184.70583529085727
  0
LINE
  8
_1-2_
  6
CONTINUOUS
 62
    7
 10
212.24165632918076
 20
184.70583529085727
 11
210.44321421030406
 21
179.19171307538008
  0
LINE
  8
ADD_LINE
  6
DOT
 62
    4
 10
211.56767974028716
 20
181.34938832875847
 11
209.75384686444258
 21
181.9409922006968
  0
LINE
  8
_1-0_
  6
CONTINUOUS
 62
    7
 10
192.32432184992612
 20
139.76635907147383
 11
216.32431442673143
 21
139.76635907147383
  0
LINE
  8
_1-0_
  6
CONTINUOUS
 62
    7
 10
192.32432184992612
 20
158.3663610509924
 11
192.32432184992612
 21
139.76635907147383
  0
LINE
  8
_1-0_
  6
CONTINUOUS
 62
    7
 10
216.32431442673143
 20
158.3663610509924
 11
216.32431442673143
 21
139.76635907147383
  0
LINE
  8
_1-0_
  6
CONTINUOUS
 62
    7
 10
192.32432184992612
 20
158.3663610509924
 11
216.32431442673143
 21
139.76635907147383
  0
LINE
  8
_1-0_
  6
CONTINUOUS
 62
    7
 10
216.32431442673143
 20
158.3663610509924
 11
192.32432184992612
 21
139.76635907147383
  0
LINE
  8
_1-0_
  6
CONTINUOUS
 62
    7
 10
386.49343129750849
 20
99.554938239020274
 11
218.32432102512669
 21
175.23104281038852
  0
LINE
  8
_1-0_
  6
CONTINUOUS
 62
    7
 10
386.49343129750849
 20
98.896971006651185
 11
218.32432102512669
 21
174.57306320602831
  0
LINE
  8
_1-0_
  6
CONTINUOUS
 62
    7
 10
204.32432432432432
 20
180.87306667018581
 11
204.3243119523332
 21
180.87306667018581
  0
LINE
  8
_1-0_
  6
CONTINUOUS
 62
    7
 10
22.155204979149062
 20
99.554932053024714
 11
190.32431525153083
 21
175.23104281038852
  0
LINE
  8
_1-0_
  6
CONTINUOUS
 62
    7
 10
22.155204979149062
 20
98.896977192646759
 11
190.32431525153083
 21
174.57307557801943
  0
LINE
  8
_1-0_
  6
CONTINUOUS
 62
    7
 10
204.32429958034209
 20
180.87306667018581
 11
204.3243119523332
 21
180.87306667018581
  0
LINE
  8
_1-3_
  6
CONTINUOUS
 62
    7
 10
91.956587095518373
 20
132.64974233266472
 11
114.09747149493244
 21
71.818158948743672
  0
LINE
  8
_1-3_
  6
CONTINUOUS
 62
    7
 10
190.32431525153083
 20
174.57307557801943
 11
204.32429958034209
 21
180.87307904217695
  0
LINE
  8
_1-3_
  6
CONTINUOUS
 62
    7
 10
218.32432102512669
 20
174.57306320602831
 11
204.32429958034209
 21
180.87307904217695
  0
LINE
  8
_1-3_
  6
CONTINUOUS
 62
    7
 10
218.32432102512669
 20
175.23104281038852
 11
204.32429958034209
 21
181.53104627454604
  0
LINE
  8
_1-3_
  6
CONTINUOUS
 62
    7
 10
190.32431525153083
 20
175.23104281038852
 11
204.32429958034209
 21
181.53104627454604
  0
LINE
  8
_1-2_
  6
CONTINUOUS
 62
    3
 10
133.78416731550888
 20
163.86011896906672
 11
192.72819312843117
 21
183.08522817250847
  0
LINE
  8
_1-2_
  6
CONTINUOUS
 62
    3
 10
274.86446896114865
 20
163.86011896906672
 11
215.92044314822635
 21
183.08522817250847
  0
LINE
  8
_1-3_
  6
CONTINUOUS
 62
    3
 10
187.21153465477198
 20
184.44147058435391
 11
186.2812970135663
 21
187.29358569995779
  0
LINE
  8
_1-3_
  6
CONTINUOUS
 62
    3
 10
186.2812970135663
 20
187.29358569995779
 11
203.39407431112755
 21
192.8750734071474
  0
LINE
  8
_1-3_
  6
CONTINUOUS
 62
    3
 10
203.39407431112755
 20
192.8750734071474
 11
204.32432432432432
 21
190.02294591955237
  0
LINE
  8
_1-3_
  6
CONTINUOUS
 62
    3
 10
204.32432432432432
 20
190.02294591955237
 11
187.21153465477198
 21
184.44147058435391
  0
LINE
  8
_1-3_
  6
CONTINUOUS
 62
    3
 10
187.21153465477198
 20
184.44147058435391
 11
203.39407431112755
 21
192.8750734071474
  0
LINE
  8
_1-3_
  6
CONTINUOUS
 62
    3
 10
204.32432432432432
 20
190.02294591955237
 11
205.25457433752112
 21
192.8750734071474
  0
LINE
  8
_1-3_
  6
CONTINUOUS
 62
    3
 10
205.25457433752112
 20
192.8750734071474
 11
222.36736400707349
 21
187.29359807194891
  0
LINE
  8
_1-3_
  6
CONTINUOUS
 62
    3
 10
222.36736400707349
 20
187.29359807194891
 11
221.43711399387669
 21
184.44147058435391
  0
LINE
  8
_1-3_
  6
CONTINUOUS
 62
    3
 10
221.43711399387669
 20
184.44147058435391
 11
204.32432432432432
 21
190.02294591955237
  0
LINE
  8
_1-3_
  6
CONTINUOUS
 62
    3
 10
204.32432432432432
 20
190.02294591955237
 11
222.36736400707349
 21
187.29359807194891
  0
LINE
  8
_1-3_
  6
CONTINUOUS
 62
    2
 10
204.32432432432432
 20
194.04159133498734
 11
184.54956467087206
 21
187.59187440614443
  0
LINE
  8
_1-3_
  6
CONTINUOUS
 62
    2
 10
204.32432432432432
 20
194.04159133498734
 11
224.09909634976776
 21
187.59188677813557
  0
LINE
  8
_1-3_
  6
CONTINUOUS
 62
    2
 10
181.10245575775971
 20
182.68092387431378
 11
184.14597794816302
 21
181.99849721547722
  0
LINE
  8
_1-3_
  6
CONTINUOUS
 62
    2
 10
185.6658646867082
 20
184.16932389542865
 11
181.10245575775971
 21
182.68092387431378
  0
LINE
  8
_1-3_
  6
CONTINUOUS
 62
    2
 10
184.54956467087206
 20
187.59187440614443
 11
185.6658646867082
 21
184.16932389542865
  0
LINE
  8
_1-3_
  6
CONTINUOUS
 62
    2
 10
227.54620526288008
 20
182.6809362463049
 11
224.5624521616343
 21
182.27890839447846
  0
LINE
  8
_1-3_
  6
CONTINUOUS
 62
    2
 10
222.98279633393159
 20
184.16932389542865
 11
227.54620526288008
 21
182.6809362463049
  0
LINE
  8
_1-3_
  6
CONTINUOUS
 62
    2
 10
224.09909634976776
 20
187.59188677813557
 11
222.98279633393159
 21
184.16932389542865
  0
LINE
  8
_1-3_
  6
CONTINUOUS
 62
    7
 10
187.60102967958193
 20
184.56849381730365
 11
188.53127969277872
 21
181.71636632970862
  0
LINE
  8
_1-3_
  6
CONTINUOUS
 62
    7
 10
190.45315716717695
 20
185.49874383050044
 11
191.38340718037375
 21
182.64661634290542
  0
LINE
  8
_1-3_
  6
CONTINUOUS
 62
    7
 10
221.03876062341641
 20
184.57137649123734
 11
220.10851061021961
 21
181.71924900364232
  0
LINE
  8
_1-3_
  6
CONTINUOUS
 62
    7
 10
218.18662076383026
 20
185.50162650443414
 11
217.25637075063347
 21
182.64949901683912
  0
LINE
  8
_1-3_
  6
CONTINUOUS
 62
    7
 10
217.40377065297722
 20
183.10142310889992
 11
218.14579319309544
 21
182.35940056878169
  0
LINE
  8
_1-3_
  6
CONTINUOUS
 62
    7
 10
217.61246139938768
 20
183.74126537426099
 11
219.40501445048565
 21
181.94869995117187
  0
LINE
  8
_1-3_
  6
CONTINUOUS
 62
    7
 10
217.82115214579815
 20
184.38109526763091
 11
220.2006077122044
 21
182.00162732923354
  0
LINE
  8
_1-3_
  6
CONTINUOUS
 62
    7
 10
218.02984289220862
 20
185.02092516100086
 11
220.40929845861487
 21
182.64145722260346
  0
LINE
  8
_1-3_
  6
CONTINUOUS
 62
    7
 10
218.499755859375
 20
185.3995080896326
 11
220.61798920502534
 21
183.28128711597341
  0
LINE
  8
_1-3_
  6
CONTINUOUS
 62
    7
 10
219.75897711676521
 20
184.98879510003169
 11
220.82665520745357
 21
183.92111700934333
  0
LINE
  8
_1-3_
  6
CONTINUOUS
 62
    7
 10
221.01819837415542
 20
184.57809448242187
 11
221.03534595386404
 21
184.56094690271328
  0
LINE
  8
_1-3_
  6
CONTINUOUS
 62
    7
 10
219.95353904930323
 20
181.76978858741555
 11
220.20798141891893
 21
182.02423095703125
  0
LINE
  8
_1-3_
  6
CONTINUOUS
 62
    7
 10
219.31370915593328
 20
181.97847933382602
 11
220.61868203652872
 21
183.28346458641261
  0
LINE
  8
_1-3_
  6
CONTINUOUS
 62
    7
 10
218.67387926256336
 20
182.18717008023648
 11
221.02940739812078
 21
184.54271058778505
  0
LINE
  8
_1-3_
  6
CONTINUOUS
 62
    7
 10
218.03402462521117
 20
182.39586082664698
 11
220.41350493559966
 21
184.77532876504435
  0
LINE
  8
_1-3_
  6
CONTINUOUS
 62
    7
 10
217.39419473184122
 20
182.6045392010663
 11
219.77367504222974
 21
184.9840071394637
  0
LINE
  8
_1-3_
  6
CONTINUOUS
 62
    7
 10
217.5786116316512
 20
183.63751385663008
 11
219.13382040487755
 21
185.19269788587417
  0
LINE
  8
_1-3_
  6
CONTINUOUS
 62
    7
 10
217.98933699324326
 20
184.89675985800255
 11
218.49396576752534
 21
185.40138863228464
  0
LINE
  8
_1-3_
  6
CONTINUOUS
 62
    7
 10
191.01015657991977
 20
182.52487595016893
 11
191.32154722471495
 21
182.83626659496412
  0
LINE
  8
_1-3_
  6
CONTINUOUS
 62
    7
 10
189.75092295053844
 20
182.114162960568
 11
191.11286885029563
 21
183.47610886032518
  0
LINE
  8
_1-3_
  6
CONTINUOUS
 62
    7
 10
188.52472253747891
 20
181.73648318728885
 11
190.90417810388516
 21
184.11595112568625
  0
LINE
  8
_1-3_
  6
CONTINUOUS
 62
    7
 10
188.31603179106841
 20
182.37633782464107
 11
190.69548735747466
 21
184.75579339104732
  0
LINE
  8
_1-3_
  6
CONTINUOUS
 62
    7
 10
188.10734104465794
 20
183.01616771801099
 11
190.48679661106419
 21
185.39562328441724
  0
LINE
  8
_1-3_
  6
CONTINUOUS
 62
    7
 10
187.89865029824747
 20
183.65600998337206
 11
189.39688605231208
 21
185.15424573743667
  0
LINE
  8
_1-3_
  6
CONTINUOUS
 62
    7
 10
187.68995955183701
 20
184.29585224873313
 11
188.13762767894849
 21
184.74352037584461
  0
LINE
  8
_1-3_
  6
CONTINUOUS
 62
    7
 10
188.2606671307538
 20
182.54606917097763
 11
188.95286766258448
 21
181.85386863914698
  0
LINE
  8
_1-3_
  6
CONTINUOUS
 62
    7
 10
187.84996651314401
 20
183.80527805637669
 11
189.59268518396328
 21
182.06255938555745
  0
LINE
  8
_1-3_
  6
CONTINUOUS
 62
    7
 10
187.85305951092695
 20
184.65070569837417
 11
190.2325150773332
 21
182.27123775997677
  0
LINE
  8
_1-3_
  6
CONTINUOUS
 62
    7
 10
188.49288940429687
 20
184.85939644478464
 11
190.87234497070312
 21
182.47992850638727
  0
LINE
  8
_1-3_
  6
CONTINUOUS
 62
    7
 10
189.13270692567568
 20
185.06807481920399
 11
191.30074990762247
 21
182.90003183725719
  0
LINE
  8
_1-3_
  6
CONTINUOUS
 62
    7
 10
189.77253681904563
 20
185.27676556561445
 11
190.89004929001268
 21
184.15926546663852
  0
LINE
  8
_1-3_
  6
CONTINUOUS
 62
    7
 10
190.41237908440669
 20
185.48545631202492
 11
190.47933630041175
 21
185.41849909601987
  0
LINE
  8
_1-4_
  6
CONTINUOUS
 62
    7
 10
188.54617557010135
 20
187.17214223500847
 11
176.94425428235854
 21
219.04815673828125
  0
LINE
  8
_1-4_
  6
CONTINUOUS
 62
    7
 10
219.16108827333193
 20
183.0691198400549
 11
230.154369457348
 21
213.27293602195948
  0
LINE
  8
_1-4_
  6
CONTINUOUS
 62
    7
 10
178.83085921004013
 20
239.01533796980576
 11
174.83085838524073
 21
239.01533796980576
  0
LINE
  8
_1-4_
  6
CONTINUOUS
 62
    7
 10
176.94425428235854
 20
219.04815673828125
 11
172.94425345755914
 21
219.04815673828125
  0
LINE
  8
_1-4_
  6
CONTINUOUS
 62
    7
 10
230.154369457348
 20
213.27293602195948
 11
234.15435791015625
 21
213.27293602195948
  0
LINE
  8
_1-4_
  6
CONTINUOUS
 62
    7
 10
196.16820051863388
 20
191.38139054581927
 11
178.83085921004013
 21
239.01533796980576
  0
LINE
  8
_1-0_
  6
CONTINUOUS
 62
    7
 10
365.15511177681589
 20
109.76189278267526
 11
366.48173564189193
 21
111.84996321394638
  0
LINE
  8
_1-0_
  6
CONTINUOUS
 62
    7
 10
43.493524499841641
 20
109.76189278267526
 11
42.166925378747891
 21
111.84996321394638
  0
ARC
  8
_1-5_
  6
CONTINUOUS
 62
    7
 10
185.23750923775339
 20
185.4579781197213
 40
0.52494773993621
 50
108.43473815917969
 51
288.43473815917969
  0
ARC
  8
_1-5_
  6
CONTINUOUS
 62
    7
 10
223.35172910948057
 20
185.35058923669766
 40
0.5298084826082797
 50
253.6175537109375
 51
70.821426391601577
  0
ARC
  8
_1-5_
  6
CONTINUOUS
 62
    7
 10
190.53421845307221
 20
188.68288607210727
 40
0.5657173169625772
 50
17.84393310546875
 51
197.84393310546875
  0
ARC
  8
_1-5_
  6
CONTINUOUS
 62
    7
 10
218.3565376900338
 20
188.59026934649495
 40
0.6031333594708829
 50
343.61056518554693
 51
160.89753723144534
  0
ARC
  8
_1-2_
  6
CONTINUOUS
 62
    3
 10
33.444399447054479
 20
112.16303644953548
 40
6.01062568458351
 50
107.38015747070314
 51
141.59829711914062
  0
ARC
  8
_1-2_
  6
CONTINUOUS
 62
    3
 10
32.366106187975078
 20
113.92576063001479
 40
0.9999999162313101
 50
108.06419372558594
 51
175.49896240234378
  0
ARC
  8
_1-2_
  6
CONTINUOUS
 62
    3
 10
84.511995057801954
 20
135.14346560916385
 40
6.01062568458351
 50
107.38015747070314
 51
141.59829711914062
  0
ARC
  8
_1-2_
  6
CONTINUOUS
 62
    3
 10
83.433701798722552
 20
136.90618978964318
 40
0.9999999162313101
 50
108.06419372558594
 51
175.49896240234378
  0
ARC
  8
_1-2_
  6
CONTINUOUS
 62
    3
 10
135.57959066854943
 20
158.12389476879224
 40
6.01062568458351
 50
107.38015747070314
 51
141.59829711914062
  0
ARC
  8
_1-2_
  6
CONTINUOUS
 62
    3
 10
134.50129740947003
 20
159.88660657728042
 40
0.9999999162313101
 50
108.06419372558594
 51
175.49896240234378
  0
ARC
  8
_1-2_
  6
CONTINUOUS
 62
    3
 10
375.20423682960308
 20
112.16303644953548
 40
6.01062568458351
 50
38.401657104492202
 51
72.619796752929702
  0
ARC
  8
_1-2_
  6
CONTINUOUS
 62
    3
 10
376.28253008868245
 20
113.92576063001479
 40
0.9999999162313101
 50
4.5005950927734588
 51
71.935363769531278
  0
ARC
  8
_1-2_
  6
CONTINUOUS
 62
    3
 10
324.13666596283787
 20
135.14346560916385
 40
6.01062568458351
 50
38.401657104492202
 51
72.619796752929702
  0
ARC
  8
_1-2_
  6
CONTINUOUS
 62
    3
 10
325.21495922191724
 20
136.90618978964318
 40
0.9999999162313101
 50
4.5005950927734588
 51
71.935363769531278
  0
ARC
  8
_1-2_
  6
CONTINUOUS
 62
    3
 10
273.06904560810813
 20
158.12389476879224
 40
6.01062568458351
 50
38.401657104492202
 51
72.619796752929702
  0
ARC
  8
_1-2_
  6
CONTINUOUS
 62
    3
 10
274.1473388671875
 20
159.88660657728042
 40
0.9999999162313101
 50
4.5005950927734588
 51
71.935363769531278
  0
TEXT
  8
_0-0_
 62
    7
 10
147.56756962956609
 20
22.702702702702709
 40
2.5
 41
1
 50
0
  1
図名
  0
TEXT
  8
_0-0_
 62
    7
 10
147.56756962956609
 20
12.972972972972968
 40
2.5
 41
1
 50
0
  1
縮尺
  0
TEXT
  8
_0-0_
 62
    7
 10
382.77784605284
 20
21.243871740392734
 40
2.5
 41
1
 50
0
  1
ＮＯ
  0
TEXT
  8
_0-0_
 62
    7
 10
31.231870393495313
 20
18.589955922719582
 40
2.5
 41
1
 50
0
  1
木造
  0
TEXT
  8
_0-0_
 62
    7
 10
20.270270012520456
 20
22.702702702702709
 40
2.5
 41
1
 50
0
  1
Ｆ形
  0
TEXT
  8
_0-0_
 62
    7
 10
389.99062615471917
 20
16.178650211643514
 40
2.5
 41
1
 50
0
  1
Ｆ
  0
TEXT
  8
_0-0_
 62
    7
 10
171.37221877639359
 20
12.362518826046511
 40
2.5
 41
1
 50
0
  1
1/5
  0
TEXT
  8
_0-1_
 62
    7
 10
41.891723323512736
 20
146.17057181693414
 40
2.5
 41
1
 50
0
  1
桟瓦
  0
TEXT
  8
_0-1_
 62
    7
 10
126.67201892749685
 20
97.929765855943842
 40
2.5
 41
1
 50
0
  1
瓦桟
  0
TEXT
  8
_0-1_
 62
    7
 10
126.67201686549831
 20
76.52154458535685
 40
2.5
 41
1
 50
0
  1
野地板
  0
TEXT
  8
_0-1_
 62
    7
 10
141.05374104267844
 20
76.52154458535685
 40
2.5
 41
1
 50
0
  1
耐水合板　ｔ＝12
  0
TEXT
  8
_1-4_
 62
    7
 10
161.7856061780775
 20
238.03097286739867
 40
2.5
 41
1
 50
0
  1
メタル棟
  0
TEXT
  8
_1-4_
 62
    7
 10
145.62216887602938
 20
217.78705493823904
 40
2.5
 41
1
 50
0
  1
棟止木　15ｘ90
  0
TEXT
  8
_1-4_
 62
    7
 10
45.397582698512736
 20
13.77361400707349
 40
2.5
 41
1
 50
0
  1
棟　2
  0
TEXT
  8
_1-4_
 62
    7
 10
399.59824433197849
 20
13.997444977631432
 40
2.5
 41
1
 50
0
  1
14
  0
LINE
  8
_1-0_
  6
DASHED1
 62
    7
 10
22.155204979149062
 20
98.239028518264362
 11
204.32433669631547
 21
180.21514892578125
  0
LINE
  8
_1-0_
  6
DASHED1
 62
    7
 10
204.32433669631547
 20
180.21514892578125
 11
249.92041207251469
 21
159.69691532032783
  0
LINE
  8
_1-0_
  6
DASHED1
 62
    7
 10
204.20122729468275
 20
179.94157247352405
 11
249.79730267088198
 21
159.42333886807063
  0
LINE
  8
_1-0_
  6
DASHED1
 62
    7
 10
204.20122729468275
 20
179.94157247352405
 11
158.60515348342756
 21
159.42333539041752
  0
LINE
  8
_1-0_
  6
DASHED1
 62
    7
 10
249.79730267088198
 20
159.42333886807063
 11
386.12411730054009
 21
98.076273223057285
  0
POINT
  8
_1-4_
 62
    7
 10
176.17574960820366
 20
120.37757418599872
  0
POINT
  8
_1-4_
 62
    7
 10
221.73032342832175
 20
140.87713658507957
  0
LINE
  8
_1-4_
  6
CONTINUOUS
 62
    7
 10
176.17574960820366
 20
120.37757418599872
 11
221.73032342832175
 21
140.87713658507957
  0
TEXT
  8
_1-4_
 62
    7
 10
197.03800138131504
 20
130.31388222200539
 40
2.5
 41
1
 50
24.227749689999989
  1
250
  0
POINT
  8
_1-4_
 62
    7
 10
188.42589308912997
 20
144.22739908398586
  0
POINT
  8
_1-4_
 62
    7
 10
233.77577236972164
 20
123.81994786638688
  0
LINE
  8
_1-4_
  6
CONTINUOUS
 62
    7
 10
188.42589308912997
 20
144.22739908398586
 11
233.77577236972164
 21
123.81994786638688
  0
TEXT
  8
_1-4_
 62
    7
 10
216.09041668375525
 20
131.97580425227392
 40
2.5
 41
1
 50
-24.227751140000017
  1
250
  0
LINE
  8
_1-4_
  6
CONTINUOUS
 62
    7
 10
221.73032342832175
 20
140.87713658507957
 11
207.70580259287237
 21
172.04273208671373
  0
LINE
  8
_1-4_
  6
CONTINUOUS
 62
    7
 10
176.17574960820366
 20
120.37757418599872
 11
161.87687761827476
 21
152.1528387954931
  0
LINE
  8
_1-4_
  6
CONTINUOUS
 62
    7
 10
188.42589308912997
 20
144.22739908398586
 11
200.60641957766259
 21
171.29522837531044
  0
LINE
  8
_1-4_
  6
CONTINUOUS
 62
    7
 10
233.77577236972164
 20
123.81994786638688
 11
245.81380926800674
 21
150.57113370980784
  0
TEXT
  8
_1-4_
 62
    7
 10
138.37948607561992
 20
94.779509192942427
 40
2.5
 41
1
 50
0
  1
※　地域により瓦桟木の大きさは、異なります
  0
TEXT
  8
_1-0_
 62
    7
 10
238.54117316168708
 20
202.85610302074537
 40
2.5
 41
1
 50
0
  1
ステンレススクリュウ釘
  0
TEXT
  8
_1-4_
 62
    7
 10
138.29656700025708
 20
97.74092359782415
 40
2.5
 41
1
 50
0
  1
１５×２１　（樹脂桟木）
  0
TEXT
  8
_0-1_
 62
    7
 10
126.67201686549831
 20
90.425856306746198
 40
2.5
 41
1
 50
0
  1
縦桟
  0
TEXT
  8
_0-1_
 62
    7
 10
126.67201480349979
 20
83.14263833535685
 40
2.5
 41
1
 50
0
  1
ルーフィング
  0
TEXT
  8
_0-1_
 62
    7
 10
126.67201892749685
 20
69.900426091374584
 40
2.5
 41
1
 50
0
  1
たる木
  0
TEXT
  8
_1-0_
 62
    7
 10
139.41949851822659
 20
48.176294280035577
 40
2.5
 41
1
 50
0
  1
棟部分のルーフィングは、両方向へそれぞれ250ｍｍ以上重ね合わせること。
  0
TEXT
  8
_1-0_
 62
    7
 10
139.50729016729753
 20
44.064970279032622
 40
2.5
 41
1
 50
0
  1
隅棟部分のルーフィングは、重ね貼りの上に両方向へそれぞれ250ｍｍ以上増し貼りをすること。
  0
TEXT
  8
_1-4_
 62
    7
 10
235.62521786942568
 20
212.13325343290342
 40
2.5
 41
1
 50
0
  1
シーラー
  0
ENDSEC
  0
EOF
