  0
SECTION
  2
HEADER
  9
$ACADVER
  1
AC1009
  9
$INSBASE
 10
0
 20
0
 30
0
  9
$EXTMIN
 10
0
 20
0
  9
$EXTMAX
 10
420
 20
297
  9
$LIMMIN
 10
0
 20
0
  9
$LIMMAX
 10
420
 20
297
  9
$LTSCALE
 40
1
  0
ENDSEC
  0
SECTION
  2
TABLES
  0
TABLE
  2
LTYPE
 70
     9
  0
LTYPE
  2
CONTINUOUS
 70
    64
  3
実線
 72
    65
 73
     0
 40
0.0
  0
LTYPE
  2
DASHED1
 70
    64
  3
--  --  --  --  --  --  --  --  
 72
    65
 73
     2
 40
2.5
 49
1.25
 49
-1.25
  0
LTYPE
  2
DASHED2
 70
    64
  3
----    ----    ----    ----    
 72
    65
 73
     2
 40
5.0
 49
2.5
 49
-2.5
  0
LTYPE
  2
DASHED3
 70
    64
  3
------  ------  ------  ------  
 72
    65
 73
     2
 40
5.0
 49
3.75
 49
-1.25
  0
LTYPE
  2
CENTER1
 70
    64
  3
----- - ----- - ----- - ----- - 
 72
    65
 73
     4
 40
10.0
 49
6.25
 49
-1.25
 49
1.25
 49
-1.25
  0
LTYPE
  2
CENTER2
 70
    64
  3
----------  --  ----------  --  
 72
    65
 73
     4
 40
20.0
 49
12.5
 49
-2.5
 49
2.5
 49
-2.5
  0
LTYPE
  2
PHANTOM1
 70
    64
  3
--- - - --- - - --- - - --- - - 
 72
    65
 73
     6
 40
10.0
 49
3.25
 49
-1.25
 49
1.25
 49
-1.25
 49
1.25
 49
-1.25
  0
LTYPE
  2
PHANTOM2
 70
    64
  3
--------  -  -  --------  -  -  
 72
    65
 73
     6
 40
20.0
 49
10.0
 49
-2.5
 49
1.25
 49
-2.5
 49
1.25
 49
-2.5
  0
LTYPE
  2
DOT
 70
    64
  3
-   -   -   -   -   -   -   -   
 72
    65
 73
     2
 40
2.5
 49
0.625
 49
-1.875
  0
LTYPE
  2
DUMMY
 70
    64
  3
ダミー
 72
    65
 73
     0
 40
0.0
  0
LTYPE
  2
RAND1
 70
    64
  3
ランダム線1
 72
    65
 73
     4
 40
10.0
 49
1.0
 49
-2.0
 49
3.0
 49
-4.0
  0
LTYPE
  2
RAND2
 70
    64
  3
ランダム線2
 72
    65
 73
     4
 40
14.0
 49
2.0
 49
-3.0
 49
4.0
 49
-5.0
  0
LTYPE
  2
RAND3
 70
    64
  3
ランダム線3
 72
    65
 73
     4
 40
18.0
 49
3.0
 49
-4.0
 49
5.0
 49
-6.0
  0
LTYPE
  2
RAND4
 70
    64
  3
ランダム線4
 72
    65
 73
     4
 40
22.0
 49
4.0
 49
-5.0
 49
6.0
 49
-7.0
  0
LTYPE
  2
RAND5
 70
    64
  3
ランダム線5
 72
    65
 73
     4
 40
26.0
 49
5.0
 49
-6.0
 49
7.0
 49
-8.0
  0
LTYPE
  2
LONG1
 70
    64
  3
----------  --  ----------  --  
 72
    65
 73
     4
 40
40.0
 49
32.5
 49
-2.5
 49
2.5
 49
-2.5
  0
LTYPE
  2
LONG2
 70
    64
  3
--------  -  -  --------  -  -  
 72
    65
 73
     6
 40
40.0
 49
30.0
 49
-2.5
 49
1.25
 49
-2.5
 49
1.25
 49
-2.5
  0
LTYPE
  2
LONG3
 70
    64
  3
+++++++++++++++..+++++++++++++++
 72
    65
 73
     2
 40
40.0
 49
37.5
 49
-2.5
  0
LTYPE
  2
LONG4
 70
    64
  3
+++++++++++++++..+++++++++++++++
 72
    65
 73
     2
 40
80.0
 49
75.0
 49
-5.0
  0
LTYPE
  2
LONG5
 70
    64
  3
----------  --  ----------  --  
 72
    65
 73
     4
 40
60.0
 49
37.5
 49
-7.5
 49
7.5
 49
-7.5
  0
LTYPE
  2
dashed
 70
   64
  3
-------   -------------   ------
 72
   65
 73
    2
 40
7.5
 49
6
 49
-1.5
  0
LTYPE
  2
dashed_spaced
 70
   64
  3
----        --------        ----
 72
   65
 73
    2
 40
12
 49
6
 49
-6
  0
LTYPE
  2
long_dashed_dotted
 70
   64
  3
------------- --- --------------
 72
   65
 73
    4
 40
15.25
 49
12
 49
-1.5
 49
0.25
 49
-1.5
  0
LTYPE
  2
long_dashed_double-dotted
 70
   64
  3
----------- --- --- ------------
 72
   65
 73
    6
 40
17
 49
12
 49
-1.5
 49
0.25
 49
-1.5
 49
0.25
 49
-1.5
  0
LTYPE
  2
long_dashed_triplicate-dotted
 70
   64
  3
--------- --- --- --- ----------
 72
   65
 73
    8
 40
18.75
 49
12
 49
-1.5
 49
0.25
 49
-1.5
 49
0.25
 49
-1.5
 49
0.25
 49
-1.5
  0
LTYPE
  2
dotted
 70
   64
  3
   -       -       -       -    
 72
   65
 73
    2
 40
1.75
 49
0.25
 49
-1.5
  0
LTYPE
  2
chain
 70
   64
  3
-------------- -- --------------
 72
   65
 73
    4
 40
18.5
 49
12
 49
-1.5
 49
3.5
 49
-1.5
  0
LTYPE
  2
chain_double_dash
 70
   64
  3
------------ -- -- -------------
 72
   65
 73
    6
 40
23.5
 49
12
 49
-1.5
 49
3.5
 49
-1.5
 49
3.5
 49
-1.5
  0
LTYPE
  2
dashed_dotted
 70
   64
  3
-----------     -     ----------
 72
   65
 73
    4
 40
9.25
 49
6
 49
-1.5
 49
0.25
 49
-1.5
  0
LTYPE
  2
double-dashed_dotted
 70
   64
  3
------   -----------   -   -----
 72
   65
 73
    6
 40
16.75
 49
6
 49
-1.5
 49
6
 49
-1.5
 49
0.25
 49
-1.5
  0
LTYPE
  2
dashed_double-dotted
 70
   64
  3
---------    -    -    ---------
 72
   65
 73
    6
 40
11
 49
6
 49
-1.5
 49
0.25
 49
-1.5
 49
0.25
 49
-1.5
  0
LTYPE
  2
double-dashed_double-dotted
 70
   64
  3
-----   ---------   -   -   ----
 72
   65
 73
    8
 40
18.5
 49
6
 49
-1.5
 49
6
 49
-1.5
 49
0.25
 49
-1.5
 49
0.25
 49
-1.5
  0
LTYPE
  2
dashed_triplicate-dotted
 70
   64
  3
-------    -    -    -    ------
 72
   65
 73
    8
 40
12.75
 49
6
 49
-1.5
 49
0.25
 49
-1.5
 49
0.25
 49
-1.5
 49
0.25
 49
-1.5
  0
LTYPE
  2
double-dashed_triplicate-dotted
 70
   64
  3
-----  ---------  -  -  -  -----
 72
   65
 73
   10
 40
20.25
 49
6
 49
-1.5
 49
6
 49
-1.5
 49
0.25
 49
-1.5
 49
0.25
 49
-1.5
 49
0.25
 49
-1.5
  0
LTYPE
  2
undefined
 70
   64
  3
--------------------------------
 72
   65
 73
    0
 40
0
  0
ENDTAB
  0
TABLE
  2
STYLE
  5
3
100
AcDbSymbolTable
 70
     1
  0
STYLE
  5
10
100
AcDbSymbolTableRecord
100
AcDbTextStyleTableRecord
  2
STANDARD
 70
     0
 40
0.0
 41
1.0
 50
0.0
 71
     0
 42
0.2
  3
txt
  4
bigfont.shx
  0
STYLE
  5
26
100
AcDbSymbolTableRecord
100
AcDbTextStyleTableRecord
  2
TATEGAKI
 70
    68
 40
0.0
 41
1.0
 50
0.0
 71
     0
 42
1.0
  3
txt
  4
bigfont.shx
  0
ENDTAB
  0
TABLE
  2
LAYER
 70
   12
  0
LAYER
  2
_0-0_
 70
   64
 62
    7
  6
CONTINUOUS
  0
LAYER
  2
_1-0_
 70
   64
 62
    7
  6
CONTINUOUS
  0
LAYER
  2
_1-1_
 70
   64
 62
    7
  6
CONTINUOUS
  0
LAYER
  2
_1-4_
 70
   64
 62
    7
  6
CONTINUOUS
  0
LAYER
  2
_1-5_
 70
   64
 62
    7
  6
CONTINUOUS
  0
LAYER
  2
_1-6_
 70
   64
 62
    7
  6
CONTINUOUS
  0
LAYER
  2
_1-7_
 70
   64
 62
    7
  6
CONTINUOUS
  0
LAYER
  2
_1-a_
 70
   64
 62
    7
  6
CONTINUOUS
  0
LAYER
  2
_1-b_
 70
   64
 62
    7
  6
CONTINUOUS
  0
LAYER
  2
_1-c_
 70
   64
 62
    7
  6
CONTINUOUS
  0
LAYER
  2
_1-f_
 70
   64
 62
    7
  6
CONTINUOUS
  0
LAYER
  2
ADD_LINE
 70
   64
 62
    7
  6
CONTINUOUS
  0
ENDTAB
  0
ENDSEC
  0
SECTION
  2
BLOCKS
  0
ENDSEC
  0
SECTION
  2
ENTITIES
  0
LINE
  8
_0-0_
  6
CONTINUOUS
 62
    5
 10
6.7567526327597136
 20
280.13513513513516
 11
406.75677325274495
 21
280.13513513513516
  0
LINE
  8
_0-0_
  6
CONTINUOUS
 62
    5
 10
406.75677325274495
 20
10.13513513513513
 11
6.7567526327597136
 21
10.13513513513513
  0
LINE
  8
_0-0_
  6
CONTINUOUS
 62
    5
 10
406.75677325274495
 20
30.135133073136615
 11
6.7567402607685949
 21
30.135133073136615
  0
LINE
  8
_0-0_
  6
CONTINUOUS
 62
    5
 10
371.75678150073907
 20
10.13513513513513
 11
371.75678150073907
 21
30.135133073136615
  0
LINE
  8
_0-0_
  6
CONTINUOUS
 62
    5
 10
137.02703939901818
 20
30.135133073136615
 11
137.02703939901818
 21
10.13513513513513
  0
LINE
  8
_0-0_
  6
CONTINUOUS
 62
    5
 10
214.86486486486487
 20
30.135133073136615
 11
214.86486486486487
 21
10.13513513513513
  0
LINE
  8
_0-0_
  6
CONTINUOUS
 62
    5
 10
137.02703939901818
 20
20.135134104135886
 11
214.86486486486487
 21
20.135134104135886
  0
LINE
  8
_0-0_
  6
CONTINUOUS
 62
    5
 10
396.48648648648651
 20
25.945945945945951
 11
383.91891891891896
 21
13.378379924877265
  0
LINE
  8
_1-1_
  6
CONTINUOUS
 62
    7
 10
124.53001692488388
 20
118.15789712441935
 11
123.29891720333616
 21
120.8936660354202
  0
LINE
  8
_1-1_
  6
CONTINUOUS
 62
    7
 10
123.29891720333616
 20
120.8936660354202
 11
127.67614003774283
 21
122.86342311549832
  0
LINE
  8
_1-1_
  6
CONTINUOUS
 62
    7
 10
127.67614003774283
 20
122.86342311549832
 11
128.90723975929055
 21
120.12765420449747
  0
LINE
  8
_1-1_
  6
CONTINUOUS
 62
    7
 10
128.90723975929055
 20
120.12765420449747
 11
124.53001692488388
 21
118.15789712441935
  0
LINE
  8
ADD_LINE
  6
DOT
 62
    3
 10
68.382865287162161
 20
106.79075911238387
 11
66.525346910631356
 21
113.98142221811656
  0
LINE
  8
_1-a_
  6
CONTINUOUS
 62
    3
 10
71.755024677998335
 20
104.93164474899704
 11
73.157983728357266
 21
99.500662313925261
  0
LINE
  8
_1-a_
  6
CONTINUOUS
 62
    3
 10
127.67614003774283
 20
122.86342311549832
 11
71.755024677998335
 21
104.93164474899704
  0
LINE
  8
_1-a_
  6
CONTINUOUS
 62
    3
 10
68.382865287162161
 20
106.79075911238387
 11
66.378652211782082
 21
114.54930898305533
  0
LINE
  8
ADD_LINE
  6
DOT
 62
    3
 10
68.382865287162161
 20
106.79075911238387
 11
70.888131631387239
 21
97.092553216057865
  0
LINE
  8
_1-a_
  6
CONTINUOUS
 62
    3
 10
68.382865287162161
 20
106.79075911238387
 11
70.888131631387239
 21
97.092553216057865
  0
LINE
  8
_1-a_
  6
CONTINUOUS
 62
    3
 10
63.707959974134297
 20
113.69291975691513
 11
66.378652211782082
 21
114.54930898305533
  0
LINE
  8
_1-a_
  6
CONTINUOUS
 62
    3
 10
63.707959974134297
 20
113.69291975691513
 11
68.217427021748335
 21
96.236163989917657
  0
LINE
  8
_1-a_
  6
CONTINUOUS
 62
    3
 10
68.217427021748335
 20
96.236163989917657
 11
70.888131631387239
 21
97.092553216057865
  0
LINE
  8
_1-a_
  6
CONTINUOUS
 62
    3
 10
70.487291490709481
 20
98.644273087785052
 11
73.157983728357266
 21
99.500662313925261
  0
LINE
  8
_1-a_
  6
CONTINUOUS
 62
    3
 10
126.51980425860431
 20
125.43306092958193
 11
68.382865287162161
 21
106.79075911238387
  0
LINE
  8
_1-a_
  6
CONTINUOUS
 62
    3
 10
126.51980425860431
 20
125.43306092958193
 11
127.37693580421242
 21
122.76006750158362
  0
LINE
  8
_1-a_
  6
CONTINUOUS
 62
    3
 10
68.382865287162161
 20
106.79075911238387
 11
70.888131631387239
 21
97.092553216057865
  0
LINE
  8
_1-1_
  6
CONTINUOUS
 62
    7
 10
167.39031817461995
 20
137.44502711940456
 11
166.15921845307221
 21
140.18079603040542
  0
LINE
  8
_1-1_
  6
CONTINUOUS
 62
    7
 10
166.15921845307221
 20
140.18079603040542
 11
170.53644128747891
 21
142.15055311048354
  0
LINE
  8
_1-1_
  6
CONTINUOUS
 62
    7
 10
170.53644128747891
 20
142.15055311048354
 11
171.76754100902662
 21
139.41478419948268
  0
LINE
  8
_1-1_
  6
CONTINUOUS
 62
    7
 10
171.76754100902662
 20
139.41478419948268
 11
167.39031817461995
 21
137.44502711940456
  0
LINE
  8
_1-1_
  6
CONTINUOUS
 62
    7
 10
210.25063179634714
 20
156.73216948638091
 11
209.01951970280828
 21
159.46793839738177
  0
LINE
  8
_1-1_
  6
CONTINUOUS
 62
    7
 10
209.01951970280828
 20
159.46793839738177
 11
213.39675490920609
 21
161.4376954774599
  0
LINE
  8
_1-1_
  6
CONTINUOUS
 62
    7
 10
213.39675490920609
 20
161.4376954774599
 11
214.62784225876268
 21
158.70192656645904
  0
LINE
  8
_1-1_
  6
CONTINUOUS
 62
    7
 10
214.62784225876268
 20
158.70192656645904
 11
210.25063179634714
 21
156.73216948638091
  0
LINE
  8
_1-1_
  6
CONTINUOUS
 62
    7
 10
253.11094541807435
 20
176.01931185335727
 11
251.8798333245355
 21
178.75508076435813
  0
LINE
  8
_1-1_
  6
CONTINUOUS
 62
    7
 10
251.8798333245355
 20
178.75508076435813
 11
256.25706853093328
 21
180.72483784443625
  0
LINE
  8
_1-1_
  6
CONTINUOUS
 62
    7
 10
256.25706853093328
 20
180.72483784443625
 11
257.4881558804899
 21
177.98906893343539
  0
LINE
  8
_1-1_
  6
CONTINUOUS
 62
    7
 10
257.4881558804899
 20
177.98906893343539
 11
253.11094541807435
 21
176.01931185335727
  0
LINE
  8
_1-1_
  6
CONTINUOUS
 62
    7
 10
299.11738215266047
 20
200.01199258340372
 11
300.34846950221709
 21
197.27622367240289
  0
LINE
  8
_1-1_
  6
CONTINUOUS
 62
    7
 10
300.34846950221709
 20
197.27622367240289
 11
295.97125903980151
 21
195.30647896431589
  0
LINE
  8
_1-1_
  6
CONTINUOUS
 62
    7
 10
294.74014694626271
 20
198.04222313133448
 11
300.34849424619932
 21
197.27619892842063
  0
LINE
  8
_1-1_
  6
CONTINUOUS
 62
    7
 10
251.8798333245355
 20
178.75508076435813
 11
257.4881558804899
 21
177.98906893343539
  0
LINE
  8
_1-1_
  6
CONTINUOUS
 62
    7
 10
209.01951970280828
 20
159.46793839738177
 11
214.62784225876268
 21
158.70192656645904
  0
LINE
  8
_1-1_
  6
CONTINUOUS
 62
    7
 10
166.15921845307221
 20
140.18079603040542
 11
171.76754100902662
 21
139.41478419948268
  0
LINE
  8
_1-1_
  6
CONTINUOUS
 62
    7
 10
123.29891720333616
 20
120.8936660354202
 11
128.90723975929055
 21
120.12765420449747
  0
LINE
  8
_1-b_
  6
CONTINUOUS
 62
    3
 10
115.02014984955659
 20
121.74556422877957
 11
170.71428865999789
 21
142.24496377480997
  0
LINE
  8
_1-b_
  6
CONTINUOUS
 62
    3
 10
171.40512827280406
 20
140.36807086016682
 11
173.09433808197846
 21
140.98981290250211
  0
LINE
  8
_1-b_
  6
CONTINUOUS
 62
    3
 10
170.71428865999789
 20
142.24496377480997
 11
171.40512827280406
 21
140.36807086016682
  0
LINE
  8
_1-b_
  6
CONTINUOUS
 62
    3
 10
115.73643864812078
 20
124.99285311312289
 11
169.93481610272383
 21
144.94171142578125
  0
LINE
  8
_1-b_
  6
CONTINUOUS
 62
    3
 10
114.78758116026184
 20
122.93865719357053
 11
115.20491316511826
 21
121.80481369430954
  0
LINE
  8
_1-1_
  6
CONTINUOUS
 62
    7
 10
166.15923082506336
 20
140.18080840239654
 11
170.53645365947003
 21
142.15056548247466
  0
LINE
  8
_1-1_
  6
CONTINUOUS
 62
    7
 10
210.25063179634714
 20
156.73216948638091
 11
209.01954444679055
 21
159.46793839738177
  0
LINE
  8
_1-1_
  6
CONTINUOUS
 62
    7
 10
209.01954444679055
 20
159.46793839738177
 11
213.39675490920609
 21
161.4376954774599
  0
LINE
  8
_1-1_
  6
CONTINUOUS
 62
    7
 10
213.39675490920609
 20
161.4376954774599
 11
214.62786700274495
 21
158.70192656645904
  0
LINE
  8
_1-1_
  6
CONTINUOUS
 62
    7
 10
214.62786700274495
 20
158.70192656645904
 11
210.25063179634714
 21
156.73216948638091
  0
LINE
  8
_1-1_
  6
CONTINUOUS
 62
    7
 10
209.01954444679055
 20
159.46793839738177
 11
214.62786700274495
 21
158.70192656645904
  0
LINE
  8
_1-b_
  6
CONTINUOUS
 62
    3
 10
157.8804634712838
 20
141.03270659575591
 11
213.57461465371622
 21
161.53210614178633
  0
LINE
  8
_1-b_
  6
CONTINUOUS
 62
    3
 10
214.26544189453125
 20
159.65521322714318
 11
215.95463933171453
 21
160.27695526947846
  0
LINE
  8
_1-b_
  6
CONTINUOUS
 62
    3
 10
158.59675226984797
 20
144.27999548009925
 11
212.79512972445102
 21
164.2288537927576
  0
LINE
  8
_1-b_
  6
CONTINUOUS
 62
    3
 10
157.64789478198904
 20
142.22579956054687
 11
158.06522678684544
 21
141.09195606128591
  0
LINE
  8
_1-1_
  6
CONTINUOUS
 62
    7
 10
209.01954444679055
 20
159.46795076937289
 11
213.39675490920609
 21
161.43770784945102
  0
LINE
  8
_1-1_
  6
CONTINUOUS
 62
    7
 10
253.11094541807435
 20
176.01931185335727
 11
251.8798333245355
 21
178.75508076435813
  0
LINE
  8
_1-1_
  6
CONTINUOUS
 62
    7
 10
251.8798333245355
 20
178.75508076435813
 11
256.25706853093328
 21
180.72483784443625
  0
LINE
  8
_1-1_
  6
CONTINUOUS
 62
    7
 10
256.25706853093328
 20
180.72483784443625
 11
257.4881558804899
 21
177.98906893343539
  0
LINE
  8
_1-1_
  6
CONTINUOUS
 62
    7
 10
257.4881558804899
 20
177.98906893343539
 11
253.11094541807435
 21
176.01931185335727
  0
LINE
  8
_1-1_
  6
CONTINUOUS
 62
    7
 10
251.8798333245355
 20
178.75508076435813
 11
257.4881558804899
 21
177.98906893343539
  0
LINE
  8
_1-b_
  6
CONTINUOUS
 62
    3
 10
200.74077709301099
 20
160.31984896273227
 11
256.43490353146115
 21
180.81924850876268
  0
LINE
  8
_1-b_
  6
CONTINUOUS
 62
    3
 10
257.12575551625844
 20
178.94235559411953
 11
258.81497769742401
 21
179.56409763645482
  0
LINE
  8
_1-b_
  6
CONTINUOUS
 62
    3
 10
256.43490353146115
 20
180.81924850876268
 11
257.12575551625844
 21
178.94235559411953
  0
LINE
  8
_1-b_
  6
CONTINUOUS
 62
    3
 10
201.45706589157518
 20
163.5671378470756
 11
255.65544334617823
 21
183.51599615973396
  0
LINE
  8
_1-b_
  6
CONTINUOUS
 62
    3
 10
200.50820840371622
 20
161.51294192752323
 11
200.92554040857266
 21
160.37909842826227
  0
LINE
  8
_1-1_
  6
CONTINUOUS
 62
    7
 10
251.8798333245355
 20
178.75508076435813
 11
256.25706853093328
 21
180.72483784443625
  0
LINE
  8
_1-1_
  6
CONTINUOUS
 62
    7
 10
256.25706853093328
 20
180.72483784443625
 11
257.4881558804899
 21
177.98906893343539
  0
LINE
  8
_1-1_
  6
CONTINUOUS
 62
    7
 10
295.97125903980151
 20
195.30645422033362
 11
294.74014694626271
 21
198.04222313133448
  0
LINE
  8
_1-1_
  6
CONTINUOUS
 62
    7
 10
294.74014694626271
 20
198.04222313133448
 11
299.11738215266047
 21
200.01199258340372
  0
LINE
  8
_1-1_
  6
CONTINUOUS
 62
    7
 10
299.11738215266047
 20
200.01199258340372
 11
300.34846950221709
 21
197.27619892842063
  0
LINE
  8
_1-1_
  6
CONTINUOUS
 62
    7
 10
300.34846950221709
 20
197.27619892842063
 11
295.97125903980151
 21
195.30645422033362
  0
LINE
  8
_1-1_
  6
CONTINUOUS
 62
    7
 10
294.74014694626271
 20
198.04222313133448
 11
300.34846950221709
 21
197.27619892842063
  0
LINE
  8
_1-1_
  6
CONTINUOUS
 62
    7
 10
251.8798333245355
 20
178.75508076435813
 11
257.4881558804899
 21
177.98906893343539
  0
LINE
  8
_1-1_
  6
CONTINUOUS
 62
    7
 10
251.87985806851776
 20
178.75508076435813
 11
256.25706853093328
 21
180.72483784443625
  0
LINE
  8
_1-1_
  6
CONTINUOUS
 62
    7
 10
256.25706853093328
 20
180.72483784443625
 11
257.48818062447214
 21
177.98906893343539
  0
LINE
  8
_1-1_
  6
CONTINUOUS
 62
    7
 10
251.87985806851776
 20
178.75508076435813
 11
257.48818062447214
 21
177.98906893343539
  0
LINE
  8
_1-b_
  6
CONTINUOUS
 62
    3
 10
257.12575551625844
 20
178.94235559411953
 11
258.81495295344172
 21
179.56409763645482
  0
LINE
  8
_1-b_
  6
CONTINUOUS
 62
    3
 10
256.43492827544344
 20
180.81924850876268
 11
257.12575551625844
 21
178.94235559411953
  0
LINE
  8
ADD_LINE
  6
DOT
 62
    3
 10
256.25706853093328
 20
180.72485021642737
 11
256.25706853093328
 21
181.1836407635663
  0
LINE
  8
ADD_LINE
  6
DOT
 62
    3
 10
256.25706853093328
 20
180.72485021642737
 11
256.25706853093328
 21
180.34181337098818
  0
LINE
  8
_1-1_
  6
CONTINUOUS
 62
    7
 10
251.87985806851776
 20
178.75509313634925
 11
256.25706853093328
 21
180.72485021642737
  0
LINE
  8
_1-1_
  6
CONTINUOUS
 62
    7
 10
295.97125903980151
 20
195.30645422033362
 11
294.74014694626271
 21
198.04222313133448
  0
LINE
  8
_1-1_
  6
CONTINUOUS
 62
    7
 10
294.74014694626271
 20
198.04222313133448
 11
299.11738215266047
 21
200.01199258340372
  0
LINE
  8
_1-1_
  6
CONTINUOUS
 62
    7
 10
299.11738215266047
 20
200.01199258340372
 11
300.34846950221709
 21
197.27619892842063
  0
LINE
  8
_1-1_
  6
CONTINUOUS
 62
    7
 10
300.34846950221709
 20
197.27619892842063
 11
295.97125903980151
 21
195.30645422033362
  0
LINE
  8
_1-1_
  6
CONTINUOUS
 62
    7
 10
294.74014694626271
 20
198.04222313133448
 11
300.34846950221709
 21
197.27619892842063
  0
LINE
  8
_1-b_
  6
CONTINUOUS
 62
    3
 10
243.60109071473818
 20
179.60699132970862
 11
299.29521715318839
 21
200.10639087573904
  0
LINE
  8
_1-b_
  6
CONTINUOUS
 62
    3
 10
299.98606913798568
 20
198.22948558910474
 11
301.6752913191512
 21
198.85125237542232
  0
LINE
  8
_1-b_
  6
CONTINUOUS
 62
    3
 10
299.29521715318839
 20
200.10639087573904
 11
299.98606913798568
 21
198.22948558910474
  0
LINE
  8
_1-b_
  6
CONTINUOUS
 62
    3
 10
244.31737951330237
 20
182.85428021405195
 11
298.51575696790542
 21
202.80313852671031
  0
LINE
  8
_1-b_
  6
CONTINUOUS
 62
    3
 10
243.36852202544344
 20
180.80008429449958
 11
243.78585403029984
 21
179.66624079523862
  0
LINE
  8
_1-b_
  6
CONTINUOUS
 62
    3
 10
286.22213002797719
 20
200.10211016680745
 11
286.63946203283365
 21
198.96824192356419
  0
LINE
  8
_1-0_
  6
CONTINUOUS
 62
    7
 10
101.99146580051732
 20
106.26100282411318
 11
324.17962151604729
 21
206.24569454708617
  0
LINE
  8
_1-1_
  6
DASHED1
 62
    3
 10
101.66317501583616
 20
106.99054202517948
 11
323.85134310335729
 21
206.97524612014359
  0
LINE
  8
_1-0_
  6
CONTINUOUS
 62
    7
 10
101.33488423115499
 20
107.72008122624578
 11
323.52306469066724
 21
207.70477294921875
  0
LINE
  8
_1-b_
  6
CONTINUOUS
 62
    3
 10
286.45469871727198
 20
198.90900483002534
 11
321.65142987225511
 21
211.86391469594597
  0
LINE
  8
_1-b_
  6
CONTINUOUS
 62
    3
 10
287.17098751583615
 20
202.15630608635982
 11
320.49957275390625
 21
214.42358068517737
  0
LINE
  8
_1-0_
  6
CONTINUOUS
 62
    7
 10
101.58109922666809
 20
107.17292991844384
 11
323.76926731418922
 21
207.15763401340794
  0
LINE
  8
_1-b_
  6
CONTINUOUS
 62
    3
 10
298.33792196737755
 20
203.28289959881758
 11
298.50905134871203
 21
202.81800966005068
  0
LINE
  8
_1-b_
  6
CONTINUOUS
 62
    3
 10
298.33901070259714
 20
203.2832955025338
 11
298.51575696790542
 21
202.80313852671031
  0
LINE
  8
_1-b_
  6
CONTINUOUS
 62
    3
 10
298.33794671135979
 20
203.28287485483531
 11
298.50905134871203
 21
202.81800966005068
  0
LINE
  8
_1-b_
  6
CONTINUOUS
 62
    3
 10
299.83943629909209
 20
203.83555644267315
 11
301.66856095597552
 21
198.86609876478042
  0
LINE
  8
_1-b_
  6
CONTINUOUS
 62
    3
 10
299.84054977829396
 20
203.83595234638938
 11
301.6752913191512
 21
198.85125237542232
  0
LINE
  8
_1-b_
  6
CONTINUOUS
 62
    3
 10
299.83946104307432
 20
203.83555644267315
 11
301.66858569995776
 21
198.86609876478042
  0
LINE
  8
_1-b_
  6
CONTINUOUS
 62
    3
 10
255.48433870882602
 20
183.98086135451859
 11
255.65544334617823
 21
183.51599615973396
  0
LINE
  8
_1-b_
  6
CONTINUOUS
 62
    3
 10
256.98582829655828
 20
184.53354294235643
 11
258.81495295344172
 21
179.56409763645482
  0
LINE
  8
_1-b_
  6
CONTINUOUS
 62
    3
 10
255.48433870882602
 20
183.98086135451859
 11
255.65544334617823
 21
183.51599615973396
  0
LINE
  8
_1-b_
  6
CONTINUOUS
 62
    3
 10
256.98585304054058
 20
184.53354294235643
 11
258.81497769742401
 21
179.56409763645482
  0
LINE
  8
_1-b_
  6
CONTINUOUS
 62
    3
 10
212.62402508709883
 20
164.69373135953336
 11
212.79512972445102
 21
164.2288537927576
  0
LINE
  8
_1-b_
  6
CONTINUOUS
 62
    3
 10
214.12551467483109
 20
165.24638820338893
 11
215.95463933171453
 21
160.27695526947846
  0
LINE
  8
_1-b_
  6
CONTINUOUS
 62
    3
 10
169.7636990933805
 20
145.406588992557
 11
169.93481610272383
 21
144.94171142578125
  0
LINE
  8
_1-b_
  6
CONTINUOUS
 62
    3
 10
171.26522579708615
 20
145.95924583641261
 11
173.09433808197846
 21
140.98981290250211
  0
LINE
  8
_1-c_
  6
CONTINUOUS
 62
    7
 10
112.30058824693835
 20
129.6955088022593
 11
114.78758116026184
 21
122.93866956556167
  0
LINE
  8
_1-c_
  6
CONTINUOUS
 62
    7
 10
155.16090186866555
 20
148.98265116923565
 11
157.64789478198904
 21
142.22581193253802
  0
LINE
  8
_1-c_
  6
CONTINUOUS
 62
    7
 10
198.02121549039273
 20
168.26979353621201
 11
200.50820840371622
 21
161.51295429951438
  0
LINE
  8
_1-c_
  6
CONTINUOUS
 62
    7
 10
240.88152911211995
 20
187.55691115920609
 11
243.36852202544344
 21
180.80008429449958
  0
LINE
  8
_1-c_
  6
CONTINUOUS
 62
    7
 10
283.73513711465375
 20
206.85894940350508
 11
286.22213002797719
 21
200.10208542282518
  0
LINE
  8
_1-c_
  6
CONTINUOUS
 62
    7
 10
284.68396985853042
 20
208.91314532305745
 11
318.01257984058276
 21
221.180419921875
  0
LINE
  8
_1-c_
  6
CONTINUOUS
 62
    7
 10
241.83036185599664
 20
189.61110707875847
 11
284.32636982685813
 21
205.25266905088682
  0
LINE
  8
_1-c_
  6
CONTINUOUS
 62
    7
 10
112.71569329339106
 20
128.56772757865289
 11
67.305586531355573
 21
114.00643838418497
  0
LINE
  8
_1-c_
  6
CONTINUOUS
 62
    7
 10
198.97006060626057
 20
170.32397708377323
 11
241.46712019636826
 21
185.96592258762669
  0
LINE
  8
_1-c_
  6
CONTINUOUS
 62
    7
 10
156.10974698453336
 20
151.03683471679687
 11
198.60681894663219
 21
166.67878022065034
  0
LINE
  8
_1-c_
  6
CONTINUOUS
 62
    7
 10
113.24943336280617
 20
131.74969234982052
 11
155.746505324905
 21
147.39163785367398
  0
LINE
  8
_1-4_
  6
CONTINUOUS
 62
    7
 10
102.38769118850296
 20
149.81769871067357
 11
84.121683481577278
 21
190.40880357896961
  0
LINE
  8
_1-4_
  6
CONTINUOUS
 62
    7
 10
84.121683481577278
 20
190.40880357896961
 11
126.98199710330448
 21
209.69594594594597
  0
LINE
  8
_1-4_
  6
CONTINUOUS
 62
    7
 10
102.38767881651184
 20
149.81769871067357
 11
84.121683481577278
 21
190.40880357896961
  0
LINE
  8
_1-4_
  6
CONTINUOUS
 62
    7
 10
145.24799243823904
 20
169.10484107764992
 11
126.98199710330448
 21
209.69594594594597
  0
LINE
  8
_1-4_
  6
CONTINUOUS
 62
    7
 10
126.98199710330448
 20
209.69594594594597
 11
170.01866108662375
 21
229.06246700802367
  0
LINE
  8
_1-4_
  6
CONTINUOUS
 62
    7
 10
188.28465642155828
 20
188.47134976773648
 11
170.01866108662375
 21
229.06244226404141
  0
LINE
  8
_1-4_
  6
CONTINUOUS
 62
    7
 10
170.01866108662375
 20
229.06246700802367
 11
212.70263671875
 21
248.27023067989867
  0
LINE
  8
_1-4_
  6
CONTINUOUS
 62
    7
 10
230.96861968169341
 20
207.67913818359375
 11
212.70261197476773
 21
248.27025542388094
  0
LINE
  8
_1-4_
  6
CONTINUOUS
 62
    7
 10
212.70263671875
 20
248.27023067989867
 11
255.73875633445948
 21
267.63647955817146
  0
LINE
  8
_1-4_
  6
CONTINUOUS
 62
    7
 10
274.00476404138516
 20
227.04538706186656
 11
255.73875633445948
 21
267.63647955817146
  0
LINE
  8
_1-a_
  6
CONTINUOUS
 62
    7
 10
39.552909232474661
 20
170.35285331107477
 11
84.121695853568411
 21
190.40880357896961
  0
LINE
  8
_1-a_
  6
CONTINUOUS
 62
    7
 10
102.38769118850296
 20
149.81769871067357
 11
84.121695853568411
 21
190.40880357896961
  0
LINE
  8
_1-4_
  6
CONTINUOUS
 62
    7
 10
98.108108108108112
 20
120.81081081081082
 11
78.121106946790547
 21
155.42931221626901
  0
LINE
  8
_1-4_
  6
CONTINUOUS
 62
    7
 10
91.213086102459883
 20
108.38960389833193
 11
71.609226948506148
 21
142.34448407147383
  0
LINE
  8
_1-4_
  6
CONTINUOUS
 62
    7
 10
78.121106946790547
 20
155.42931221626901
 11
73.783783783783804
 21
155.42931221626901
  0
LINE
  8
_1-4_
  6
CONTINUOUS
 62
    7
 10
71.609226948506148
 20
142.34448407147383
 11
64.054054054054063
 21
142.34448407147383
  0
LINE
  8
_1-4_
  6
CONTINUOUS
 62
    7
 10
231.8918918918919
 20
180
 11
216.82015908730997
 21
206.10498789194469
  0
LINE
  8
_1-4_
  6
CONTINUOUS
 62
    7
 10
216.82015908730997
 20
206.10498789194469
 11
209.18918918918919
 21
206.10498789194469
  0
LINE
  8
_1-0_
  6
CONTINUOUS
 62
    7
 10
104.45365287162163
 20
100.78947118810706
 11
326.64182095914276
 21
200.7741690970756
  0
LINE
  8
_1-0_
  6
CONTINUOUS
 62
    7
 10
82.925608866923568
 20
97.68136101800043
 11
85.339501870645066
 21
92.188097979571367
  0
LINE
  8
_1-0_
  6
CONTINUOUS
 62
    7
 10
104.45365287162163
 20
100.78947118810706
 11
85.339501870645066
 21
92.188097979571367
  0
LINE
  8
_1-0_
  6
CONTINUOUS
 62
    7
 10
99.340828560494089
 20
105.06821915910051
 11
82.925608866923568
 21
97.68136101800043
  0
LINE
  8
_1-0_
  6
CONTINUOUS
 62
    7
 10
99.340828560494089
 20
105.06821915910051
 11
101.75472156421559
 21
99.574949934675885
  0
LINE
  8
_1-0_
  6
CONTINUOUS
 62
    7
 10
101.99146580051732
 20
106.26100282411318
 11
99.340828560494089
 21
105.06821915910051
  0
LINE
  8
ADD_LINE
  6
DOT
 62
    7
 10
88.075369757574961
 20
93.419241003088061
 11
89.787115148595873
 21
89.523851549303217
  0
LINE
  8
_1-0_
  6
CONTINUOUS
 62
    7
 10
88.075369757574961
 20
93.419241003088061
 11
97.730935586465378
 21
71.446195035367396
  0
LINE
  8
_1-0_
  6
CONTINUOUS
 62
    7
 10
100.35948263632285
 20
70.435873495565886
 11
337.31130239125844
 21
177.06421310837206
  0
LINE
  8
_1-0_
  6
CONTINUOUS
 62
    7
 10
99.554851635082358
 20
72.266959113043711
 11
100.35948263632285
 21
70.435873495565886
  0
LINE
  8
_1-0_
  6
DASHED1
 62
    7
 10
99.554851635082358
 20
72.266959113043711
 11
336.49059398754224
 21
178.88806729703336
  0
LINE
  8
_1-0_
  6
CONTINUOUS
 62
    7
 10
99.554851635082358
 20
72.266959113043711
 11
97.730935586465378
 21
71.446195035367396
  0
LINE
  8
_1-0_
  6
DASHED1
 62
    3
 10
101.66317501583616
 20
106.99054202517948
 11
90.134366009686445
 21
101.80257023991766
  0
LINE
  8
_1-0_
  6
CONTINUOUS
 62
    7
 10
86.177710455817149
 20
109.11883379961994
 11
94.814634580869935
 21
111.8573740366343
  0
LINE
  8
_1-0_
  6
CONTINUOUS
 62
    7
 10
86.177710455817149
 20
109.11883379961994
 11
89.253610147012253
 21
102.28350665118244
  0
LINE
  8
_1-0_
  6
CONTINUOUS
 62
    7
 10
94.814634580869935
 20
111.8573740366343
 11
97.460898322028086
 21
105.97679344383447
  0
LINE
  8
_1-0_
  6
CONTINUOUS
 62
    7
 10
101.33488423115499
 20
107.72008122624578
 11
89.253610147012253
 21
102.28350665118244
  0
LINE
  8
_1-0_
  6
CONTINUOUS
 62
    7
 10
101.58109922666809
 20
107.17292991844384
 11
89.499831328520912
 21
101.7363553433805
  0
LINE
  8
_1-0_
  6
CONTINUOUS
 62
    7
 10
89.253610147012253
 20
102.28350665118244
 11
89.499831328520912
 21
101.7363553433805
  0
LINE
  8
_1-0_
  6
CONTINUOUS
 62
    7
 10
86.177710455817149
 20
109.11883379961994
 11
97.460898322028086
 21
105.97679344383447
  0
LINE
  8
_1-0_
  6
CONTINUOUS
 62
    7
 10
94.814634580869935
 20
111.8573740366343
 11
89.253610147012253
 21
102.28350665118244
  0
LINE
  8
_1-0_
  6
DASHED1
 62
    3
 10
80.813740910710521
 20
107.83642743084883
 11
78.357931601034636
 21
113.29378695101352
  0
LINE
  8
_1-0_
  6
CONTINUOUS
 62
    7
 10
132.91012325802365
 20
113.59488409918708
 11
120.50033569335937
 21
79.499260154930326
  0
LINE
  8
_1-0_
  6
CONTINUOUS
 62
    7
 10
127.81967987885346
 20
111.30418519716005
 11
115.40989231418919
 21
77.208561252903294
  0
LINE
  8
_1-0_
  6
CONTINUOUS
 62
    7
 10
130.364895382443
 20
112.44953464817357
 11
117.95510781777872
 21
78.35391070391681
  0
LINE
  8
_1-0_
  6
CONTINUOUS
 62
    7
 10
212.42634541279563
 20
149.37719396642737
 11
200.01655784813136
 21
115.28157002217061
  0
LINE
  8
_1-0_
  6
CONTINUOUS
 62
    7
 10
214.97156091638516
 20
150.52254341744089
 11
202.56177335172086
 21
116.42691947318413
  0
LINE
  8
_1-0_
  6
CONTINUOUS
 62
    7
 10
217.51677641997466
 20
151.66788049646325
 11
205.10700122730154
 21
117.57226892419764
  0
LINE
  8
_1-0_
  6
CONTINUOUS
 62
    7
 10
291.92108979096287
 20
185.14984130859375
 11
279.51128985430745
 21
151.05420499234586
  0
LINE
  8
_1-0_
  6
CONTINUOUS
 62
    7
 10
294.4663052945524
 20
186.29517838761615
 11
282.05653010187922
 21
152.19955444335937
  0
LINE
  8
_1-0_
  6
CONTINUOUS
 62
    7
 10
297.01154554212417
 20
187.44054021062078
 11
284.60174560546875
 21
153.34490389437289
  0
LINE
  8
_1-0_
  6
CONTINUOUS
 62
    7
 10
84.376138223184128
 20
94.380414808118672
 11
86.187057495117188
 21
92.569495536185599
  0
LINE
  8
_1-0_
  6
CONTINUOUS
 62
    7
 10
83.2099605251003
 20
97.809318336280626
 11
87.74755529455237
 21
93.271723566828555
  0
LINE
  8
_1-0_
  6
CONTINUOUS
 62
    7
 10
84.770470696526615
 20
98.511552552919142
 11
89.308065465978686
 21
93.973951597471498
  0
LINE
  8
_1-0_
  6
CONTINUOUS
 62
    7
 10
86.330974681957358
 20
99.213780583562084
 11
90.868569451409428
 21
94.676179628114454
  0
LINE
  8
_1-0_
  6
CONTINUOUS
 62
    7
 10
87.8914786673881
 20
99.916008614205026
 11
92.429079622835729
 21
95.378407658757396
  0
LINE
  8
_1-0_
  6
CONTINUOUS
 62
    7
 10
89.451982652818842
 20
100.61823664484798
 11
93.989583608266472
 21
96.080635689400339
  0
LINE
  8
_1-0_
  6
CONTINUOUS
 62
    7
 10
91.012492824245143
 20
101.32046467549092
 11
95.550087593697214
 21
96.782863720043295
  0
LINE
  8
_1-0_
  6
CONTINUOUS
 62
    7
 10
92.573002995671459
 20
102.02269270613387
 11
97.110603951119089
 21
97.485097936681811
  0
LINE
  8
_1-0_
  6
CONTINUOUS
 62
    7
 10
94.13351316709776
 20
102.72492073677682
 11
98.671107936549831
 21
98.187325967324753
  0
LINE
  8
_1-0_
  6
CONTINUOUS
 62
    7
 10
95.694017152528517
 20
103.42714876741977
 11
100.23161192198057
 21
98.889547811972136
  0
LINE
  8
_1-0_
  6
CONTINUOUS
 62
    7
 10
97.254521137959259
 20
104.12938298405828
 11
101.71221140268688
 21
99.671692719330665
  0
LINE
  8
_1-0_
  6
CONTINUOUS
 62
    7
 10
98.815025123390001
 20
104.83160482870566
 11
99.938482336095873
 21
103.70814761599979
  0
LINE
  8
_1-4_
  6
CONTINUOUS
 62
    7
 10
93.085030220650339
 20
47.218901144491667
 11
105.90214084934544
 21
52.851092364337006
  0
LINE
  8
_1-4_
  6
CONTINUOUS
 62
    7
 10
88.589865194784636
 20
57.448487152924415
 11
93.085030220650339
 21
47.218901144491667
  0
LINE
  8
_1-4_
  6
CONTINUOUS
 62
    7
 10
101.40697582347974
 20
63.080675279771953
 11
105.90214084934544
 21
52.851092364337006
  0
LINE
  8
_1-4_
  6
CONTINUOUS
 62
    7
 10
102.82082222603464
 20
59.863202894056172
 11
100.07430205474029
 21
58.656308973157735
  0
LINE
  8
_1-4_
  6
CONTINUOUS
 62
    7
 10
101.40697582347974
 20
63.080681465767526
 11
102.82082222603464
 21
59.863202894056172
  0
LINE
  8
_1-4_
  6
CONTINUOUS
 62
    7
 10
98.660455652185391
 20
61.873781358873515
 11
100.07430205474029
 21
58.656302787162161
  0
LINE
  8
_1-4_
  6
CONTINUOUS
 62
    7
 10
60.017271299619949
 20
87.61480382970862
 11
62.431158117345859
 21
82.121540791279571
  0
LINE
  8
_1-4_
  6
CONTINUOUS
 62
    7
 10
67.154895679370782
 20
90.751270603489232
 11
60.017271299619949
 21
87.61480382970862
  0
LINE
  8
_1-4_
  6
CONTINUOUS
 62
    7
 10
69.568788683092293
 20
85.258007565060183
 11
62.431164303341433
 21
82.121540791279571
  0
LINE
  8
_1-4_
  6
CONTINUOUS
 62
    7
 10
62.431158117345859
 20
82.121540791279571
 11
72.076071661871822
 21
60.172737740181589
  0
LINE
  8
_1-4_
  6
CONTINUOUS
 62
    7
 10
79.213696041622683
 20
63.309210699957774
 11
72.076071661871822
 21
60.172737740181589
  0
LINE
  8
_1-4_
  6
CONTINUOUS
 62
    7
 10
72.076071661871822
 20
60.172737740181589
 11
72.873601140202709
 21
58.357816129117396
  0
LINE
  8
_1-4_
  6
CONTINUOUS
 62
    7
 10
80.011225519953541
 20
61.494282902898021
 11
72.873601140202709
 21
58.357816129117396
  0
LINE
  8
_1-4_
  6
CONTINUOUS
 62
    7
 10
212.42154508023648
 20
159.29439647777662
 11
243.03917962151607
 21
75.173152201884506
  0
LINE
  8
_1-4_
  6
CONTINUOUS
 62
    7
 10
243.03917962151607
 20
75.173152201884506
 11
246.57412967166385
 21
75.173152201884506
  0
LINE
  8
_1-4_
  6
CONTINUOUS
 62
    7
 10
247.66528980152029
 20
95.237070032068203
 11
235.73651288006758
 21
95.237070032068203
  0
LINE
  8
_1-4_
  6
CONTINUOUS
 62
    7
 10
247.66528980152029
 20
87.716316016944688
 11
238.47384066195102
 21
87.716316016944688
  0
LINE
  8
_1-4_
  6
CONTINUOUS
 62
    7
 10
247.84871694203972
 20
80.929301493876693
 11
240.94410664326438
 21
80.929301493876693
  0
LINE
  8
_1-4_
  6
CONTINUOUS
 62
    7
 10
84.787643020217487
 20
104.7104211755701
 11
69.761364911053647
 21
130.73669845993456
  0
LINE
  8
_1-4_
  6
CONTINUOUS
 62
    7
 10
69.761364911053647
 20
130.73669845993456
 11
67.181470716321797
 21
130.73669845993456
  0
LINE
  8
_1-4_
  6
CONTINUOUS
 62
    7
 10
65.916725364891249
 20
121.24751735377957
 11
81.691663587415547
 21
93.924525492900131
  0
LINE
  8
_1-4_
  6
CONTINUOUS
 62
    7
 10
81.691663587415547
 20
93.924525492900131
 11
85.495147705078125
 21
95.032350694811029
  0
LINE
  8
_1-4_
  6
CONTINUOUS
 62
    7
 10
65.916725364891249
 20
121.24751735377957
 11
58.284462593697214
 21
121.24751735377957
  0
LINE
  8
_1-4_
  6
CONTINUOUS
 62
    3
 10
213.57461465371622
 20
161.53210614178633
 11
214.26544189453125
 21
159.65521322714318
  0
ARC
  8
_1-a_
  6
CONTINUOUS
 62
    3
 10
84.662636421822214
 20
109.79516106682856
 40
21.314104441049938
 50
169.462890625
 51
219.50543212890628
  0
ARC
  8
_1-b_
  6
CONTINUOUS
 62
    3
 10
116.28909549197635
 20
123.49132640941724
 40
1.5999999239638045
 50
110.20680236816406
 51
200.20738220214844
  0
ARC
  8
_1-b_
  6
CONTINUOUS
 62
    3
 10
159.14940911370357
 20
142.77846877639359
 40
1.5999999239638045
 50
110.20680236816406
 51
200.20738220214844
  0
ARC
  8
_1-b_
  6
CONTINUOUS
 62
    3
 10
202.00972273543076
 20
162.06561114336995
 40
1.5999999239638045
 50
110.20680236816406
 51
200.20738220214844
  0
ARC
  8
_1-b_
  6
CONTINUOUS
 62
    3
 10
244.87003635715794
 20
181.3527535103463
 40
1.5999999239638045
 50
110.20680236816406
 51
200.20738220214844
  0
ARC
  8
_1-b_
  6
CONTINUOUS
 62
    3
 10
287.72364435969172
 20
200.65476701066302
 40
1.5999999239638045
 50
110.20680236816406
 51
200.20738220214844
  0
ARC
  8
_1-c_
  6
CONTINUOUS
 62
    7
 10
113.80210257865288
 20
130.24816564611487
 40
1.5999999239638045
 50
110.20722961425781
 51
200.20695495605469
  0
ARC
  8
_1-c_
  6
CONTINUOUS
 62
    7
 10
156.66241620038008
 20
149.53530801309122
 40
1.5999999239638045
 50
110.20722961425781
 51
200.20695495605469
  0
ARC
  8
_1-c_
  6
CONTINUOUS
 62
    7
 10
199.52272982210727
 20
168.82245038006758
 40
1.5999999239638045
 50
110.20722961425781
 51
200.20695495605469
  0
ARC
  8
_1-c_
  6
CONTINUOUS
 62
    7
 10
242.38304344383448
 20
188.10956800306167
 40
1.5999999239638045
 50
110.20748901367187
 51
200.20695495605469
  0
ARC
  8
_1-c_
  6
CONTINUOUS
 62
    7
 10
285.23665144636828
 20
207.41160624736065
 40
1.5999999239638045
 50
110.20748901367187
 51
200.20695495605469
  0
ARC
  8
_1-c_
  6
CONTINUOUS
 62
    7
 10
67.152569745038022
 20
114.80795782965583
 40
0.8160004744658599
 50
198.47985839843753
 51
280.80862426757812
  0
TEXT
  8
_0-0_
 62
    7
 10
141.89189395389042
 20
14.594594594594582
 40
2.5
 41
1
 50
0
  1
縮尺
  0
TEXT
  8
_0-0_
 62
    7
 10
377.10214563318203
 20
22.865493362014362
 40
2.5
 41
1
 50
0
  1
ＮＯ
  0
TEXT
  8
_0-0_
 62
    7
 10
14.594594336844779
 20
24.324324324324323
 40
2.5
 41
1
 50
0
  1
和形
  0
TEXT
  8
_0-0_
 62
    7
 10
383.23801896378802
 20
18.523427086907475
 40
3
 41
1
 50
0
  1
Ｊ
  0
TEXT
  8
_1-0_
 62
    7
 10
169.90681828679266
 20
13.3181144095756
 40
2.5
 41
1
 50
0
  1
1/5
  0
TEXT
  8
_1-a_
 62
    7
 10
59.922266086654787
 20
180.06735280784272
 40
2.5
 41
1
 50
24.227719460851628
  1
245
  0
TEXT
  8
_1-5_
 62
    7
 10
202.84917676771011
 20
205.1842024519637
 40
2.5
 41
1
 50
0
  1
桟瓦
  0
TEXT
  8
_1-5_
 62
    7
 10
248.79994985219594
 20
93.604047620618672
 40
2.5
 41
1
 50
0
  1
瓦桟　
  0
TEXT
  8
_1-5_
 62
    7
 10
62.573307140453437
 20
154.61365158493456
 40
2.5
 41
1
 50
0
  1
万十軒瓦
  0
TEXT
  8
_1-5_
 62
    7
 10
42.049463117444844
 20
142.01947186444258
 40
2.5
 41
1
 50
0
  1
瓦座
  0
TEXT
  8
_1-5_
 62
    7
 10
39.721903414339636
 20
15.395235628695104
 40
2.5
 41
1
 50
0
  1
軒先　1
  0
TEXT
  8
_1-4_
 62
    7
 10
98.148050732523686
 20
49.989877495915707
 40
2.5
 41
1
 50
23.722051449380107
  1
70
  0
TEXT
  8
_1-4_
 62
    7
 10
100.10202733791326
 20
59.214632035611643
 40
2.5
 41
1
 50
23.722051449380107
  1
15
  0
TEXT
  8
_1-4_
 62
    7
 10
61.179093903485381
 20
86.213707112968308
 40
2.5
 41
1
 50
-66.277948550620195
  1
30
  0
TEXT
  8
_1-4_
 62
    7
 10
66.957054688880135
 20
73.06486703012331
 40
2.5
 41
1
 50
-66.277991815281382
  1
120
  0
TEXT
  8
_1-4_
 62
    7
 10
72.429712503041969
 20
60.610811737123697
 40
2.5
 41
1
 50
-66.277948550620195
  1
10
  0
TEXT
  8
_1-4_
 62
    7
 10
54.671816439241979
 20
141.54439977697425
 40
2.5
 41
1
 50
0
  1
30ｘ90
  0
TEXT
  8
_1-4_
 62
    7
 10
38.474142229234843
 20
119.46404534417231
 40
2.5
 41
1
 50
0
  1
広小舞　30ｘ90
  0
TEXT
  8
_1-4_
 62
    7
 10
45.277454273120782
 20
116.25969964104731
 40
2.5
 41
1
 50
0
  1
（防腐処理）
  0
TEXT
  8
_1-4_
 62
    7
 10
25.556194717819636
 20
20.211577544341225
 40
2.5
 41
1
 50
0
  1
ＲＣ
  0
TEXT
  8
_1-4_
 62
    7
 10
103.6368061510034
 20
199.7388939810055
 40
2.5
 41
1
 50
24.227891841336795
  1
237
  0
TEXT
  8
_1-4_
 62
    7
 10
146.58529495352664
 20
219.06572569553254
 40
2.5
 41
1
 50
24.227891841336653
  1
237
  0
TEXT
  8
_1-4_
 62
    7
 10
189.44560857525383
 20
238.35289280649116
 40
2.5
 41
1
 50
24.227891841336675
  1
237
  0
TEXT
  8
_1-4_
 62
    7
 10
232.30565724090377
 20
257.63988439463378
 40
2.5
 41
1
 50
24.227969413213476
  1
237
  0
TEXT
  8
_1-4_
 62
    7
 10
248.80151284707563
 20
73.591980805268165
 40
2.5
 41
1
 50
0
  1
パーライト系モルタル
  0
POINT
  8
_1-4_
 62
    7
 10
84.121695853568411
 20
190.40880357896961
  0
POINT
  8
_1-4_
 62
    7
 10
84.121683481577278
 20
190.40880357896961
  0
POINT
  8
_1-4_
 62
    7
 10
126.98199710330448
 20
209.69594594594597
  0
POINT
  8
_1-4_
 62
    7
 10
170.01866108662375
 20
229.06246700802367
  0
POINT
  8
_1-4_
 62
    7
 10
212.70263671875
 20
248.27023067989867
  0
POINT
  8
_1-4_
 62
    7
 10
255.73875633445948
 20
267.63647955817146
  0
POINT
  8
_1-a_
 62
    7
 10
39.552909232474661
 20
170.35285331107477
  0
POINT
  8
_1-a_
 62
    7
 10
84.121695853568411
 20
190.40880357896961
  0
POINT
  8
_1-4_
 62
    7
 10
93.085030220650339
 20
47.218901144491667
  0
POINT
  8
_1-4_
 62
    7
 10
105.90214084934544
 20
52.851092364337006
  0
POINT
  8
_1-4_
 62
    7
 10
102.82082222603464
 20
59.863202894056172
  0
POINT
  8
_1-4_
 62
    7
 10
100.07430205474029
 20
58.656308973157735
  0
POINT
  8
_1-4_
 62
    7
 10
60.017271299619949
 20
87.61480382970862
  0
POINT
  8
_1-4_
 62
    7
 10
62.431158117345859
 20
82.121540791279571
  0
POINT
  8
_1-4_
 62
    7
 10
72.076071661871822
 20
60.172737740181589
  0
POINT
  8
_1-4_
 62
    7
 10
72.873601140202709
 20
58.357816129117396
  0
TEXT
  8
_1-4_
 62
    7
 10
393.94795598210521
 20
15.209504204827397
 40
2.5
 41
1
 50
0
  1
17
  0
TEXT
  8
_1-4_
 62
    7
 10
259.21322878173862
 20
90.665437218052915
 40
2.5
 41
1
 50
0
  1
※　地域により瓦桟木の大きさは、異なります
  0
LINE
  8
_1-a_
  6
CONTINUOUS
 62
    7
 10
56.000680893902029
 20
133.8022706621006
 11
39.552909232474661
 21
170.35285331107477
  0
TEXT
  8
_1-4_
 62
    7
 10
53.749666941808414
 20
129.59701449431984
 40
2.5
 41
1
 50
0
  1
面戸、漆喰
  0
TEXT
  8
_1-f_
 62
    7
 10
258.49666806016597
 20
56.831358440314389
 40
2.5
 41
1
 50
0
  1
※軒面戸の納まりには、木製、金属製、樹脂製、面戸付き軒瓦等があります。
  0
TEXT
  8
_1-f_
 62
    7
 10
260.76526643060237
 20
53.076136278692459
 40
2.5
 41
1
 50
0
  1
その他に漆喰またはモルタル仕上げもありますが、この場合は、左官仕事となります。
  0
TEXT
  8
_1-4_
 62
    7
 10
259.21197283730453
 20
93.493014724217431
 40
2.5
 41
1
 50
0
  1
15×21　（樹脂桟木）
  0
TEXT
  8
_1-5_
 62
    7
 10
248.80150872307854
 20
86.604024526235222
 40
2.5
 41
1
 50
0
  1
縦桟
  0
TEXT
  8
_1-4_
 62
    7
 10
248.57198623481111
 20
80.085073131026761
 40
2.5
 41
1
 50
0
  1
ルーフィング
  0
LINE
  8
_1-6_
  6
CONTINUOUS
 62
    7
 10
80.813740910710521
 20
107.83642743084883
 11
84.969610265783359
 21
98.601162884686445
  0
LINE
  8
ADD_LINE
  6
DOT
 62
    4
 10
89.499831328520912
 20
101.7363553433805
 11
89.910198024124426
 21
100.8244300869034
  0
ARC
  8
_1-0_
  6
DASHED1
 62
    3
 10
81.329195177232918
 20
106.67192613756335
 40
7.2579242087699276
 50
24.453382266759821
 51
114.16601562500001
  0
ARC
  8
_1-7_
  6
CONTINUOUS
 62
    1
 10
81.329195177232918
 20
106.67192613756335
 40
7.2579242087699276
 50
24.453382266759821
 51
114.16601562500001
  0
SOLID
  8
_1-7_
  6
CONTINUOUS
 62
    8
 10
78.357931601034636
 20
113.29378695101352
 11
84.969610296391267
 21
98.601162816668875
 12
89.910198024124426
 22
100.8244300869034
 13
89.910198024124426
 23
100.8244300869034
  0
SOLID
  8
_1-7_
  6
CONTINUOUS
 62
    8
 10
78.357931601034636
 20
113.29378695101352
 11
89.910198024124426
 21
100.8244300869034
 12
86.177710455817149
 22
109.11883379961994
 13
86.177710455817149
 23
109.11883379961994
  0
SOLID
  8
_1-7_
  6
CONTINUOUS
 62
    8
 10
78.357931601034636
 20
113.29378695101352
 11
86.177710455817149
 21
109.11883379961994
 12
87.93607181011194
 22
109.67636368528602
 13
87.93607181011194
 23
109.67636368528602
  0
ENDSEC
  0
EOF
