  0
SECTION
  2
HEADER
  9
$ACADVER
  1
AC1009
  9
$INSBASE
 10
0
 20
0
 30
0
  9
$EXTMIN
 10
0
 20
0
  9
$EXTMAX
 10
420
 20
297
  9
$LIMMIN
 10
0
 20
0
  9
$LIMMAX
 10
420
 20
297
  9
$LTSCALE
 40
1
  0
ENDSEC
  0
SECTION
  2
TABLES
  0
TABLE
  2
LTYPE
 70
     9
  0
LTYPE
  2
CONTINUOUS
 70
    64
  3
実線
 72
    65
 73
     0
 40
0.0
  0
LTYPE
  2
DASHED1
 70
    64
  3
--  --  --  --  --  --  --  --  
 72
    65
 73
     2
 40
2.5
 49
1.25
 49
-1.25
  0
LTYPE
  2
DASHED2
 70
    64
  3
----    ----    ----    ----    
 72
    65
 73
     2
 40
5.0
 49
2.5
 49
-2.5
  0
LTYPE
  2
DASHED3
 70
    64
  3
------  ------  ------  ------  
 72
    65
 73
     2
 40
5.0
 49
3.75
 49
-1.25
  0
LTYPE
  2
CENTER1
 70
    64
  3
----- - ----- - ----- - ----- - 
 72
    65
 73
     4
 40
10.0
 49
6.25
 49
-1.25
 49
1.25
 49
-1.25
  0
LTYPE
  2
CENTER2
 70
    64
  3
----------  --  ----------  --  
 72
    65
 73
     4
 40
20.0
 49
12.5
 49
-2.5
 49
2.5
 49
-2.5
  0
LTYPE
  2
PHANTOM1
 70
    64
  3
--- - - --- - - --- - - --- - - 
 72
    65
 73
     6
 40
10.0
 49
3.25
 49
-1.25
 49
1.25
 49
-1.25
 49
1.25
 49
-1.25
  0
LTYPE
  2
PHANTOM2
 70
    64
  3
--------  -  -  --------  -  -  
 72
    65
 73
     6
 40
20.0
 49
10.0
 49
-2.5
 49
1.25
 49
-2.5
 49
1.25
 49
-2.5
  0
LTYPE
  2
DOT
 70
    64
  3
-   -   -   -   -   -   -   -   
 72
    65
 73
     2
 40
2.5
 49
0.625
 49
-1.875
  0
LTYPE
  2
DUMMY
 70
    64
  3
ダミー
 72
    65
 73
     0
 40
0.0
  0
LTYPE
  2
RAND1
 70
    64
  3
ランダム線1
 72
    65
 73
     4
 40
10.0
 49
1.0
 49
-2.0
 49
3.0
 49
-4.0
  0
LTYPE
  2
RAND2
 70
    64
  3
ランダム線2
 72
    65
 73
     4
 40
14.0
 49
2.0
 49
-3.0
 49
4.0
 49
-5.0
  0
LTYPE
  2
RAND3
 70
    64
  3
ランダム線3
 72
    65
 73
     4
 40
18.0
 49
3.0
 49
-4.0
 49
5.0
 49
-6.0
  0
LTYPE
  2
RAND4
 70
    64
  3
ランダム線4
 72
    65
 73
     4
 40
22.0
 49
4.0
 49
-5.0
 49
6.0
 49
-7.0
  0
LTYPE
  2
RAND5
 70
    64
  3
ランダム線5
 72
    65
 73
     4
 40
26.0
 49
5.0
 49
-6.0
 49
7.0
 49
-8.0
  0
LTYPE
  2
LONG1
 70
    64
  3
----------  --  ----------  --  
 72
    65
 73
     4
 40
40.0
 49
32.5
 49
-2.5
 49
2.5
 49
-2.5
  0
LTYPE
  2
LONG2
 70
    64
  3
--------  -  -  --------  -  -  
 72
    65
 73
     6
 40
40.0
 49
30.0
 49
-2.5
 49
1.25
 49
-2.5
 49
1.25
 49
-2.5
  0
LTYPE
  2
LONG3
 70
    64
  3
+++++++++++++++..+++++++++++++++
 72
    65
 73
     2
 40
40.0
 49
37.5
 49
-2.5
  0
LTYPE
  2
LONG4
 70
    64
  3
+++++++++++++++..+++++++++++++++
 72
    65
 73
     2
 40
80.0
 49
75.0
 49
-5.0
  0
LTYPE
  2
LONG5
 70
    64
  3
----------  --  ----------  --  
 72
    65
 73
     4
 40
60.0
 49
37.5
 49
-7.5
 49
7.5
 49
-7.5
  0
LTYPE
  2
dashed
 70
   64
  3
-------   -------------   ------
 72
   65
 73
    2
 40
7.5
 49
6
 49
-1.5
  0
LTYPE
  2
dashed_spaced
 70
   64
  3
----        --------        ----
 72
   65
 73
    2
 40
12
 49
6
 49
-6
  0
LTYPE
  2
long_dashed_dotted
 70
   64
  3
------------- --- --------------
 72
   65
 73
    4
 40
15.25
 49
12
 49
-1.5
 49
0.25
 49
-1.5
  0
LTYPE
  2
long_dashed_double-dotted
 70
   64
  3
----------- --- --- ------------
 72
   65
 73
    6
 40
17
 49
12
 49
-1.5
 49
0.25
 49
-1.5
 49
0.25
 49
-1.5
  0
LTYPE
  2
long_dashed_triplicate-dotted
 70
   64
  3
--------- --- --- --- ----------
 72
   65
 73
    8
 40
18.75
 49
12
 49
-1.5
 49
0.25
 49
-1.5
 49
0.25
 49
-1.5
 49
0.25
 49
-1.5
  0
LTYPE
  2
dotted
 70
   64
  3
   -       -       -       -    
 72
   65
 73
    2
 40
1.75
 49
0.25
 49
-1.5
  0
LTYPE
  2
chain
 70
   64
  3
-------------- -- --------------
 72
   65
 73
    4
 40
18.5
 49
12
 49
-1.5
 49
3.5
 49
-1.5
  0
LTYPE
  2
chain_double_dash
 70
   64
  3
------------ -- -- -------------
 72
   65
 73
    6
 40
23.5
 49
12
 49
-1.5
 49
3.5
 49
-1.5
 49
3.5
 49
-1.5
  0
LTYPE
  2
dashed_dotted
 70
   64
  3
-----------     -     ----------
 72
   65
 73
    4
 40
9.25
 49
6
 49
-1.5
 49
0.25
 49
-1.5
  0
LTYPE
  2
double-dashed_dotted
 70
   64
  3
------   -----------   -   -----
 72
   65
 73
    6
 40
16.75
 49
6
 49
-1.5
 49
6
 49
-1.5
 49
0.25
 49
-1.5
  0
LTYPE
  2
dashed_double-dotted
 70
   64
  3
---------    -    -    ---------
 72
   65
 73
    6
 40
11
 49
6
 49
-1.5
 49
0.25
 49
-1.5
 49
0.25
 49
-1.5
  0
LTYPE
  2
double-dashed_double-dotted
 70
   64
  3
-----   ---------   -   -   ----
 72
   65
 73
    8
 40
18.5
 49
6
 49
-1.5
 49
6
 49
-1.5
 49
0.25
 49
-1.5
 49
0.25
 49
-1.5
  0
LTYPE
  2
dashed_triplicate-dotted
 70
   64
  3
-------    -    -    -    ------
 72
   65
 73
    8
 40
12.75
 49
6
 49
-1.5
 49
0.25
 49
-1.5
 49
0.25
 49
-1.5
 49
0.25
 49
-1.5
  0
LTYPE
  2
double-dashed_triplicate-dotted
 70
   64
  3
-----  ---------  -  -  -  -----
 72
   65
 73
   10
 40
20.25
 49
6
 49
-1.5
 49
6
 49
-1.5
 49
0.25
 49
-1.5
 49
0.25
 49
-1.5
 49
0.25
 49
-1.5
  0
LTYPE
  2
undefined
 70
   64
  3
--------------------------------
 72
   65
 73
    0
 40
0
  0
ENDTAB
  0
TABLE
  2
STYLE
  5
3
100
AcDbSymbolTable
 70
     1
  0
STYLE
  5
10
100
AcDbSymbolTableRecord
100
AcDbTextStyleTableRecord
  2
STANDARD
 70
     0
 40
0.0
 41
1.0
 50
0.0
 71
     0
 42
0.2
  3
txt
  4
bigfont.shx
  0
STYLE
  5
26
100
AcDbSymbolTableRecord
100
AcDbTextStyleTableRecord
  2
TATEGAKI
 70
    68
 40
0.0
 41
1.0
 50
0.0
 71
     0
 42
1.0
  3
txt
  4
bigfont.shx
  0
ENDTAB
  0
TABLE
  2
LAYER
 70
    8
  0
LAYER
  2
_0-0_
 70
   64
 62
    7
  6
CONTINUOUS
  0
LAYER
  2
_1-0_
 70
   64
 62
    7
  6
CONTINUOUS
  0
LAYER
  2
_1-1_
 70
   64
 62
    7
  6
CONTINUOUS
  0
LAYER
  2
_1-2_
 70
   64
 62
    7
  6
CONTINUOUS
  0
LAYER
  2
_1-3_
 70
   64
 62
    7
  6
CONTINUOUS
  0
LAYER
  2
_1-4_
 70
   64
 62
    7
  6
CONTINUOUS
  0
LAYER
  2
_1-5_
 70
   64
 62
    7
  6
CONTINUOUS
  0
LAYER
  2
ADD_LINE
 70
   64
 62
    7
  6
CONTINUOUS
  0
ENDTAB
  0
ENDSEC
  0
SECTION
  2
BLOCKS
  0
ENDSEC
  0
SECTION
  2
ENTITIES
  0
ARC
  8
_1-0_
  6
CONTINUOUS
 62
    3
 10
115.59475460567991
 20
106.65136388830237
 40
60.168024011560391
 50
70.079711914062528
 51
90.000000000000028
  0
ARC
  8
_1-0_
  6
CONTINUOUS
 62
    3
 10
115.59475460567991
 20
121.60736908783784
 40
41.612016832506335
 50
60.485351562499993
 51
90
  0
LINE
  8
_0-0_
  6
CONTINUOUS
 62
    5
 10
6.7567526327597136
 20
280.13513513513516
 11
406.75677325274495
 21
280.13513513513516
  0
LINE
  8
_0-0_
  6
CONTINUOUS
 62
    5
 10
406.75677325274495
 20
10.13513513513513
 11
6.7567526327597136
 21
10.13513513513513
  0
LINE
  8
_0-0_
  6
CONTINUOUS
 62
    5
 10
406.75677325274495
 20
30.135133073136615
 11
6.7567402607685949
 21
30.135133073136615
  0
LINE
  8
_0-0_
  6
CONTINUOUS
 62
    5
 10
371.75678150073907
 20
10.13513513513513
 11
371.75678150073907
 21
30.135133073136615
  0
LINE
  8
_0-0_
  6
CONTINUOUS
 62
    5
 10
137.02703939901818
 20
30.135133073136615
 11
137.02703939901818
 21
10.13513513513513
  0
LINE
  8
_0-0_
  6
CONTINUOUS
 62
    5
 10
214.86486486486487
 20
30.135133073136615
 11
214.86486486486487
 21
10.13513513513513
  0
LINE
  8
_0-0_
  6
CONTINUOUS
 62
    5
 10
137.02703939901818
 20
20.135134104135886
 11
214.86486486486487
 21
20.135134104135886
  0
LINE
  8
_0-0_
  6
CONTINUOUS
 62
    5
 10
396.48648648648651
 20
25.945945945945951
 11
383.91891891891896
 21
13.378379924877265
  0
LINE
  8
_1-1_
  6
CONTINUOUS
 62
    7
 10
258.98969495618667
 20
132.72644867768159
 11
258.98969495618667
 21
133.32644075960727
  0
LINE
  8
_1-1_
  6
CONTINUOUS
 62
    7
 10
258.98969495618667
 20
133.32644075960727
 11
263.78968109955662
 21
133.32644075960727
  0
LINE
  8
_1-1_
  6
CONTINUOUS
 62
    7
 10
263.78968109955662
 20
133.32644075960727
 11
263.78968109955662
 21
132.72644867768159
  0
LINE
  8
_1-1_
  6
CONTINUOUS
 62
    7
 10
263.78968109955662
 20
132.72644867768159
 11
258.98969495618667
 21
132.72644867768159
  0
LINE
  8
_1-1_
  6
CONTINUOUS
 62
    7
 10
258.98969495618667
 20
132.72644867768159
 11
263.78968109955662
 21
133.32644075960727
  0
LINE
  8
_1-1_
  6
CONTINUOUS
 62
    7
 10
226.60860628695102
 20
132.72644867768159
 11
226.60860628695102
 21
133.32644075960727
  0
LINE
  8
_1-1_
  6
CONTINUOUS
 62
    7
 10
226.60860628695102
 20
133.32644075960727
 11
231.40859243032097
 21
133.32644075960727
  0
LINE
  8
_1-1_
  6
CONTINUOUS
 62
    7
 10
231.40859243032097
 20
133.32644075960727
 11
231.40859243032097
 21
132.72644867768159
  0
LINE
  8
_1-1_
  6
CONTINUOUS
 62
    7
 10
231.40859243032097
 20
132.72644867768159
 11
226.60860628695102
 21
132.72644867768159
  0
LINE
  8
_1-1_
  6
CONTINUOUS
 62
    7
 10
226.60860628695102
 20
132.72644867768159
 11
231.40859243032097
 21
133.32644075960727
  0
LINE
  8
_1-1_
  6
CONTINUOUS
 62
    7
 10
164.96857514252534
 20
132.72644867768159
 11
164.96857514252534
 21
133.32644075960727
  0
LINE
  8
_1-1_
  6
CONTINUOUS
 62
    7
 10
164.96857514252534
 20
133.32644075960727
 11
169.76856128589529
 21
133.32644075960727
  0
LINE
  8
_1-1_
  6
CONTINUOUS
 62
    7
 10
169.76856128589529
 20
133.32644075960727
 11
169.76856128589529
 21
132.72644867768159
  0
LINE
  8
_1-1_
  6
CONTINUOUS
 62
    7
 10
169.76856128589529
 20
132.72644867768159
 11
164.96857514252534
 21
132.72644867768159
  0
LINE
  8
_1-1_
  6
CONTINUOUS
 62
    7
 10
164.96857514252534
 20
132.72644867768159
 11
169.76856128589529
 21
133.32644075960727
  0
LINE
  8
_1-1_
  6
CONTINUOUS
 62
    7
 10
138.29307762352198
 20
136.32645065720018
 11
138.29307762352198
 21
133.32645313159841
  0
LINE
  8
_1-1_
  6
CONTINUOUS
 62
    7
 10
145.65000791807432
 20
132.72644867768159
 11
145.65000791807432
 21
133.32644075960727
  0
LINE
  8
_1-1_
  6
CONTINUOUS
 62
    7
 10
145.65000791807432
 20
133.32644075960727
 11
140.85007126266893
 21
133.32644075960727
  0
LINE
  8
_1-1_
  6
CONTINUOUS
 62
    7
 10
140.85007126266893
 20
133.32644075960727
 11
140.85007126266893
 21
132.72644867768159
  0
LINE
  8
_1-1_
  6
CONTINUOUS
 62
    7
 10
140.85007126266893
 20
132.72644867768159
 11
145.65000791807432
 21
132.72644867768159
  0
LINE
  8
_1-1_
  6
CONTINUOUS
 62
    7
 10
145.65000791807432
 20
132.72644867768159
 11
140.85007126266893
 21
133.32644075960727
  0
LINE
  8
_1-1_
  6
CONTINUOUS
 62
    3
 10
137.23804370777029
 20
132.47366415487755
 11
137.23804370777029
 21
136.32645065720018
  0
LINE
  8
_1-1_
  6
CONTINUOUS
 62
    3
 10
137.23804370777029
 20
136.32645065720018
 11
133.12925596494932
 21
136.32645065720018
  0
LINE
  8
_1-1_
  6
CONTINUOUS
 62
    3
 10
109.99001992715372
 20
132.47366415487755
 11
109.99001992715372
 21
162.47366415487755
  0
LINE
  8
_1-0_
  6
CONTINUOUS
 62
    3
 10
138.31500079180745
 20
156.28124752560177
 11
138.31500079180745
 21
150.88124455632391
  0
LINE
  8
_1-2_
  6
CONTINUOUS
 62
    3
 10
117.81498264622044
 20
159.88124950512037
 11
117.81498264622044
 21
156.28124752560177
  0
LINE
  8
_1-0_
  6
CONTINUOUS
 62
    3
 10
136.0947727512669
 20
163.21938592034419
 11
136.0947727512669
 21
157.8193829510663
  0
LINE
  8
_1-2_
  6
CONTINUOUS
 62
    3
 10
115.59475460567991
 20
166.81938789986276
 11
115.59475460567991
 21
163.21938592034419
  0
LINE
  8
_1-1_
  6
CONTINUOUS
 62
    3
 10
137.23804370777029
 20
132.47366415487755
 11
109.99001992715372
 21
132.47366415487755
  0
LINE
  8
_1-1_
  6
CONTINUOUS
 62
    7
 10
128.46006651182432
 20
165.98612192514781
 11
129.00057406038852
 21
168.93702738993878
  0
LINE
  8
_1-1_
  6
CONTINUOUS
 62
    7
 10
129.00057406038852
 20
168.93702738993878
 11
111.29511652766048
 21
172.18009742530617
  0
LINE
  8
_1-1_
  6
CONTINUOUS
 62
    7
 10
111.29511652766048
 20
172.18009742530617
 11
110.75460897909629
 21
169.22919196051521
  0
LINE
  8
_1-1_
  6
CONTINUOUS
 62
    7
 10
129.00057406038852
 20
168.93702738993878
 11
110.75460897909629
 21
169.22919196051521
  0
LINE
  8
_1-1_
  6
CONTINUOUS
 62
    3
 10
129.88442910684122
 20
169.1636204075169
 11
129.99399546030406
 21
165.54784413930534
  0
LINE
  8
_1-3_
  6
CONTINUOUS
 62
    7
 10
119.21165672508447
 20
169.64991389094172
 11
131.40638196790542
 21
203.15468865471919
  0
LINE
  8
_1-3_
  6
CONTINUOUS
 62
    7
 10
129.96618322423987
 20
167.13458911792654
 11
138.26363228462839
 21
189.93169011296453
  0
LINE
  8
_1-3_
  6
CONTINUOUS
 62
    7
 10
133.54089685388513
 20
161.62059062236065
 11
139.86773516680745
 21
179.00342374234586
  0
LINE
  8
_1-3_
  6
CONTINUOUS
 62
    7
 10
147.5093697212838
 20
165.87186658704604
 11
140.13556403082771
 21
145.61244655299831
  0
LINE
  8
_1-3_
  6
CONTINUOUS
 62
    7
 10
135.36289524387669
 20
154.33268366633234
 11
139.86773516680745
 21
179.00342374234586
  0
LINE
  8
_1-3_
  6
CONTINUOUS
 62
    7
 10
126.09335409628379
 20
133.70864868164062
 11
148.28890413851352
 21
72.726918813344597
  0
LINE
  8
_1-3_
  6
CONTINUOUS
 62
    7
 10
126.09335409628379
 20
133.70864868164062
 11
125.15201877903294
 21
132.41811391469597
  0
LINE
  8
_1-3_
  6
CONTINUOUS
 62
    7
 10
131.40638196790542
 20
203.15468865471919
 11
134.2034912109375
 21
203.15468865471919
  0
LINE
  8
_1-3_
  6
CONTINUOUS
 62
    7
 10
138.26363228462839
 20
189.93169011296453
 11
140.2474068306588
 21
189.93169011296453
  0
LINE
  8
_1-3_
  6
CONTINUOUS
 62
    7
 10
139.86773516680745
 20
179.00342374234586
 11
142.19005687816724
 21
179.00342374234586
  0
LINE
  8
_1-3_
  6
CONTINUOUS
 62
    7
 10
147.5093697212838
 20
165.87186658704604
 11
151.0400390625
 21
165.87186658704604
  0
LINE
  8
_1-3_
  6
CONTINUOUS
 62
    7
 10
148.28890413851352
 20
72.726918813344597
 11
157.34243032094597
 21
72.726918813344597
  0
LINE
  8
_1-1_
  6
CONTINUOUS
 62
    7
 10
149.82692821605787
 20
136.32645065720018
 11
138.29307762352198
 21
136.32645065720018
  0
LINE
  8
_1-1_
  6
CONTINUOUS
 62
    7
 10
149.82692821605787
 20
136.32645065720018
 11
346.21621621621625
 21
136.32645065720018
  0
LINE
  8
_1-1_
  6
CONTINUOUS
 62
    7
 10
138.29307762352198
 20
133.32645313159841
 11
346.21621621621625
 21
133.32645313159841
  0
LINE
  8
_1-1_
  6
CONTINUOUS
 62
    7
 10
140.85007126266893
 20
132.72644867768159
 11
346.21621621621625
 21
132.72644867768159
  0
LINE
  8
_1-1_
  6
CONTINUOUS
 62
    7
 10
346.21621621621625
 20
131.49927087732263
 11
108.85587950010559
 21
131.49927087732263
  0
LINE
  8
_1-3_
  6
CONTINUOUS
 62
    7
 10
260.30157140783365
 20
174.37440614442568
 11
245.90769999736065
 21
174.37440614442568
  0
LINE
  8
_1-3_
  6
CONTINUOUS
 62
    7
 10
260.53636705553208
 20
180.47896926467484
 11
248.12958588471284
 21
180.47896926467484
  0
LINE
  8
_1-3_
  6
CONTINUOUS
 62
    7
 10
260.30157140783365
 20
186.81832803262247
 11
250.43691274282097
 21
186.81832803262247
  0
LINE
  8
_1-3_
  6
CONTINUOUS
 62
    7
 10
259.83200485641891
 20
192.2185042097762
 11
252.40242622994089
 21
192.2185042097762
  0
LINE
  8
_1-2_
  6
CONTINUOUS
 62
    7
 10
80.588607788085938
 20
131.49927087732263
 11
80.588607788085938
 21
191.49927087732266
  0
LINE
  8
_1-2_
  6
CONTINUOUS
 62
    7
 10
92.432432432432435
 20
131.49927087732263
 11
80.588607788085938
 21
131.49927087732263
  0
LINE
  8
_1-2_
  6
CONTINUOUS
 62
    7
 10
92.432432432432435
 20
191.49927087732266
 11
80.588607788085938
 21
191.49927087732266
  0
LINE
  8
_1-1_
  6
CONTINUOUS
 62
    7
 10
108.85587950010559
 20
191.49927087732266
 11
113.85588362410263
 21
191.49927087732266
  0
LINE
  8
_1-1_
  6
CONTINUOUS
 62
    7
 10
113.85588362410263
 20
191.49927087732266
 11
113.85588362410263
 21
238.32203633076438
  0
LINE
  8
_1-1_
  6
CONTINUOUS
 62
    7
 10
109.89669799804687
 20
173.12942504882812
 11
109.89669799804687
 21
188.12942504882813
  0
LINE
  8
_1-1_
  6
CONTINUOUS
 62
    7
 10
109.89669799804687
 20
188.12942504882813
 11
112.89670789563979
 21
188.12942504882813
  0
LINE
  8
_1-1_
  6
CONTINUOUS
 62
    7
 10
112.89670789563979
 20
188.12942504882813
 11
112.89670789563979
 21
173.12942504882812
  0
LINE
  8
_1-1_
  6
CONTINUOUS
 62
    7
 10
112.89670789563979
 20
173.12942504882812
 11
109.89669799804687
 21
173.12942504882812
  0
LINE
  8
_1-1_
  6
CONTINUOUS
 62
    7
 10
109.89669799804687
 20
188.12942504882813
 11
112.89670789563979
 21
173.12942504882812
  0
LINE
  8
_1-1_
  6
CONTINUOUS
 62
    3
 10
113.08769432274072
 20
188.49927335172086
 11
113.08769432274072
 21
172.24023767419766
  0
LINE
  8
_1-1_
  6
CONTINUOUS
 62
    3
 10
129.88442910684122
 20
169.1636204075169
 11
113.08769432274072
 21
172.24023767419766
  0
LINE
  8
_1-1_
  6
DASHED1
 62
    3
 10
109.32042302312078
 20
131.99859206740922
 11
109.32042302312078
 21
191.49927087732266
  0
LINE
  8
_1-1_
  6
CONTINUOUS
 62
    3
 10
109.57291061813767
 20
188.49927335172086
 11
113.08769432274072
 21
188.49927335172086
  0
LINE
  8
_1-2_
  6
CONTINUOUS
 62
    3
 10
109.57291061813767
 20
188.49927335172086
 11
109.57291061813767
 21
191.49927087732266
  0
LINE
  8
_1-1_
  6
CONTINUOUS
 62
    3
 10
111.28321467219173
 20
188.49927335172086
 11
111.97232220623945
 21
189.18838088576859
  0
LINE
  8
_1-1_
  6
CONTINUOUS
 62
    3
 10
110.4346816604202
 20
188.49927335172086
 11
112.01238271352408
 21
190.07697440482477
  0
LINE
  8
_1-1_
  6
CONTINUOUS
 62
    3
 10
109.58616102063979
 20
188.49927335172086
 11
112.58615854624156
 21
191.49927087732266
  0
LINE
  8
_1-1_
  6
CONTINUOUS
 62
    3
 10
109.57291061813767
 20
189.33455596099029
 11
111.73762553447003
 21
191.49927087732266
  0
LINE
  8
_1-1_
  6
CONTINUOUS
 62
    3
 10
109.57291061813767
 20
190.1830766007707
 11
110.88910489468962
 21
191.49927087732266
  0
LINE
  8
_1-1_
  6
CONTINUOUS
 62
    3
 10
109.57291061813767
 20
191.03159724055112
 11
110.04058425490921
 21
191.49927087732266
  0
LINE
  8
_1-1_
  6
CONTINUOUS
 62
    7
 10
108.85587950010559
 20
191.49927087732266
 11
108.85587950010559
 21
131.49927087732263
  0
LINE
  8
_1-1_
  6
CONTINUOUS
 62
    7
 10
108.85587950010559
 20
107.49926592852619
 11
108.85587950010559
 21
75.207688615128802
  0
LINE
  8
_1-1_
  6
CONTINUOUS
 62
    7
 10
346.21621621621625
 20
107.49926592852619
 11
108.85587950010559
 21
107.49926592852619
  0
LINE
  8
_1-4_
  6
CONTINUOUS
 62
    7
 10
144.58265149915542
 20
125.49927582611909
 11
136.1826633762669
 21
125.49927582611909
  0
LINE
  8
_1-4_
  6
CONTINUOUS
 62
    7
 10
136.98266106682854
 20
131.49927087732263
 11
136.1826633762669
 21
125.49927582611909
  0
LINE
  8
_1-4_
  6
CONTINUOUS
 62
    7
 10
136.98266106682854
 20
131.49927087732263
 11
143.78265380859375
 21
131.49927087732263
  0
LINE
  8
_1-4_
  6
CONTINUOUS
 62
    7
 10
143.78265380859375
 20
131.49927087732263
 11
144.58265149915542
 21
125.49927582611909
  0
LINE
  8
_1-4_
  6
CONTINUOUS
 62
    7
 10
144.24417856577281
 20
125.49927582611909
 11
144.54282605970229
 21
125.79792332004857
  0
LINE
  8
_1-4_
  6
CONTINUOUS
 62
    7
 10
143.3956579259924
 20
125.49927582611909
 11
144.44300883525128
 21
126.54662673537797
  0
LINE
  8
_1-4_
  6
CONTINUOUS
 62
    7
 10
142.54712491422086
 20
125.49927582611909
 11
144.34317923880914
 21
127.29533015070736
  0
LINE
  8
_1-4_
  6
CONTINUOUS
 62
    7
 10
141.69859190244932
 20
125.49927582611909
 11
144.24334964236698
 21
128.04403356603675
  0
LINE
  8
_1-4_
  6
CONTINUOUS
 62
    7
 10
140.85005889067779
 20
125.49927582611909
 11
144.14352004592484
 21
128.79273698136615
  0
LINE
  8
_1-4_
  6
CONTINUOUS
 62
    7
 10
140.0015382508974
 20
125.49927582611909
 11
144.04370282147383
 21
129.54144039669552
  0
LINE
  8
_1-4_
  6
CONTINUOUS
 62
    7
 10
139.15299286713471
 20
125.49927582611909
 11
143.94387322503167
 21
130.29014381202492
  0
LINE
  8
_1-4_
  6
CONTINUOUS
 62
    7
 10
138.30447222735432
 20
125.49927582611909
 11
143.84404362858953
 21
131.03885959934544
  0
LINE
  8
_1-4_
  6
CONTINUOUS
 62
    7
 10
137.45593921558279
 20
125.49927582611909
 11
143.45593426678633
 21
131.49927087732263
  0
LINE
  8
_1-4_
  6
CONTINUOUS
 62
    7
 10
136.60740620381125
 20
125.49927582611909
 11
142.60741362700591
 21
131.49927087732263
  0
LINE
  8
_1-4_
  6
CONTINUOUS
 62
    7
 10
136.24786376953125
 20
125.98825403161952
 11
141.75886824324326
 21
131.49927087732263
  0
LINE
  8
_1-4_
  6
CONTINUOUS
 62
    7
 10
136.37840064796242
 20
126.96732392182221
 11
140.91034760346284
 21
131.49927087732263
  0
LINE
  8
_1-4_
  6
CONTINUOUS
 62
    7
 10
136.50894989838471
 20
127.94639381202492
 11
140.06182696368245
 21
131.49927087732263
  0
LINE
  8
_1-4_
  6
CONTINUOUS
 62
    7
 10
136.63948677681589
 20
128.92546370222763
 11
139.21329395191091
 21
131.49927087732263
  0
LINE
  8
_1-4_
  6
CONTINUOUS
 62
    7
 10
136.77002365524706
 20
129.90453359243034
 11
138.36476094013938
 21
131.49927087732263
  0
LINE
  8
_1-4_
  6
CONTINUOUS
 62
    7
 10
136.90057290566935
 20
130.88360348263302
 11
137.51624030035896
 21
131.49927087732263
  0
LINE
  8
_1-4_
  6
CONTINUOUS
 62
    7
 10
234.58265149915542
 20
125.49927582611909
 11
226.1826633762669
 21
125.49927582611909
  0
LINE
  8
_1-4_
  6
CONTINUOUS
 62
    7
 10
226.98268581081084
 20
131.49927087732263
 11
226.1826633762669
 21
125.49927582611909
  0
LINE
  8
_1-4_
  6
CONTINUOUS
 62
    7
 10
226.98268581081084
 20
131.49927087732263
 11
233.78267855257602
 21
131.49927087732263
  0
LINE
  8
_1-4_
  6
CONTINUOUS
 62
    7
 10
233.78267855257602
 20
131.49927087732263
 11
234.58265149915542
 21
125.49927582611909
  0
LINE
  8
_1-4_
  6
CONTINUOUS
 62
    7
 10
234.24420330975508
 20
125.49927582611909
 11
234.54283843169341
 21
125.79792332004857
  0
LINE
  8
_1-4_
  6
CONTINUOUS
 62
    7
 10
233.39568266997466
 20
125.49927582611909
 11
234.44302120724242
 21
126.54662673537797
  0
LINE
  8
_1-4_
  6
CONTINUOUS
 62
    7
 10
232.54713728621201
 20
125.49927582611909
 11
234.34317923880914
 21
127.29533015070736
  0
LINE
  8
_1-4_
  6
CONTINUOUS
 62
    7
 10
231.69859190244935
 20
125.49927582611909
 11
234.24336201435813
 21
128.04403356603675
  0
LINE
  8
_1-4_
  6
CONTINUOUS
 62
    7
 10
230.85007126266893
 20
125.49927582611909
 11
234.14354478990711
 21
128.79273698136615
  0
LINE
  8
_1-4_
  6
CONTINUOUS
 62
    7
 10
230.00155062288852
 20
125.49927582611909
 11
234.04372756545609
 21
129.54144039669552
  0
LINE
  8
_1-4_
  6
CONTINUOUS
 62
    7
 10
229.15300523912586
 20
125.49927582611909
 11
233.94388559702281
 21
130.29014381202492
  0
LINE
  8
_1-4_
  6
CONTINUOUS
 62
    7
 10
228.30448459934544
 20
125.49927582611909
 11
233.84404362858953
 21
131.03885959934544
  0
LINE
  8
_1-4_
  6
CONTINUOUS
 62
    7
 10
227.45593921558279
 20
125.49927582611909
 11
233.45595901076859
 21
131.49927087732263
  0
LINE
  8
_1-4_
  6
CONTINUOUS
 62
    7
 10
226.60741857580237
 20
125.49927582611909
 11
232.60743837098818
 21
131.49927087732263
  0
LINE
  8
_1-4_
  6
CONTINUOUS
 62
    7
 10
226.24788851351352
 20
125.98825403161952
 11
231.75886824324326
 21
131.49927087732263
  0
LINE
  8
_1-4_
  6
CONTINUOUS
 62
    7
 10
226.37841301995357
 20
126.96732392182221
 11
230.91034760346284
 21
131.49927087732263
  0
LINE
  8
_1-4_
  6
CONTINUOUS
 62
    7
 10
226.50896227037586
 20
127.94639381202492
 11
230.06182696368245
 21
131.49927087732263
  0
LINE
  8
_1-4_
  6
CONTINUOUS
 62
    7
 10
226.63948677681589
 20
128.92546370222763
 11
229.21330632390203
 21
131.49927087732263
  0
LINE
  8
_1-4_
  6
CONTINUOUS
 62
    7
 10
226.77003602723818
 20
129.90453359243034
 11
228.36478568412164
 21
131.49927087732263
  0
LINE
  8
_1-4_
  6
CONTINUOUS
 62
    7
 10
226.9005852776605
 20
130.88360348263302
 11
227.51626504434122
 21
131.49927087732263
  0
LINE
  8
_1-4_
  6
CONTINUOUS
 62
    7
 10
324.58265149915542
 20
125.49927582611909
 11
316.18266337626693
 21
125.49927582611909
  0
LINE
  8
_1-4_
  6
CONTINUOUS
 62
    7
 10
316.98268581081084
 20
131.49927087732263
 11
316.18266337626693
 21
125.49927582611909
  0
LINE
  8
_1-4_
  6
CONTINUOUS
 62
    7
 10
316.98268581081084
 20
131.49927087732263
 11
323.78267855257604
 21
131.49927087732263
  0
LINE
  8
_1-4_
  6
CONTINUOUS
 62
    7
 10
323.78267855257604
 20
131.49927087732263
 11
324.58265149915542
 21
125.49927582611909
  0
LINE
  8
_1-4_
  6
CONTINUOUS
 62
    7
 10
324.24420330975511
 20
125.49927582611909
 11
324.54283843169344
 21
125.79792332004857
  0
LINE
  8
_1-4_
  6
CONTINUOUS
 62
    7
 10
323.39568266997469
 20
125.49927582611909
 11
324.4430212072424
 21
126.54662673537797
  0
LINE
  8
_1-4_
  6
CONTINUOUS
 62
    7
 10
322.54713728621203
 20
125.49927582611909
 11
324.34317923880911
 21
127.29533015070736
  0
LINE
  8
_1-4_
  6
CONTINUOUS
 62
    7
 10
321.69859190244932
 20
125.49927582611909
 11
324.24336201435813
 21
128.04403356603675
  0
LINE
  8
_1-4_
  6
CONTINUOUS
 62
    7
 10
320.85007126266896
 20
125.49927582611909
 11
324.14354478990714
 21
128.79273698136615
  0
LINE
  8
_1-4_
  6
CONTINUOUS
 62
    7
 10
320.00155062288854
 20
125.49927582611909
 11
324.04372756545609
 21
129.54144039669552
  0
LINE
  8
_1-4_
  6
CONTINUOUS
 62
    7
 10
319.15300523912589
 20
125.49927582611909
 11
323.94388559702281
 21
130.29014381202492
  0
LINE
  8
_1-4_
  6
CONTINUOUS
 62
    7
 10
318.30448459934547
 20
125.49927582611909
 11
323.84404362858953
 21
131.03885959934544
  0
LINE
  8
_1-4_
  6
CONTINUOUS
 62
    7
 10
317.45593921558276
 20
125.49927582611909
 11
323.45595901076859
 21
131.49927087732263
  0
LINE
  8
_1-4_
  6
CONTINUOUS
 62
    7
 10
316.6074185758024
 20
125.49927582611909
 11
322.60743837098818
 21
131.49927087732263
  0
LINE
  8
_1-4_
  6
CONTINUOUS
 62
    7
 10
316.24788851351354
 20
125.98825403161952
 11
321.75886824324328
 21
131.49927087732263
  0
LINE
  8
_1-4_
  6
CONTINUOUS
 62
    7
 10
316.37841301995354
 20
126.96732392182221
 11
320.91034760346287
 21
131.49927087732263
  0
LINE
  8
_1-4_
  6
CONTINUOUS
 62
    7
 10
316.50896227037589
 20
127.94639381202492
 11
320.06182696368245
 21
131.49927087732263
  0
LINE
  8
_1-4_
  6
CONTINUOUS
 62
    7
 10
316.63948677681589
 20
128.92546370222763
 11
319.21330632390203
 21
131.49927087732263
  0
LINE
  8
_1-4_
  6
CONTINUOUS
 62
    7
 10
316.77003602723818
 20
129.90453359243034
 11
318.36478568412161
 21
131.49927087732263
  0
LINE
  8
_1-4_
  6
CONTINUOUS
 62
    7
 10
316.90058527766047
 20
130.88360348263302
 11
317.51626504434125
 21
131.49927087732263
  0
LINE
  8
_1-4_
  6
CONTINUOUS
 62
    7
 10
115.04747957796664
 20
189.85573845940669
 11
124.41583581872889
 21
215.59510926942568
  0
LINE
  8
_1-4_
  6
CONTINUOUS
 62
    7
 10
115.04747957796664
 20
189.85573845940669
 11
111.50839728278083
 21
189.85573845940669
  0
LINE
  8
_1-4_
  6
CONTINUOUS
 62
    7
 10
124.41583581872889
 20
215.59510926942568
 11
127.33016967773437
 21
215.59510926942568
  0
LINE
  8
_1-4_
  6
CONTINUOUS
 62
    7
 10
176.6911604597762
 20
131.49927087732263
 11
152.69115551097974
 21
107.49926592852619
  0
LINE
  8
_1-4_
  6
CONTINUOUS
 62
    7
 10
174.42842225770693
 20
131.49927087732263
 11
150.42841730891047
 21
107.49926592852619
  0
LINE
  8
_1-4_
  6
CONTINUOUS
 62
    7
 10
178.95389866184544
 20
131.49927087732263
 11
154.95389371304898
 21
107.49926592852619
  0
LINE
  8
_1-4_
  6
CONTINUOUS
 62
    7
 10
296.21466559332771
 20
131.49927087732263
 11
272.21466064453125
 21
107.49926592852619
  0
LINE
  8
_1-4_
  6
CONTINUOUS
 62
    7
 10
293.95192739125844
 20
131.49927087732263
 11
269.95192244246203
 21
107.49926592852619
  0
LINE
  8
_1-4_
  6
CONTINUOUS
 62
    7
 10
291.68918918918922
 20
131.49927087732263
 11
267.68918424039276
 21
107.49926592852619
  0
LINE
  8
_1-4_
  6
CONTINUOUS
 62
    7
 10
90
 20
199.62915368982266
 11
113.85588362410263
 21
223.48502494193414
  0
LINE
  8
_1-4_
  6
CONTINUOUS
 62
    7
 10
90
 20
201.8918918918919
 11
113.85588362410263
 21
225.74778788798565
  0
LINE
  8
_1-4_
  6
CONTINUOUS
 62
    7
 10
90
 20
204.15463009396117
 11
113.85588362410263
 21
228.01050134607266
  0
LINE
  8
_1-3_
  6
CONTINUOUS
 62
    7
 10
229.21753754486909
 20
128.51856128589529
 11
254.6243121172931
 21
198.32306733002534
  0
LINE
  8
_1-3_
  6
CONTINUOUS
 62
    7
 10
259.83200485641891
 20
198.32306733002534
 11
254.6243121172931
 21
198.32306733002534
  0
LINE
  8
_1-0_
  6
CONTINUOUS
 62
    3
 10
169.95743210251268
 20
146.16986661343961
 11
171.34690568253802
 21
146.16986661343961
  0
LINE
  8
_1-0_
  6
CONTINUOUS
 62
    3
 10
110.34685289537585
 20
145.82708822714318
 11
110.34685289537585
 21
143.02713342615075
  0
LINE
  8
_1-0_
  6
CONTINUOUS
 62
    3
 10
114.91931812183277
 20
145.39577587230787
 11
110.34685289537585
 21
143.02713342615075
  0
LINE
  8
_1-0_
  6
CONTINUOUS
 62
    3
 10
171.34690568253802
 20
146.16986661343961
 11
171.34690568253802
 21
142.98863178974875
  0
LINE
  8
_1-0_
  6
CONTINUOUS
 62
    3
 10
171.34690568253802
 20
146.16986661343961
 11
171.34690568253802
 21
142.98863178974875
  0
LINE
  8
_1-0_
  6
CONTINUOUS
 62
    3
 10
169.01849695154141
 20
149.05205803948482
 11
163.34685454497466
 21
145.82708822714318
  0
LINE
  8
_1-0_
  6
CONTINUOUS
 62
    3
 10
222.95743375211151
 20
146.16985424144849
 11
224.34693207611909
 21
146.16985424144849
  0
LINE
  8
_1-0_
  6
CONTINUOUS
 62
    3
 10
163.34685454497466
 20
145.82708822714318
 11
163.34685454497466
 21
143.02713342615075
  0
LINE
  8
_1-0_
  6
CONTINUOUS
 62
    3
 10
167.91931977143159
 20
145.39576350031672
 11
163.34685454497466
 21
143.02713342615075
  0
LINE
  8
_1-0_
  6
CONTINUOUS
 62
    3
 10
224.34693207611909
 20
146.16985424144849
 11
224.34693207611909
 21
142.98863178974875
  0
LINE
  8
_1-0_
  6
CONTINUOUS
 62
    3
 10
224.34693207611909
 20
146.16985424144849
 11
224.34693207611909
 21
142.98863178974875
  0
LINE
  8
_1-0_
  6
CONTINUOUS
 62
    3
 10
224.34693207611909
 20
142.38532401419977
 11
224.34693207611909
 21
142.34664916992187
  0
LINE
  8
_1-0_
  6
CONTINUOUS
 62
    3
 10
222.95750798405828
 20
146.16986661343961
 11
224.34698156408362
 21
146.16986661343961
  0
LINE
  8
_1-0_
  6
CONTINUOUS
 62
    3
 10
224.34698156408362
 20
146.16986661343961
 11
224.34698156408362
 21
142.98863178974875
  0
LINE
  8
_1-0_
  6
CONTINUOUS
 62
    3
 10
224.34698156408362
 20
146.16986661343961
 11
224.34698156408362
 21
142.98863178974875
  0
LINE
  8
_1-0_
  6
CONTINUOUS
 62
    3
 10
222.01857283308701
 20
149.05204566749367
 11
216.34690568253802
 21
145.82708822714318
  0
LINE
  8
_1-0_
  6
CONTINUOUS
 62
    3
 10
216.34690568253802
 20
145.82708822714318
 11
216.34690568253802
 21
143.02713342615075
  0
LINE
  8
_1-0_
  6
CONTINUOUS
 62
    3
 10
220.91937090899495
 20
145.39577587230787
 11
216.34690568253802
 21
143.02713342615075
  0
LINE
  8
_1-0_
  6
CONTINUOUS
 62
    3
 10
277.34695846970021
 20
146.16986661343961
 11
277.34695846970021
 21
142.98863178974875
  0
LINE
  8
_1-0_
  6
CONTINUOUS
 62
    3
 10
277.34695846970021
 20
146.16986661343961
 11
277.34695846970021
 21
142.98863178974875
  0
LINE
  8
_1-0_
  6
CONTINUOUS
 62
    3
 10
116.01852004592483
 20
149.05204566749367
 11
110.34685289537585
 21
145.82708822714318
  0
LINE
  8
_1-0_
  6
CONTINUOUS
 62
    3
 10
275.01854973870354
 20
149.05204566749367
 11
269.34690733213682
 21
145.82708822714318
  0
LINE
  8
_1-0_
  6
CONTINUOUS
 62
    3
 10
328.95748653927365
 20
146.16986661343961
 11
330.34698486328125
 21
146.16986661343961
  0
LINE
  8
_1-0_
  6
CONTINUOUS
 62
    3
 10
269.34690733213682
 20
145.82708822714318
 11
269.34690733213682
 21
143.02713342615075
  0
LINE
  8
_1-0_
  6
CONTINUOUS
 62
    3
 10
273.91937255859375
 20
145.39577587230787
 11
269.34690733213682
 21
143.02713342615075
  0
LINE
  8
_1-0_
  6
CONTINUOUS
 62
    3
 10
330.34698486328125
 20
146.16986661343961
 11
330.34698486328125
 21
142.98863178974875
  0
LINE
  8
_1-0_
  6
CONTINUOUS
 62
    3
 10
330.34698486328125
 20
146.16986661343961
 11
330.34698486328125
 21
142.98863178974875
  0
LINE
  8
_1-0_
  6
CONTINUOUS
 62
    3
 10
328.0185513883024
 20
149.05204566749367
 11
322.34690898173568
 21
145.82708822714318
  0
LINE
  8
_1-0_
  6
CONTINUOUS
 62
    3
 10
322.34690898173568
 20
145.82708822714318
 11
322.34690898173568
 21
143.02713342615075
  0
LINE
  8
_1-0_
  6
CONTINUOUS
 62
    3
 10
326.91937420819261
 20
145.39577587230787
 11
322.34690898173568
 21
143.02713342615075
  0
LINE
  8
_1-0_
  6
CONTINUOUS
 62
    3
 10
275.95746014569261
 20
146.16986661343961
 11
277.34695846970021
 21
146.16986661343961
  0
LINE
  8
_1-4_
  6
DASHED1
 62
    7
 10
144.54282605970229
 20
125.79792332004857
 11
226.1826633762669
 21
125.49927582611909
  0
LINE
  8
_1-4_
  6
DASHED1
 62
    7
 10
234.58265149915542
 20
125.49927582611909
 11
316.18266337626693
 21
125.49927582611909
  0
LINE
  8
_1-4_
  6
DASHED1
 62
    7
 10
324.54283843169344
 20
125.79792332004857
 11
345.7908919050887
 21
125.79792332004857
  0
LINE
  8
_1-4_
  6
DASHED1
 62
    7
 10
136.60740620381125
 20
125.49927582611909
 11
108.85587950010559
 21
125.49927582611909
  0
LINE
  8
_1-4_
  6
DASHED1
 62
    7
 10
108.85587950010559
 20
131.49927087732263
 11
108.85587950010559
 21
125.49927582611909
  0
ARC
  8
_1-0_
  6
CONTINUOUS
 62
    3
 10
117.81498264622044
 20
114.66923069309544
 40
41.612016832506335
 50
60.485351562499993
 51
90
  0
ARC
  8
_1-0_
  6
CONTINUOUS
 62
    3
 10
117.81498264622044
 20
99.713225493559975
 40
60.168024011560391
 50
70.079711914062528
 51
90.000000000000028
  0
ARC
  8
_1-1_
  6
CONTINUOUS
 62
    3
 10
115.44716912346918
 20
189.47693283493456
 40
3.4868056065327413
 50
144.54960632324219
 51
196.28340148925781
  0
ARC
  8
_1-0_
  6
CONTINUOUS
 62
    3
 10
117.85838359111065
 20
146.60362862251901
 40
3.0627306731971538
 50
42.6905517578125
 51
126.92074584960937
  0
ARC
  8
_1-0_
  6
CONTINUOUS
 62
    3
 10
168.91756624788852
 20
146.14047076251057
 40
1.0402513194728542
 50
309.08184814453125
 51
1.6144714355468908
  0
ARC
  8
_1-0_
  6
CONTINUOUS
 62
    3
 10
147.47960271062078
 20
185.99196562895904
 40
46.274049088761615
 50
233.73811340332031
 51
298.51937866210937
  0
ARC
  8
_1-0_
  6
CONTINUOUS
 62
    3
 10
117.67166550095017
 20
141.67720072978253
 40
4.6263270764737516
 50
47.123046875000007
 51
126.50717163085939
  0
ARC
  8
_1-0_
  6
CONTINUOUS
 62
    3
 10
147.78650232263513
 20
185.43134122281461
 40
48.543530025997683
 50
236.25315856933597
 51
299.03501892089844
  0
ARC
  8
_1-0_
  6
CONTINUOUS
 62
    3
 10
170.85838524070948
 20
146.60362862251901
 40
3.0627306731971538
 50
42.6905517578125
 51
126.92074584960937
  0
ARC
  8
_1-0_
  6
CONTINUOUS
 62
    3
 10
221.91756789748734
 20
146.14045839051943
 40
1.0402513194728542
 50
309.08184814453125
 51
1.6144714355468908
  0
ARC
  8
_1-0_
  6
CONTINUOUS
 62
    3
 10
200.47957961623734
 20
185.99196562895904
 40
46.274049088761615
 50
233.73811340332031
 51
298.51937866210937
  0
ARC
  8
_1-0_
  6
CONTINUOUS
 62
    3
 10
170.67166715054898
 20
141.67718835779138
 40
4.6263270764737516
 50
47.123046875000007
 51
126.50717163085939
  0
ARC
  8
_1-0_
  6
CONTINUOUS
 62
    3
 10
200.78650397223396
 20
185.43134122281461
 40
48.543530025997683
 50
236.25315856933597
 51
299.03501892089844
  0
ARC
  8
_1-0_
  6
CONTINUOUS
 62
    3
 10
221.91761738545188
 20
146.14047076251057
 40
1.0402513194728542
 50
309.08184814453125
 51
1.6144714355468908
  0
ARC
  8
_1-0_
  6
CONTINUOUS
 62
    3
 10
223.85843637827281
 20
146.60362862251901
 40
3.0627306731971538
 50
42.6905517578125
 51
126.92074584960937
  0
ARC
  8
_1-0_
  6
CONTINUOUS
 62
    3
 10
253.47965549778294
 20
185.99196562895904
 40
46.274049088761615
 50
233.73811340332031
 51
298.51937866210937
  0
ARC
  8
_1-0_
  6
CONTINUOUS
 62
    3
 10
223.67171828811234
 20
141.67720072978253
 40
4.6263270764737516
 50
47.123046875000007
 51
126.50717163085939
  0
ARC
  8
_1-0_
  6
CONTINUOUS
 62
    3
 10
253.78655510979732
 20
185.43134122281461
 40
48.543530025997683
 50
236.25315856933597
 51
299.03501892089844
  0
ARC
  8
_1-0_
  6
CONTINUOUS
 62
    3
 10
276.85843802787161
 20
146.60362862251901
 40
3.0627306731971538
 50
42.6905517578125
 51
126.92074584960937
  0
ARC
  8
_1-0_
  6
CONTINUOUS
 62
    3
 10
327.91762068464953
 20
146.14047076251057
 40
1.0402513194728542
 50
309.08184814453125
 51
1.6144714355468908
  0
ARC
  8
_1-0_
  6
CONTINUOUS
 62
    3
 10
306.47963240339953
 20
185.99196562895904
 40
46.274049088761615
 50
233.73811340332031
 51
298.51937866210937
  0
ARC
  8
_1-0_
  6
CONTINUOUS
 62
    3
 10
276.67171993771115
 20
141.67720072978253
 40
4.6263270764737516
 50
47.123046875000007
 51
126.50717163085939
  0
ARC
  8
_1-0_
  6
CONTINUOUS
 62
    3
 10
306.78655675939615
 20
185.43134122281461
 40
48.543530025997683
 50
236.25315856933597
 51
299.03501892089844
  0
ARC
  8
_1-0_
  6
CONTINUOUS
 62
    3
 10
329.85843967747047
 20
146.60362862251901
 40
3.0627306731971538
 50
42.6905517578125
 51
126.92074584960937
  0
ARC
  8
_1-0_
  6
CONTINUOUS
 62
    3
 10
329.67172158731
 20
141.67720072978253
 40
4.6263270764737516
 50
47.123046875000007
 51
126.50717163085939
  0
ARC
  8
_1-0_
  6
CONTINUOUS
 62
    3
 10
274.91759429106844
 20
146.14047076251057
 40
1.0402513194728542
 50
309.08184814453125
 51
1.6144714355468908
  0
ARC
  8
_1-0_
  6
CONTINUOUS
 62
    3
 10
359.78655840899495
 20
185.43134122281461
 40
48.543530025997683
 50
236.25315856933597
 51
240.35987854003909
  0
ARC
  8
_1-0_
  6
CONTINUOUS
 62
    3
 10
359.47963405299834
 20
185.99196562895904
 40
46.274049088761615
 50
233.73811340332031
 51
239.19131469726562
  0
TEXT
  8
_0-0_
 62
    7
 10
141.89189395389042
 20
14.594594594594582
 40
2.5
 41
1
 50
0
  1
縮尺
  0
TEXT
  8
_0-0_
 62
    7
 10
377.10214563318203
 20
22.865493362014362
 40
2.5
 41
1
 50
0
  1
ＮＯ
  0
TEXT
  8
_0-0_
 62
    7
 10
14.594594336844779
 20
24.324324324324323
 40
2.5
 41
1
 50
0
  1
和形
  0
TEXT
  8
_0-0_
 62
    7
 10
383.23801896378802
 20
18.523427086907475
 40
3
 41
1
 50
0
  1
Ｊ
  0
TEXT
  8
_1-0_
 62
    7
 10
169.90681828679266
 20
13.3181144095756
 40
2.5
 41
1
 50
0
  1
1/5
  0
TEXT
  8
_1-3_
 62
    7
 10
261.66961257522172
 20
197.21641746727198
 40
2.5
 41
1
 50
0
  1
桟瓦
  0
TEXT
  8
_1-3_
 62
    7
 10
261.66961257522172
 20
191.21642241606841
 40
2.5
 41
1
 50
0
  1
瓦桟
  0
TEXT
  8
_1-3_
 62
    7
 10
145.0132937044711
 20
201.92221564215583
 40
2.5
 41
1
 50
0
  1
雨押え板
  0
TEXT
  8
_1-3_
 62
    7
 10
135.04018422719597
 20
201.64808943464951
 40
2.5
 41
1
 50
0
  1
15ｘ90
  0
TEXT
  8
_1-3_
 62
    7
 10
141.77450850203232
 20
189.01361413904141
 40
2.5
 41
1
 50
0
  1
水切り鉄板
  0
TEXT
  8
_1-3_
 62
    7
 10
146.16874076224664
 20
178.51377744932432
 40
2.5
 41
1
 50
0
  1
割のし
  0
TEXT
  8
_1-3_
 62
    7
 10
158.26306935903187
 20
72.245122548696159
 40
2.5
 41
1
 50
0
  1
捨谷
  0
TEXT
  8
_1-3_
 62
    7
 10
39.721904445338907
 20
15.395235628695104
 40
2.5
 41
1
 50
0
  1
壁際　　2
  0
TEXT
  8
_1-2_
 62
    7
 10
80.088606138487137
 20
159.62427087732266
 40
2.5
 41
1
 50
90
  1
300
  0
TEXT
  8
_1-2_
 62
    7
 10
25.556194717819636
 20
20.211577544341225
 40
2.5
 41
1
 50
0
  1
ＲＣ
  0
TEXT
  8
_1-4_
 62
    7
 10
261.79482124947214
 20
173.28397596204604
 40
2.5
 41
1
 50
0
  1
木煉瓦
  0
TEXT
  8
_1-4_
 62
    7
 10
272.68732431772594
 20
173.28397596204604
 40
2.5
 41
1
 50
0
  1
防腐処理
  0
TEXT
  8
_1-4_
 62
    7
 10
128.99562732593432
 20
214.42110628695102
 40
2.5
 41
1
 50
0
  1
コーキング
  0
TEXT
  8
_1-4_
 62
    7
 10
38.15036722131677
 20
167.29233200485643
 40
2.5
 41
1
 50
0
  1
下葺き材立上がり寸法
  0
TEXT
  8
_1-2_
 62
    7
 10
394.45476222682646
 20
15.607325579669038
 40
2.5
 41
1
 50
0
  1
22
  0
TEXT
  8
_1-4_
 62
    7
 10
272.15032629064615
 20
188.40686694995779
 40
2.5
 41
1
 50
0
  1
※　地域により瓦桟木の大きさは、異なります
  0
POINT
  8
_1-2_
 62
    7
 10
80.588607788085938
 20
131.49927087732263
  0
POINT
  8
_1-2_
 62
    7
 10
80.588607788085938
 20
191.49927087732266
  0
TEXT
  8
_1-4_
 62
    7
 10
272.28216222814615
 20
191.21642241606841
 40
2.5
 41
1
 50
0
  1
15×21以上　（防腐処理）
  0
TEXT
  8
_1-3_
 62
    7
 10
261.66961257522172
 20
185.21642736486487
 40
2.5
 41
1
 50
0
  1
縦桟
  0
TEXT
  8
_1-4_
 62
    7
 10
261.76354897988813
 20
179.34103063634925
 40
2.5
 41
1
 50
0
  1
アスファルトルーフィング
  0
LINE
  8
_1-1_
  6
CONTINUOUS
 62
    7
 10
110.75460897909629
 20
169.22919196051521
 11
128.46006651182432
 21
165.98612192514781
  0
LINE
  8
ADD_LINE
  6
DOT
 62
    4
 10
115.59475460567991
 20
163.21938592034417
 11
115.75873297614021
 21
162.47366415487755
  0
LINE
  8
ADD_LINE
  6
DOT
 62
    4
 10
110.75460897909629
 20
169.22919196051521
 11
109.32042302312078
 21
169.42815719722438
  0
LINE
  8
ADD_LINE
  6
DOT
 62
    4
 10
115.59475460567991
 20
166.81938789986276
 11
115.59475460567991
 21
168.34263304390024
  0
LINE
  8
ADD_LINE
  6
DOT
 62
    4
 10
109.99001992715372
 20
162.47366415487755
 11
109.32042302312078
 21
162.47366415487755
  0
LINE
  8
_1-1_
  6
CONTINUOUS
 62
    7
 10
140.13556403082771
 20
145.61244655299831
 11
129.79952605970746
 21
150.45205798473364
  0
ARC
  8
_1-5_
  6
CONTINUOUS
 62
    1
 10
132.04467218166442
 20
160.91049887534973
 40
4.5118726826132782
 50
173.00337277434642
 51
204.74361723911153
  0
ARC
  8
_1-5_
  6
CONTINUOUS
 62
    1
 10
146.98079020495857
 20
149.92285267473807
 40
17.18941231947792
 50
165.1018247774787
 51
205.25621126417113
  0
SOLID
  8
_1-5_
  6
CONTINUOUS
 62
    8
 10
115.75873297614021
 20
148.90432856397365
 11
116.01857144936066
 21
149.05218135007297
 12
116.26435269063579
 22
149.22374789778129
 13
116.26435269063579
 23
149.22374789778129
  0
SOLID
  8
_1-5_
  6
CONTINUOUS
 62
    8
 10
120.10956971551394
 20
148.680185814591
 11
120.56807467497535
 21
148.35244221997021
 12
121.41297715042852
 22
147.77157176809615
 13
121.41297715042852
 23
147.77157176809615
  0
SOLID
  8
_1-5_
  6
CONTINUOUS
 62
    8
 10
120.10956971551394
 20
148.680185814591
 11
121.41297715042852
 21
147.77157176809615
 12
122.35688249840898
 22
147.14024507747658
 13
122.35688249840898
 23
147.14024507747658
  0
SOLID
  8
_1-5_
  6
CONTINUOUS
 62
    8
 10
120.10956971551394
 20
148.680185814591
 11
122.35688249840898
 21
147.14024507747658
 12
123.38785248976259
 22
146.47838779907673
 13
123.38785248976259
 23
146.47838779907673
  0
SOLID
  8
_1-5_
  6
CONTINUOUS
 62
    8
 10
120.10956971551394
 20
148.680185814591
 11
123.38785248976259
 21
146.47838779907673
 12
124.24063013693166
 22
145.96926681569221
 13
124.24063013693166
 23
145.96926681569221
  0
SOLID
  8
_1-5_
  6
CONTINUOUS
 62
    8
 10
120.10956971551394
 20
148.680185814591
 11
124.24063013693166
 21
145.96926681569221
 12
125.67889691499289
 22
145.154673242277
 13
125.67889691499289
 23
145.154673242277
  0
SOLID
  8
_1-5_
  6
CONTINUOUS
 62
    8
 10
120.10956971551394
 20
148.680185814591
 11
125.67889691499289
 21
145.154673242277
 12
126.83714715219264
 22
144.55645608680021
 13
126.83714715219264
 23
144.55645608680021
  0
SOLID
  8
_1-5_
  6
CONTINUOUS
 62
    8
 10
120.10956971551394
 20
148.680185814591
 11
126.83714715219264
 21
144.55645608680021
 12
127.70265282394631
 22
144.14915930009261
 13
127.70265282394631
 23
144.14915930009261
  0
SOLID
  8
_1-5_
  6
CONTINUOUS
 62
    8
 10
120.10956971551394
 20
148.680185814591
 11
127.70265282394631
 21
144.14915930009261
 12
128.87363108573066
 22
143.62731029212347
 13
128.87363108573066
 23
143.62731029212347
  0
SOLID
  8
_1-5_
  6
CONTINUOUS
 62
    8
 10
120.10956971551394
 20
148.680185814591
 11
128.87363108573066
 21
143.62731029212347
 12
130.00642527376118
 22
143.13091733332357
 13
130.00642527376118
 23
143.13091733332357
  0
SOLID
  8
_1-5_
  6
CONTINUOUS
 62
    8
 10
120.10956971551394
 20
148.680185814591
 11
130.00642527376118
 21
143.13091733332357
 12
131.43453276733715
 22
142.58870135558607
 13
131.43453276733715
 23
142.58870135558607
  0
SOLID
  8
_1-5_
  6
CONTINUOUS
 62
    8
 10
120.10956971551394
 20
148.680185814591
 11
131.43453276733715
 21
142.58870135558607
 12
128.75392437305629
 22
148.27080776074231
 13
128.75392437305629
 23
148.27080776074231
  0
SOLID
  8
_1-5_
  6
CONTINUOUS
 62
    8
 10
120.10956971551394
 20
148.680185814591
 11
128.75392437305629
 21
148.27080776074231
 12
130.36921256165328
 22
154.3422852276185
 13
130.36921256165328
 23
154.3422852276185
  0
SOLID
  8
_1-5_
  6
CONTINUOUS
 62
    8
 10
127.25258776449954
 20
159.15046236375315
 11
127.94703540098912
 21
159.02201590805328
 12
127.41015140587881
 22
160.18694863099404
 13
127.41015140587881
 23
160.18694863099404
  0
SOLID
  8
_1-5_
  6
CONTINUOUS
 62
    8
 10
127.25258776449954
 20
159.15046236375315
 11
127.41015140587881
 21
160.18694863099404
 12
127.56639795359293
 22
161.46009421949176
 13
127.56639795359293
 23
161.46009421949176
  0
SOLID
  8
_1-5_
  6
CONTINUOUS
 62
    8
 10
127.25258776449954
 20
159.15046236375315
 11
127.56639795359293
 21
161.46009421949176
 12
126.35291729016529
 22
161.78699667048264
 13
126.35291729016529
 23
161.78699667048264
  0
SOLID
  8
_1-5_
  6
CONTINUOUS
 62
    8
 10
127.25258776449954
 20
159.15046236375315
 11
126.35291729016529
 21
161.78699667048264
 12
125.30330173677535
 22
162.04940055883011
 13
125.30330173677535
 23
162.04940055883011
  0
SOLID
  8
_1-5_
  6
CONTINUOUS
 62
    8
 10
127.25258776449954
 20
159.15046236375315
 11
125.30330173677535
 21
162.04940055883011
 12
124.09124568107507
 22
162.32429987043224
 13
124.09124568107507
 23
162.32429987043224
  0
SOLID
  8
_1-5_
  6
CONTINUOUS
 62
    8
 10
127.25258776449954
 20
159.15046236375315
 11
124.09124568107507
 21
162.32429987043224
 12
122.95416216490263
 22
162.5742083355251
 13
122.95416216490263
 23
162.5742083355251
  0
SOLID
  8
_1-5_
  6
CONTINUOUS
 62
    8
 10
127.25258776449954
 20
159.15046236375315
 11
122.95416216490263
 21
162.5742083355251
 12
121.75460153245699
 22
162.73664883783545
 13
121.75460153245699
 23
162.73664883783545
  0
SOLID
  8
_1-5_
  6
CONTINUOUS
 62
    8
 10
127.25258776449954
 20
159.15046236375315
 11
121.75460153245699
 21
162.73664883783545
 12
120.72997682557633
 22
162.89908934014579
 13
120.72997682557633
 23
162.89908934014579
  0
SOLID
  8
_1-5_
  6
CONTINUOUS
 62
    8
 10
127.25258776449954
 20
159.15046236375315
 11
120.72997682557633
 21
162.89908934014579
 12
119.78032465822352
 22
162.99905272618292
 13
119.78032465822352
 23
162.99905272618292
  0
SOLID
  8
_1-5_
  6
CONTINUOUS
 62
    8
 10
127.25258776449954
 20
159.15046236375315
 11
119.78032465822352
 21
162.99905272618292
 12
118.68072741181501
 22
163.1115115354747
 13
118.68072741181501
 23
163.1115115354747
  0
SOLID
  8
_1-5_
  6
CONTINUOUS
 62
    8
 10
127.25258776449954
 20
159.15046236375315
 11
118.68072741181501
 21
163.1115115354747
 12
117.80604778399007
 22
163.136502381984
 13
117.80604778399007
 23
163.136502381984
  0
SOLID
  8
_1-5_
  6
CONTINUOUS
 62
    8
 10
127.25258776449954
 20
159.15046236375315
 11
117.80604778399007
 21
163.136502381984
 12
117.00426483471085
 22
163.20537758252706
 13
117.00426483471085
 23
163.20537758252706
  0
SOLID
  8
_1-5_
  6
CONTINUOUS
 62
    8
 10
115.59475460567991
 20
168.34263304390024
 11
110.75460897909629
 21
169.22919196051521
 12
109.32042302312078
 22
169.42815719722438
 13
109.32042302312078
 23
169.42815719722438
  0
SOLID
  8
_1-5_
  6
CONTINUOUS
 62
    8
 10
115.59475460567991
 20
168.34263304390024
 11
109.32042302312078
 21
169.42815719722438
 12
109.32042302312078
 22
162.47366415487755
 13
109.32042302312078
 23
162.47366415487755
  0
TEXT
  8
_1-4_
 62
    7
 10
151.41248960066554
 20
164.72062188019967
 40
2.5
 41
1
 50
0
  1
葺き土
  0
LINE
  8
_1-1_
  6
CONTINUOUS
 62
    7
 10
110.28572456886884
 20
149.86394140658524
 11
122.28572456886884
 21
149.86394140658524
  0
LINE
  8
_1-1_
  6
CONTINUOUS
 62
    7
 10
122.28572456886884
 20
149.86394140658524
 11
122.28572456886884
 21
155.86394140658524
  0
LINE
  8
_1-1_
  6
CONTINUOUS
 62
    7
 10
122.28572456886884
 20
155.86394140658524
 11
110.28572456886884
 21
155.86394140658524
  0
LINE
  8
_1-1_
  6
CONTINUOUS
 62
    7
 10
110.28572456886884
 20
155.86394140658524
 11
110.28572456886884
 21
149.86394140658524
  0
LINE
  8
_1-1_
  6
CONTINUOUS
 62
    7
 10
110.09619685438301
 20
155.89008585247549
 11
117.296196854383
 21
155.89008585247549
  0
LINE
  8
_1-1_
  6
CONTINUOUS
 62
    7
 10
117.296196854383
 20
155.89008585247549
 11
117.296196854383
 21
163.09008585247548
  0
LINE
  8
_1-1_
  6
CONTINUOUS
 62
    7
 10
117.296196854383
 20
163.09008585247548
 11
110.09619685438301
 21
163.09008585247548
  0
LINE
  8
_1-1_
  6
CONTINUOUS
 62
    7
 10
110.09619685438301
 20
163.09008585247548
 11
110.09619685438301
 21
155.89008585247549
  0
LINE
  8
_1-1_
  6
CONTINUOUS
 62
    7
 10
117.4672836938436
 20
156.16972640571169
 11
117.4672836938436
 21
155.86972640571167
  0
LINE
  8
_1-1_
  6
DASHED1
 62
    7
 10
117.86728369384359
 20
155.64996357810296
 11
117.86728369384359
 21
152.15127703087234
  0
LINE
  8
_1-1_
  6
DASHED1
 62
    7
 10
118.26728369384359
 20
155.64996357810296
 11
118.26728369384359
 21
152.15127703087234
  0
LINE
  8
_1-1_
  6
DASHED1
 62
    7
 10
118.26728369384359
 20
152.15127703087234
 11
118.06728369384361
 21
151.77559329160087
  0
LINE
  8
_1-1_
  6
DASHED1
 62
    7
 10
117.86728369384359
 20
152.15127703087234
 11
118.06728369384361
 21
151.77559329160087
  0
LINE
  8
ADD_LINE
  6
DOT
 62
    4
 10
118.06728369384361
 20
156.21211260056552
 11
118.06728369384361
 21
151.77559329160087
  0
LINE
  8
_1-1_
  6
CONTINUOUS
 62
    7
 10
117.4672836938436
 20
155.86972640571167
 11
118.6672836938436
 21
155.86972640571167
  0
LINE
  8
_1-1_
  6
CONTINUOUS
 62
    7
 10
118.6672836938436
 20
155.86972640571167
 11
118.6672836938436
 21
156.16972640571169
  0
LINE
  8
_1-1_
  6
CONTINUOUS
 62
    7
 10
118.6672836938436
 20
156.16972640571169
 11
117.4672836938436
 21
156.16972640571169
  0
LINE
  8
_1-1_
  6
CONTINUOUS
 62
    7
 10
117.86728369384359
 20
155.86972640571167
 11
117.86728369384359
 21
155.64996357810296
  0
LINE
  8
_1-1_
  6
CONTINUOUS
 62
    7
 10
118.26728369384359
 20
155.86972640571167
 11
118.26728369384359
 21
155.64996357810296
  0
LINE
  8
_1-1_
  6
CONTINUOUS
 62
    7
 10
113.6002911813644
 20
163.53791484165177
 11
113.6002911813644
 21
163.23791484165179
  0
LINE
  8
_1-1_
  6
DASHED1
 62
    7
 10
114.00029118136439
 20
163.01815201404304
 11
114.00029118136439
 21
159.51946546681242
  0
LINE
  8
_1-1_
  6
DASHED1
 62
    7
 10
114.40029118136439
 20
163.01815201404304
 11
114.40029118136439
 21
159.51946546681242
  0
LINE
  8
_1-1_
  6
DASHED1
 62
    7
 10
114.40029118136439
 20
159.51946546681242
 11
114.20029118136441
 21
159.14378172754098
  0
LINE
  8
_1-1_
  6
DASHED1
 62
    7
 10
114.00029118136439
 20
159.51946546681242
 11
114.20029118136441
 21
159.14378172754095
  0
LINE
  8
ADD_LINE
  6
DOT
 62
    4
 10
114.20029118136441
 20
163.5803010365056
 11
114.20029118136441
 21
159.14378172754095
  0
LINE
  8
_1-1_
  6
CONTINUOUS
 62
    7
 10
113.6002911813644
 20
163.23791484165179
 11
114.8002911813644
 21
163.23791484165179
  0
LINE
  8
_1-1_
  6
CONTINUOUS
 62
    7
 10
114.8002911813644
 20
163.23791484165179
 11
114.8002911813644
 21
163.53791484165177
  0
LINE
  8
_1-1_
  6
CONTINUOUS
 62
    7
 10
114.8002911813644
 20
163.53791484165177
 11
113.6002911813644
 21
163.53791484165177
  0
LINE
  8
_1-1_
  6
CONTINUOUS
 62
    7
 10
114.00029118136439
 20
163.23791484165179
 11
114.00029118136439
 21
163.01815201404304
  0
LINE
  8
_1-1_
  6
CONTINUOUS
 62
    7
 10
114.40029118136439
 20
163.23791484165179
 11
114.40029118136439
 21
163.01815201404304
  0
LINE
  8
_1-1_
  6
CONTINUOUS
 62
    7
 10
117.69180562622563
 20
160.02344562448005
 11
117.69180562622563
 21
156.2151835273614
  0
LINE
  8
_1-1_
  6
CONTINUOUS
 62
    7
 10
117.69180562622563
 20
160.02344562448005
 11
118.76359196493567
 21
160.02344562448005
  0
LINE
  8
_1-1_
  6
DASHED1
 62
    7
 10
118.76359196493567
 20
160.02344562448005
 11
118.76359196493567
 21
156.2151835273614
  0
LINE
  8
_1-1_
  6
CONTINUOUS
 62
    7
 10
117.69180562622563
 20
156.2151835273614
 11
118.75363183062366
 21
156.2151835273614
  0
LINE
  8
_1-1_
  6
CONTINUOUS
 62
    7
 10
118.75363183062366
 20
156.2151835273614
 11
118.76359196493567
 21
156.2151835273614
  0
LINE
  8
_1-1_
  6
CONTINUOUS
 62
    7
 10
118.76359196493567
 20
156.2151835273614
 11
118.76359196493567
 21
155.86415045083731
  0
LINE
  8
_1-1_
  6
CONTINUOUS
 62
    7
 10
118.76359196493567
 20
155.86415045083731
 11
117.6564234348125
 21
155.86415045083731
  0
LINE
  8
_1-1_
  6
CONTINUOUS
 62
    7
 10
115.39517470881863
 20
166.90994176372712
 11
115.39517470881863
 21
163.15370216306155
  0
LINE
  8
_1-1_
  6
CONTINUOUS
 62
    7
 10
115.39517470881863
 20
163.15370216306155
 11
116.53078202995007
 21
163.15370216306155
  0
LINE
  8
_1-1_
  6
CONTINUOUS
 62
    7
 10
116.53078202995007
 20
163.15370216306155
 11
117.0985856905158
 21
163.15370216306155
  0
LINE
  8
_1-1_
  6
CONTINUOUS
 62
    7
 10
117.0985856905158
 20
166.90994176372712
 11
115.39517470881863
 21
166.90994176372712
  0
LINE
  8
_1-1_
  6
CONTINUOUS
 62
    7
 10
115.39517470881863
 20
163.15370216306155
 11
113.5388935108153
 21
163.15370216306155
  0
LINE
  8
_1-1_
  6
CONTINUOUS
 62
    7
 10
117.0985856905158
 20
163.15370216306155
 11
117.0985856905158
 21
163.19727518041836
  0
LINE
  8
_1-1_
  6
CONTINUOUS
 62
    7
 10
117.0985856905158
 20
166.8005916931877
 11
117.0985856905158
 21
166.90994176372712
  0
LINE
  8
_1-1_
  6
DASHED1
 62
    7
 10
117.0985856905158
 20
166.8005916931877
 11
117.0985856905158
 21
163.19457261770799
  0
LINE
  8
_1-1_
  6
CONTINUOUS
 62
    7
 10
117.296196854383
 20
163.09008585247548
 11
110.09619685438301
 21
155.89008585247549
  0
LINE
  8
_1-1_
  6
CONTINUOUS
 62
    7
 10
110.28572456886884
 20
155.86394140658524
 11
122.28572456886884
 21
149.86394140658524
  0
SOLID
  8
_1-5_
  6
CONTINUOUS
 62
    8
 10
122.28572456886884
 20
155.86394140658524
 11
122.28572456886884
 21
149.88116379234529
 12
122.28572456886884
 22
155.86394140658524
 13
130.36921256165328
 23
154.3422852276185
  0
SOLID
  8
_1-5_
  6
CONTINUOUS
 62
    8
 10
122.28572456886884
 20
155.86394140658524
 11
130.36921256165328
 21
154.3422852276185
 12
128.57392075567878
 22
154.87283198250313
 13
128.57392075567878
 23
154.87283198250313
  0
SOLID
  8
_1-5_
  6
CONTINUOUS
 62
    8
 10
122.28572456886884
 20
155.86394140658524
 11
128.57392075567878
 21
154.87283198250313
 12
127.22443823863129
 22
155.15908584975563
 13
127.22443823863129
 23
155.15908584975563
  0
SOLID
  8
_1-5_
  6
CONTINUOUS
 62
    8
 10
122.28572456886884
 20
155.86394140658524
 11
127.22443823863129
 21
155.15908584975563
 12
125.79316890236882
 22
155.48623312661562
 13
125.79316890236882
 23
155.48623312661562
  0
SOLID
  8
_1-5_
  6
CONTINUOUS
 62
    8
 10
122.28572456886884
 20
155.86394140658524
 11
125.79316890236882
 21
155.48623312661562
 12
124.0551989940501
 22
155.81338040347561
 13
124.0551989940501
 23
155.81338040347561
  0
SOLID
  8
_1-5_
  6
CONTINUOUS
 62
    8
 10
122.28572456886884
 20
155.86394140658524
 11
124.0551989940501
 21
155.81338040347561
 12
122.30435861529686
 22
156.03601215801285
 13
122.30435861529686
 23
156.03601215801285
  0
SOLID
  8
_1-5_
  6
CONTINUOUS
 62
    8
 10
118.76359196493567
 20
156.27043362316994
 11
118.76359196493567
 21
155.86415045083731
 12
122.28572456886884
 22
155.86394140658524
 13
122.28572456886884
 23
155.86394140658524
  0
SOLID
  8
_1-5_
  6
CONTINUOUS
 62
    8
 10
118.76359196493567
 20
156.27043362316994
 11
122.28572456886884
 21
155.86394140658524
 12
122.30435861529686
 22
156.03601215801285
 13
122.30435861529686
 23
156.03601215801285
  0
SOLID
  8
_1-5_
  6
CONTINUOUS
 62
    8
 10
122.30435861529686
 20
156.03601215801285
 11
121.31866757683662
 21
156.13633009475538
 12
120.56771630294332
 22
156.18426315479113
 13
120.56771630294332
 23
156.18426315479113
  0
SOLID
  8
_1-5_
  6
CONTINUOUS
 62
    8
 10
122.30435861529686
 20
156.03601215801285
 11
120.56771630294332
 21
156.18426315479113
 12
119.7528542823357
 22
156.22420737148758
 13
119.7528542823357
 23
156.22420737148758
  0
SOLID
  8
_1-5_
  6
CONTINUOUS
 62
    8
 10
122.30435861529686
 20
156.03601215801285
 11
119.7528542823357
 21
156.22420737148758
 12
119.16966871856751
 22
156.24817390150545
 13
119.16966871856751
 23
156.24817390150545
  0
SOLID
  8
_1-5_
  6
CONTINUOUS
 62
    8
 10
122.30435861529686
 20
156.03601215801285
 11
119.16966871856751
 21
156.24817390150545
 12
118.76359196493567
 22
156.27043362316994
 13
118.76359196493567
 23
156.27043362316994
  0
SOLID
  8
_1-5_
  6
CONTINUOUS
 62
    8
 10
115.59475460567991
 20
166.81938789986276
 11
114.8002911813644
 21
163.53791484165177
 12
115.59475460567991
 22
163.21938592034419
 13
114.8002911813644
 23
163.23791484165179
  0
SOLID
  8
_1-5_
  6
CONTINUOUS
 62
    8
 10
109.32042302312078
 20
162.47366415487755
 11
110.09619685438301
 21
162.47366415487755
 12
109.93468150181245
 22
163.4115975327579
 13
110.09619685438301
 23
163.09008585247548
  0
SOLID
  8
_1-5_
  6
CONTINUOUS
 62
    8
 10
110.09619685438301
 20
163.09008585247548
 11
113.61409601928332
 21
163.09402901785714
 12
110.05886516809065
 22
163.16439812679869
 13
113.6002911813644
 23
163.53791484165177
  0
SOLID
  8
_1-5_
  6
CONTINUOUS
 62
    8
 10
115.59475460567991
 20
168.34263304390024
 11
110.05886516809065
 21
163.16439812679869
 12
113.6002911813644
 22
163.53791484165177
 13
113.6002911813644
 23
163.53791484165177
  0
SOLID
  8
_1-5_
  6
CONTINUOUS
 62
    8
 10
115.59475460567991
 20
168.34263304390024
 11
113.6002911813644
 21
163.53791484165177
 12
114.8002911813644
 22
163.53791484165177
 13
114.8002911813644
 23
163.53791484165177
  0
SOLID
  8
_1-5_
  6
CONTINUOUS
 62
    8
 10
115.59475460567991
 20
168.34263304390024
 11
114.8002911813644
 21
163.53791484165177
 12
115.59475460567988
 22
166.81938789986276
 13
115.59475460567988
 23
166.81938789986276
  0
SOLID
  8
_1-5_
  6
CONTINUOUS
 62
    8
 10
117.296196854383
 20
163.08986994312832
 11
117.31386275038228
 21
159.72790817903885
 12
117.296196854383
 22
163.09008585247548
 13
117.81498264622044
 23
159.88124950512037
  0
SOLID
  8
_1-5_
  6
CONTINUOUS
 62
    8
 10
117.296196854383
 20
163.09008585247548
 11
117.81498264622044
 21
159.88124950512037
 12
120.07848983592025
 22
159.82766276459949
 13
120.07848983592025
 23
159.82766276459949
  0
SOLID
  8
_1-5_
  6
CONTINUOUS
 62
    8
 10
117.296196854383
 20
163.09008585247548
 11
120.07848983592025
 21
159.82766276459949
 12
122.05933089205313
 22
159.71365752395877
 13
122.05933089205313
 23
159.71365752395877
  0
SOLID
  8
_1-5_
  6
CONTINUOUS
 62
    8
 10
117.296196854383
 20
163.09008585247548
 11
122.05933089205313
 21
159.71365752395877
 12
123.6696549161036
 22
159.59965228331802
 13
123.6696549161036
 23
159.59965228331802
  0
SOLID
  8
_1-5_
  6
CONTINUOUS
 62
    8
 10
117.296196854383
 20
163.09008585247548
 11
123.6696549161036
 21
159.59965228331802
 12
125.08046976903276
 22
159.44289507743702
 13
125.08046976903276
 23
159.44289507743702
  0
SOLID
  8
_1-5_
  6
CONTINUOUS
 62
    8
 10
117.296196854383
 20
163.09008585247548
 11
125.08046976903276
 21
159.44289507743702
 12
125.99251169415869
 22
159.34314049187637
 13
125.99251169415869
 23
159.34314049187637
  0
SOLID
  8
_1-5_
  6
CONTINUOUS
 62
    8
 10
117.296196854383
 20
163.09008585247548
 11
125.99251169415869
 21
159.34314049187637
 12
127.37482523692768
 22
159.11513001059487
 13
127.37482523692768
 23
159.11513001059487
  0
SOLID
  8
_1-5_
  6
CONTINUOUS
 62
    8
 10
117.99951804803757
 20
149.85262124069072
 11
117.89545920986716
 21
149.67051827389253
 12
118.29868720777749
 22
149.65751091912122
 13
118.29868720777749
 23
149.65751091912122
  0
SOLID
  8
_1-5_
  6
CONTINUOUS
 62
    8
 10
117.99951804803757
 20
149.85262124069072
 11
118.29868720777749
 21
149.65751091912122
 12
118.83198875340084
 22
149.51443001663691
 13
118.83198875340084
 23
149.51443001663691
  0
SOLID
  8
_1-5_
  6
CONTINUOUS
 62
    8
 10
117.99951804803757
 20
149.85262124069072
 11
118.83198875340084
 21
149.51443001663691
 12
119.22220939653988
 22
149.3843564689239
 13
119.22220939653988
 23
149.3843564689239
  0
SOLID
  8
_1-5_
  6
CONTINUOUS
 62
    8
 10
119.89859184464754
 20
148.92909905192835
 11
120.10957154001461
 21
148.6802778454867
 12
122.25451785313193
 22
149.86394140658524
 13
122.25451785313193
 23
149.86394140658524
  0
SOLID
  8
_1-5_
  6
CONTINUOUS
 62
    8
 10
122.25451785313193
 20
149.86394140658524
 11
117.99951804803757
 21
149.87863595023333
 12
117.99951804803757
 22
149.85262124069072
 13
117.99951804803757
 23
149.85262124069072
  0
SOLID
  8
_1-5_
  6
CONTINUOUS
 62
    8
 10
122.25451785313193
 20
149.86394140658524
 11
117.99951804803757
 21
149.85262124069072
 12
119.22220939653988
 22
149.3843564689239
 13
119.22220939653988
 23
149.3843564689239
  0
SOLID
  8
_1-5_
  6
CONTINUOUS
 62
    8
 10
122.25451785313193
 20
149.86394140658524
 11
119.22220939653988
 21
149.3843564689239
 12
119.57340797536501
 22
149.15022408304048
 13
119.57340797536501
 23
149.15022408304048
  0
SOLID
  8
_1-5_
  6
CONTINUOUS
 62
    8
 10
122.25451785313193
 20
149.86394140658524
 11
119.57340797536501
 21
149.15022408304048
 12
119.89859184464754
 22
148.92909905192835
 13
119.89859184464754
 23
148.92909905192835
  0
ENDSEC
  0
EOF
