  0
SECTION
  2
HEADER
  9
$ACADVER
  1
AC1009
  9
$INSBASE
 10
0
 20
0
 30
0
  9
$EXTMIN
 10
0
 20
0
  9
$EXTMAX
 10
420
 20
297
  9
$LIMMIN
 10
0
 20
0
  9
$LIMMAX
 10
420
 20
297
  9
$LTSCALE
 40
1
  0
ENDSEC
  0
SECTION
  2
TABLES
  0
TABLE
  2
LTYPE
 70
     9
  0
LTYPE
  2
CONTINUOUS
 70
    64
  3
実線
 72
    65
 73
     0
 40
0.0
  0
LTYPE
  2
DASHED1
 70
    64
  3
--  --  --  --  --  --  --  --  
 72
    65
 73
     2
 40
2.5
 49
1.25
 49
-1.25
  0
LTYPE
  2
DASHED2
 70
    64
  3
----    ----    ----    ----    
 72
    65
 73
     2
 40
5.0
 49
2.5
 49
-2.5
  0
LTYPE
  2
DASHED3
 70
    64
  3
------  ------  ------  ------  
 72
    65
 73
     2
 40
5.0
 49
3.75
 49
-1.25
  0
LTYPE
  2
CENTER1
 70
    64
  3
----- - ----- - ----- - ----- - 
 72
    65
 73
     4
 40
10.0
 49
6.25
 49
-1.25
 49
1.25
 49
-1.25
  0
LTYPE
  2
CENTER2
 70
    64
  3
----------  --  ----------  --  
 72
    65
 73
     4
 40
20.0
 49
12.5
 49
-2.5
 49
2.5
 49
-2.5
  0
LTYPE
  2
PHANTOM1
 70
    64
  3
--- - - --- - - --- - - --- - - 
 72
    65
 73
     6
 40
10.0
 49
3.25
 49
-1.25
 49
1.25
 49
-1.25
 49
1.25
 49
-1.25
  0
LTYPE
  2
PHANTOM2
 70
    64
  3
--------  -  -  --------  -  -  
 72
    65
 73
     6
 40
20.0
 49
10.0
 49
-2.5
 49
1.25
 49
-2.5
 49
1.25
 49
-2.5
  0
LTYPE
  2
DOT
 70
    64
  3
-   -   -   -   -   -   -   -   
 72
    65
 73
     2
 40
2.5
 49
0.625
 49
-1.875
  0
LTYPE
  2
DUMMY
 70
    64
  3
ダミー
 72
    65
 73
     0
 40
0.0
  0
LTYPE
  2
RAND1
 70
    64
  3
ランダム線1
 72
    65
 73
     4
 40
10.0
 49
1.0
 49
-2.0
 49
3.0
 49
-4.0
  0
LTYPE
  2
RAND2
 70
    64
  3
ランダム線2
 72
    65
 73
     4
 40
14.0
 49
2.0
 49
-3.0
 49
4.0
 49
-5.0
  0
LTYPE
  2
RAND3
 70
    64
  3
ランダム線3
 72
    65
 73
     4
 40
18.0
 49
3.0
 49
-4.0
 49
5.0
 49
-6.0
  0
LTYPE
  2
RAND4
 70
    64
  3
ランダム線4
 72
    65
 73
     4
 40
22.0
 49
4.0
 49
-5.0
 49
6.0
 49
-7.0
  0
LTYPE
  2
RAND5
 70
    64
  3
ランダム線5
 72
    65
 73
     4
 40
26.0
 49
5.0
 49
-6.0
 49
7.0
 49
-8.0
  0
LTYPE
  2
LONG1
 70
    64
  3
----------  --  ----------  --  
 72
    65
 73
     4
 40
40.0
 49
32.5
 49
-2.5
 49
2.5
 49
-2.5
  0
LTYPE
  2
LONG2
 70
    64
  3
--------  -  -  --------  -  -  
 72
    65
 73
     6
 40
40.0
 49
30.0
 49
-2.5
 49
1.25
 49
-2.5
 49
1.25
 49
-2.5
  0
LTYPE
  2
LONG3
 70
    64
  3
+++++++++++++++..+++++++++++++++
 72
    65
 73
     2
 40
40.0
 49
37.5
 49
-2.5
  0
LTYPE
  2
LONG4
 70
    64
  3
+++++++++++++++..+++++++++++++++
 72
    65
 73
     2
 40
80.0
 49
75.0
 49
-5.0
  0
LTYPE
  2
LONG5
 70
    64
  3
----------  --  ----------  --  
 72
    65
 73
     4
 40
60.0
 49
37.5
 49
-7.5
 49
7.5
 49
-7.5
  0
LTYPE
  2
dashed
 70
   64
  3
-------   -------------   ------
 72
   65
 73
    2
 40
7.5
 49
6
 49
-1.5
  0
LTYPE
  2
dashed_spaced
 70
   64
  3
----        --------        ----
 72
   65
 73
    2
 40
12
 49
6
 49
-6
  0
LTYPE
  2
long_dashed_dotted
 70
   64
  3
------------- --- --------------
 72
   65
 73
    4
 40
15.25
 49
12
 49
-1.5
 49
0.25
 49
-1.5
  0
LTYPE
  2
long_dashed_double-dotted
 70
   64
  3
----------- --- --- ------------
 72
   65
 73
    6
 40
17
 49
12
 49
-1.5
 49
0.25
 49
-1.5
 49
0.25
 49
-1.5
  0
LTYPE
  2
long_dashed_triplicate-dotted
 70
   64
  3
--------- --- --- --- ----------
 72
   65
 73
    8
 40
18.75
 49
12
 49
-1.5
 49
0.25
 49
-1.5
 49
0.25
 49
-1.5
 49
0.25
 49
-1.5
  0
LTYPE
  2
dotted
 70
   64
  3
   -       -       -       -    
 72
   65
 73
    2
 40
1.75
 49
0.25
 49
-1.5
  0
LTYPE
  2
chain
 70
   64
  3
-------------- -- --------------
 72
   65
 73
    4
 40
18.5
 49
12
 49
-1.5
 49
3.5
 49
-1.5
  0
LTYPE
  2
chain_double_dash
 70
   64
  3
------------ -- -- -------------
 72
   65
 73
    6
 40
23.5
 49
12
 49
-1.5
 49
3.5
 49
-1.5
 49
3.5
 49
-1.5
  0
LTYPE
  2
dashed_dotted
 70
   64
  3
-----------     -     ----------
 72
   65
 73
    4
 40
9.25
 49
6
 49
-1.5
 49
0.25
 49
-1.5
  0
LTYPE
  2
double-dashed_dotted
 70
   64
  3
------   -----------   -   -----
 72
   65
 73
    6
 40
16.75
 49
6
 49
-1.5
 49
6
 49
-1.5
 49
0.25
 49
-1.5
  0
LTYPE
  2
dashed_double-dotted
 70
   64
  3
---------    -    -    ---------
 72
   65
 73
    6
 40
11
 49
6
 49
-1.5
 49
0.25
 49
-1.5
 49
0.25
 49
-1.5
  0
LTYPE
  2
double-dashed_double-dotted
 70
   64
  3
-----   ---------   -   -   ----
 72
   65
 73
    8
 40
18.5
 49
6
 49
-1.5
 49
6
 49
-1.5
 49
0.25
 49
-1.5
 49
0.25
 49
-1.5
  0
LTYPE
  2
dashed_triplicate-dotted
 70
   64
  3
-------    -    -    -    ------
 72
   65
 73
    8
 40
12.75
 49
6
 49
-1.5
 49
0.25
 49
-1.5
 49
0.25
 49
-1.5
 49
0.25
 49
-1.5
  0
LTYPE
  2
double-dashed_triplicate-dotted
 70
   64
  3
-----  ---------  -  -  -  -----
 72
   65
 73
   10
 40
20.25
 49
6
 49
-1.5
 49
6
 49
-1.5
 49
0.25
 49
-1.5
 49
0.25
 49
-1.5
 49
0.25
 49
-1.5
  0
LTYPE
  2
undefined
 70
   64
  3
--------------------------------
 72
   65
 73
    0
 40
0
  0
ENDTAB
  0
TABLE
  2
STYLE
  5
3
100
AcDbSymbolTable
 70
     1
  0
STYLE
  5
10
100
AcDbSymbolTableRecord
100
AcDbTextStyleTableRecord
  2
STANDARD
 70
     0
 40
0.0
 41
1.0
 50
0.0
 71
     0
 42
0.2
  3
txt
  4
bigfont.shx
  0
STYLE
  5
26
100
AcDbSymbolTableRecord
100
AcDbTextStyleTableRecord
  2
TATEGAKI
 70
    68
 40
0.0
 41
1.0
 50
0.0
 71
     0
 42
1.0
  3
txt
  4
bigfont.shx
  0
ENDTAB
  0
TABLE
  2
LAYER
 70
   11
  0
LAYER
  2
_0-0_
 70
   64
 62
    7
  6
CONTINUOUS
  0
LAYER
  2
_1-0_
 70
   64
 62
    7
  6
CONTINUOUS
  0
LAYER
  2
_1-1_
 70
   64
 62
    7
  6
CONTINUOUS
  0
LAYER
  2
_1-2_
 70
   64
 62
    7
  6
CONTINUOUS
  0
LAYER
  2
_1-3_
 70
   64
 62
    7
  6
CONTINUOUS
  0
LAYER
  2
_1-4_
 70
   64
 62
    7
  6
CONTINUOUS
  0
LAYER
  2
_1-5_
 70
   64
 62
    7
  6
CONTINUOUS
  0
LAYER
  2
_1-6_
 70
   64
 62
    7
  6
CONTINUOUS
  0
LAYER
  2
_1-b_
 70
   64
 62
    7
  6
CONTINUOUS
  0
LAYER
  2
_1-c_
 70
   64
 62
    7
  6
CONTINUOUS
  0
LAYER
  2
ADD_LINE
 70
   64
 62
    7
  6
CONTINUOUS
  0
ENDTAB
  0
ENDSEC
  0
SECTION
  2
BLOCKS
  0
ENDSEC
  0
SECTION
  2
ENTITIES
  0
LINE
  8
_0-0_
  6
CONTINUOUS
 62
    5
 10
6.7567526327597136
 20
280.13513513513516
 11
406.75677325274495
 21
280.13513513513516
  0
LINE
  8
_0-0_
  6
CONTINUOUS
 62
    5
 10
406.75677325274495
 20
10.13513513513513
 11
6.7567526327597136
 21
10.13513513513513
  0
LINE
  8
_0-0_
  6
CONTINUOUS
 62
    5
 10
406.75677325274495
 20
30.135133073136615
 11
6.7567402607685949
 21
30.135133073136615
  0
LINE
  8
_0-0_
  6
CONTINUOUS
 62
    5
 10
371.75678150073907
 20
10.13513513513513
 11
371.75678150073907
 21
30.135133073136615
  0
LINE
  8
_0-0_
  6
CONTINUOUS
 62
    5
 10
137.02703939901818
 20
30.135133073136615
 11
137.02703939901818
 21
10.13513513513513
  0
LINE
  8
_0-0_
  6
CONTINUOUS
 62
    5
 10
214.86486486486487
 20
30.135133073136615
 11
214.86486486486487
 21
10.13513513513513
  0
LINE
  8
_0-0_
  6
CONTINUOUS
 62
    5
 10
137.02703939901818
 20
20.135134104135886
 11
214.86486486486487
 21
20.135134104135886
  0
LINE
  8
_0-0_
  6
CONTINUOUS
 62
    5
 10
396.48648648648651
 20
25.945945945945951
 11
383.91891891891896
 21
13.378379924877265
  0
LINE
  8
_1-0_
  6
CONTINUOUS
 62
    7
 10
97.829540355785483
 20
87.685435527079818
 11
235.13513513513516
 21
149.47297792176943
  0
LINE
  8
_1-2_
  6
CONTINUOUS
 62
    3
 10
207.84987166121201
 20
161.17863835515203
 11
209.71512253220018
 21
156.1110089276288
  0
LINE
  8
_1-2_
  6
CONTINUOUS
 62
    3
 10
227.08807043127112
 20
168.25967324746622
 11
225.84458634660052
 21
171.63809286581505
  0
LINE
  8
_1-3_
  6
CONTINUOUS
 62
    7
 10
213.92694421716641
 20
166.24924943253802
 11
212.58530075485643
 21
168.93252398516682
  0
LINE
  8
_1-3_
  6
CONTINUOUS
 62
    7
 10
212.58530075485643
 20
168.93252398516682
 11
228.68499755859375
 21
176.9823723870355
  0
LINE
  8
_1-3_
  6
CONTINUOUS
 62
    7
 10
230.02664102090372
 20
174.29909783440669
 11
213.92694421716641
 21
166.24924943253802
  0
LINE
  8
_1-3_
  6
CONTINUOUS
 62
    7
 10
212.58530075485643
 20
168.93252398516682
 11
230.02664102090372
 21
174.29909783440669
  0
LINE
  8
_1-3_
  6
CONTINUOUS
 62
    3
 10
211.50861585462417
 20
169.2275093697213
 11
212.11145349451016
 21
165.15822539458404
  0
LINE
  8
_1-3_
  6
CONTINUOUS
 62
    3
 10
212.11145349451016
 20
165.15822539458404
 11
212.71431587837839
 21
166.3639377903294
  0
LINE
  8
_1-1_
  6
DASHED1
 62
    3
 10
97.501237199113177
 20
88.41498091414168
 11
234.52294426995357
 21
150.07477631440034
  0
LINE
  8
_1-3_
  6
DASHED1
 62
    3
 10
234.52294426995357
 20
150.07477631440034
 11
234.52294426995357
 21
209.47297792176943
  0
LINE
  8
_1-2_
  6
CONTINUOUS
 62
    7
 10
225.30680063608531
 20
174.20946275865711
 11
206.22943775073904
 21
226.624096019848
  0
LINE
  8
_1-2_
  6
CONTINUOUS
 62
    7
 10
211.91124993401607
 20
166.50963035789698
 11
196.60123258023648
 21
208.573558910473
  0
LINE
  8
_1-2_
  6
CONTINUOUS
 62
    7
 10
209.60085482210727
 20
159.58668476826438
 11
198.75240016627959
 21
189.39258059939823
  0
LINE
  8
_1-2_
  6
CONTINUOUS
 62
    7
 10
205.8097674395587
 20
150.46409813133448
 11
218.53699555268159
 21
155.87993724926099
  0
LINE
  8
_1-2_
  6
CONTINUOUS
 62
    7
 10
206.22943775073904
 20
226.624096019848
 11
199.85761487806167
 21
226.624096019848
  0
LINE
  8
_1-2_
  6
CONTINUOUS
 62
    7
 10
196.60123258023648
 20
208.573558910473
 11
192.55669258736276
 21
208.573558910473
  0
LINE
  8
_1-2_
  6
CONTINUOUS
 62
    7
 10
198.75240016627959
 20
189.39258059939823
 11
195.47706397804055
 21
189.39258059939823
  0
LINE
  8
_1-2_
  6
CONTINUOUS
 62
    7
 10
289.80082743876693
 20
209.47297792176943
 11
289.80082743876693
 21
149.47290368982263
  0
LINE
  8
_1-2_
  6
CONTINUOUS
 62
    7
 10
254.95160077069258
 20
209.47297792176943
 11
289.80082743876693
 21
209.47297792176943
  0
LINE
  8
_1-2_
  6
CONTINUOUS
 62
    7
 10
254.95160077069258
 20
149.47290368982263
 11
289.80082743876693
 21
149.47290368982263
  0
LINE
  8
_1-2_
  6
CONTINUOUS
 62
    7
 10
198.10107669314823
 20
171.64357365788641
 11
191.09651307801943
 21
171.64357365788641
  0
LINE
  8
_1-2_
  6
CONTINUOUS
 62
    7
 10
205.8097674395587
 20
150.46409813133448
 11
198.10107669314823
 21
171.64357365788641
  0
LINE
  8
_1-0_
  6
CONTINUOUS
 62
    7
 10
230.13514338312925
 20
237.94872387035474
 11
230.13514338312925
 21
209.47297792176943
  0
LINE
  8
_1-0_
  6
CONTINUOUS
 62
    7
 10
235.13513513513516
 20
209.47297792176943
 11
230.13514338312925
 21
209.47297792176943
  0
LINE
  8
_1-0_
  6
DASHED1
 62
    7
 10
235.13513513513516
 20
209.47297792176943
 11
235.13513513513516
 21
237.94872387035474
  0
LINE
  8
_1-3_
  6
CONTINUOUS
 62
    3
 10
211.50861585462417
 20
169.2275093697213
 11
230.13514338312925
 21
178.54077313397383
  0
LINE
  8
_1-0_
  6
CONTINUOUS
 62
    3
 10
230.13514338312925
 20
206.47298039616766
 11
230.13514338312925
 21
178.54077313397383
  0
LINE
  8
_1-0_
  6
CONTINUOUS
 62
    3
 10
234.25630311708193
 20
206.47298039616766
 11
230.13514338312925
 21
206.47298039616766
  0
LINE
  8
_1-3_
  6
CONTINUOUS
 62
    3
 10
234.25630311708193
 20
206.47298039616766
 11
234.25630311708193
 21
209.47297792176943
  0
LINE
  8
_1-0_
  6
CONTINUOUS
 62
    7
 10
230.97052496832771
 20
185.38055419921875
 11
230.97052496832771
 21
203.38056409681167
  0
LINE
  8
_1-0_
  6
CONTINUOUS
 62
    7
 10
230.97052496832771
 20
203.38056409681167
 11
233.97053486592063
 21
203.38056409681167
  0
LINE
  8
_1-0_
  6
CONTINUOUS
 62
    7
 10
233.97053486592063
 20
203.38056409681167
 11
233.97053486592063
 21
185.38055419921875
  0
LINE
  8
_1-0_
  6
CONTINUOUS
 62
    7
 10
233.97053486592063
 20
185.38055419921875
 11
230.97052496832771
 21
185.38055419921875
  0
LINE
  8
_1-0_
  6
CONTINUOUS
 62
    7
 10
230.97052496832771
 20
202.34804720491977
 11
233.97053486592063
 21
185.38055419921875
  0
LINE
  8
_1-0_
  6
CONTINUOUS
 62
    7
 10
233.62587593697214
 20
206.47298039616766
 11
234.25630311708193
 21
207.10339520428633
  0
LINE
  8
_1-0_
  6
CONTINUOUS
 62
    7
 10
232.77735529719175
 20
206.47298039616766
 11
234.25630311708193
 21
207.95194058804898
  0
LINE
  8
_1-0_
  6
CONTINUOUS
 62
    7
 10
231.92883465741133
 20
206.47298039616766
 11
234.25630311708193
 21
208.8004612278294
  0
LINE
  8
_1-0_
  6
CONTINUOUS
 62
    7
 10
231.08028927364867
 20
206.47298039616766
 11
234.08029917124156
 21
209.47297792176943
  0
LINE
  8
_1-0_
  6
CONTINUOUS
 62
    7
 10
231.25018145586995
 20
207.4914055901605
 11
233.23175378747891
 21
209.47297792176943
  0
LINE
  8
_1-0_
  6
CONTINUOUS
 62
    7
 10
231.35002342430323
 20
208.43976819837417
 11
232.38323314769849
 21
209.47297792176943
  0
LINE
  8
_1-0_
  6
CONTINUOUS
 62
    7
 10
231.25730772276185
 20
209.19557313661318
 11
231.5347125079181
 21
209.47297792176943
  0
LINE
  8
_1-0_
  6
DASHED2
 62
    7
 10
100.29172742688979
 20
82.213910077069258
 11
233.05857065561656
 21
141.95900994378167
  0
LINE
  8
_1-0_
  6
DASHED2
 62
    7
 10
230.59639595650339
 20
147.43053539379224
 11
233.05857065561656
 21
141.95900994378167
  0
LINE
  8
_1-0_
  6
CONTINUOUS
 62
    7
 10
235.13513513513516
 20
209.47297792176943
 11
235.13513513513516
 21
149.47297792176943
  0
LINE
  8
_1-0_
  6
CONTINUOUS
 62
    7
 10
227.28278082770271
 20
208.40015308277029
 11
214.37223692198057
 21
243.87161667282518
  0
LINE
  8
_1-0_
  6
CONTINUOUS
 62
    7
 10
227.28278082770271
 20
208.40015308277029
 11
232.18575142525339
 21
208.40015308277029
  0
LINE
  8
_1-0_
  6
CONTINUOUS
 62
    7
 10
214.37223692198057
 20
243.87161667282518
 11
210.84347286739867
 21
243.87161667282518
  0
LINE
  8
_1-0_
  6
CONTINUOUS
 62
    7
 10
131.65477443385768
 20
96.327283704603047
 11
126.46041870117187
 21
74.251284212679479
  0
LINE
  8
_1-0_
  6
CONTINUOUS
 62
    7
 10
133.4931162241343
 20
97.154543077623529
 11
128.29876049144849
 21
75.078537399704402
  0
LINE
  8
_1-0_
  6
CONTINUOUS
 62
    7
 10
135.33147038640203
 20
97.981802450644011
 11
130.13711465371622
 21
75.90579058672931
  0
LINE
  8
_1-0_
  6
CONTINUOUS
 62
    7
 10
196.34043100717906
 20
125.43584462758658
 11
191.14607527449326
 21
103.35984513566301
  0
LINE
  8
_1-0_
  6
CONTINUOUS
 62
    7
 10
200.01712695972341
 20
127.09035100163641
 11
194.82277122703761
 21
105.01435150971284
  0
LINE
  8
_1-0_
  6
CONTINUOUS
 62
    7
 10
198.1787851694468
 20
126.2630978146115
 11
192.98442943676099
 21
104.18709832268793
  0
LINE
  8
_1-0_
  6
CONTINUOUS
 62
    7
 10
230.13514338312925
 20
222.83784608583193
 11
245.24602116765203
 21
237.94872387035474
  0
LINE
  8
_1-0_
  6
CONTINUOUS
 62
    7
 10
230.13514338312925
 20
220.57510788376268
 11
247.5087593697213
 21
237.94872387035474
  0
LINE
  8
_1-0_
  6
CONTINUOUS
 62
    7
 10
230.13514338312925
 20
218.31236968169341
 11
249.77149757179055
 21
237.94872387035474
  0
LINE
  8
_1-3_
  6
CONTINUOUS
 62
    7
 10
228.68499755859375
 20
176.9823723870355
 11
230.02664102090372
 21
174.29909783440669
  0
ARC
  8
_1-2_
  6
CONTINUOUS
 62
    3
 10
241.46155280035896
 20
129.20889364706505
 40
41.612016832506335
 50
110.20721435546875
 51
139.72186279296875
  0
ARC
  8
_1-2_
  6
CONTINUOUS
 62
    3
 10
246.62760141733531
 20
115.17343881967906
 40
60.168024011560391
 50
110.20721435546875
 51
130.12750244140625
  0
ARC
  8
_1-0_
  6
CONTINUOUS
 62
    3
 10
227.56352605046453
 20
208.35890486433701
 40
3.7873487214784367
 50
330.13520812988281
 51
17.106918334960948
  0
TEXT
  8
_0-0_
 62
    7
 10
141.89189395389042
 20
14.594594594594582
 40
2.5
 41
1
 50
0
  1
縮尺
  0
TEXT
  8
_0-0_
 62
    7
 10
377.10214563318203
 20
22.865493362014362
 40
2.5
 41
1
 50
0
  1
ＮＯ
  0
TEXT
  8
_0-0_
 62
    7
 10
14.594594336844779
 20
24.324324324324323
 40
2.5
 41
1
 50
0
  1
和形
  0
TEXT
  8
_0-0_
 62
    7
 10
383.23801896378802
 20
18.523427086907475
 40
3
 41
1
 50
0
  1
Ｊ
  0
TEXT
  8
_1-0_
 62
    7
 10
169.90681828679266
 20
13.3181144095756
 40
2.5
 41
1
 50
0
  1
1/5
  0
TEXT
  8
_1-2_
 62
    7
 10
289.30082578916807
 20
177.59794080579604
 40
2.5
 41
1
 50
90
  1
300
  0
TEXT
  8
_1-6_
 62
    7
 10
177.55662041741448
 20
224.76696117504224
 40
2.5
 41
1
 50
0
  1
雨押え板　15ｘ90
  0
TEXT
  8
_1-6_
 62
    7
 10
179.92330396497573
 20
206.9291233372044
 40
2.5
 41
1
 50
0
  1
水切鉄板
  0
TEXT
  8
_1-6_
 62
    7
 10
186.1358642578125
 20
187.46966387774495
 40
2.5
 41
1
 50
0
  1
のし瓦
  0
TEXT
  8
_1-6_
 62
    7
 10
39.721904445338907
 20
15.395235628695104
 40
2.5
 41
1
 50
0
  1
壁際　　6
  0
TEXT
  8
_0-0_
 62
    7
 10
25.556194717819636
 20
20.211577544341225
 40
2.5
 41
1
 50
0
  1
ＲＣ
  0
TEXT
  8
_1-0_
 62
    7
 10
196.71141340925885
 20
242.7208235457137
 40
2.5
 41
1
 50
0
  1
コーキング
  0
TEXT
  8
_1-0_
 62
    7
 10
296.05551642340583
 20
176.80607151340794
 40
2.5
 41
1
 50
0
  1
下葺き材立上がり寸法
  0
POINT
  8
_1-2_
 62
    7
 10
289.80082743876693
 20
209.47297792176943
  0
POINT
  8
_1-2_
 62
    7
 10
289.80082743876693
 20
149.47290368982263
  0
TEXT
  8
_0-0_
 62
    7
 10
394.41408311998521
 20
16.552749839988905
 40
2.5
 41
1
 50
0
  1
26
  0
LINE
  8
_1-1_
  6
CONTINUOUS
 62
    7
 10
102.2889691904729
 20
94.736489224938566
 11
103.52006891202062
 21
92.000720313937705
  0
LINE
  8
_1-1_
  6
CONTINUOUS
 62
    7
 10
142.00315969934115
 20
109.31810560083593
 11
140.7720476058023
 21
112.0538745118368
  0
LINE
  8
_1-1_
  6
CONTINUOUS
 62
    7
 10
140.7720476058023
 20
112.0538745118368
 11
145.14928281220008
 21
114.02363159191492
  0
LINE
  8
_1-1_
  6
CONTINUOUS
 62
    7
 10
145.14928281220008
 20
114.02363159191492
 11
146.38037016175667
 21
111.28786268091406
  0
LINE
  8
_1-1_
  6
CONTINUOUS
 62
    7
 10
146.38037016175667
 20
111.28786268091406
 11
142.00315969934115
 21
109.31810560083593
  0
LINE
  8
_1-1_
  6
CONTINUOUS
 62
    7
 10
184.86347332106834
 20
128.60524796781229
 11
183.63236122752949
 21
131.34101687881312
  0
LINE
  8
_1-1_
  6
CONTINUOUS
 62
    7
 10
183.63236122752949
 20
131.34101687881312
 11
188.0095964339273
 21
133.31077395889125
  0
LINE
  8
_1-1_
  6
CONTINUOUS
 62
    7
 10
188.0095964339273
 20
133.31077395889125
 11
189.24068378348389
 21
130.57500504789041
  0
LINE
  8
_1-1_
  6
CONTINUOUS
 62
    7
 10
189.24068378348389
 20
130.57500504789041
 11
184.86347332106834
 21
128.60524796781229
  0
LINE
  8
_1-1_
  6
CONTINUOUS
 62
    7
 10
227.72378694279553
 20
147.89241507877091
 11
226.49267484925667
 21
150.62815924578948
  0
LINE
  8
_1-1_
  6
CONTINUOUS
 62
    7
 10
226.49267484925667
 20
150.62815924578948
 11
230.86991005565449
 21
152.59792869785875
  0
LINE
  8
_1-1_
  6
CONTINUOUS
 62
    7
 10
230.86991005565449
 20
152.59792869785875
 11
232.10099740521107
 21
149.86215978685789
  0
LINE
  8
_1-1_
  6
CONTINUOUS
 62
    7
 10
232.10099740521107
 20
149.86215978685789
 11
227.72378694279553
 21
147.89241507877091
  0
LINE
  8
_1-1_
  6
CONTINUOUS
 62
    7
 10
226.49267484925667
 20
150.62815924578948
 11
232.10102214919334
 21
149.86213504287562
  0
LINE
  8
_1-1_
  6
CONTINUOUS
 62
    7
 10
183.63236122752949
 20
131.34101687881312
 11
189.24068378348389
 21
130.57500504789041
  0
LINE
  8
_1-1_
  6
CONTINUOUS
 62
    7
 10
140.7720476058023
 20
112.0538745118368
 11
146.38037016175667
 21
111.28786268091406
  0
LINE
  8
_1-b_
  6
CONTINUOUS
 62
    3
 10
103.15765617579807
 20
92.954006974621819
 11
104.84686598497247
 21
93.575749016957133
  0
LINE
  8
_1-b_
  6
CONTINUOUS
 62
    3
 10
102.46681656299189
 20
94.830899889264998
 11
103.15765617579807
 21
92.954006974621819
  0
LINE
  8
_1-1_
  6
CONTINUOUS
 62
    7
 10
142.00315969934115
 20
109.31810560083593
 11
140.77207234978457
 21
112.0538745118368
  0
LINE
  8
_1-1_
  6
CONTINUOUS
 62
    7
 10
140.77207234978457
 20
112.0538745118368
 11
145.14928281220008
 21
114.02363159191492
  0
LINE
  8
_1-1_
  6
CONTINUOUS
 62
    7
 10
145.14928281220008
 20
114.02363159191492
 11
146.38039490573894
 21
111.28786268091406
  0
LINE
  8
_1-1_
  6
CONTINUOUS
 62
    7
 10
146.38039490573894
 20
111.28786268091406
 11
142.00315969934115
 21
109.31810560083593
  0
LINE
  8
_1-1_
  6
CONTINUOUS
 62
    7
 10
140.77207234978457
 20
112.0538745118368
 11
146.38039490573894
 21
111.28786268091406
  0
LINE
  8
_1-b_
  6
CONTINUOUS
 62
    3
 10
146.01796979752527
 20
112.24114934159817
 11
147.70716723470855
 21
112.86289138393349
  0
LINE
  8
_1-b_
  6
CONTINUOUS
 62
    3
 10
145.32714255671024
 20
114.11804225624135
 11
146.01796979752527
 21
112.24114934159817
  0
LINE
  8
_1-1_
  6
CONTINUOUS
 62
    7
 10
140.77207234978457
 20
112.05388688382791
 11
145.14928281220008
 21
114.02364396390604
  0
LINE
  8
_1-1_
  6
CONTINUOUS
 62
    7
 10
184.86347332106834
 20
128.60524796781229
 11
183.63236122752949
 21
131.34101687881312
  0
LINE
  8
_1-1_
  6
CONTINUOUS
 62
    7
 10
183.63236122752949
 20
131.34101687881312
 11
188.0095964339273
 21
133.31077395889125
  0
LINE
  8
_1-1_
  6
CONTINUOUS
 62
    7
 10
188.0095964339273
 20
133.31077395889125
 11
189.24068378348389
 21
130.57500504789041
  0
LINE
  8
_1-1_
  6
CONTINUOUS
 62
    7
 10
189.24068378348389
 20
130.57500504789041
 11
184.86347332106834
 21
128.60524796781229
  0
LINE
  8
_1-1_
  6
CONTINUOUS
 62
    7
 10
183.63236122752949
 20
131.34101687881312
 11
189.24068378348389
 21
130.57500504789041
  0
LINE
  8
_1-b_
  6
CONTINUOUS
 62
    3
 10
132.49330499600501
 20
112.90578507718729
 11
188.18743143445516
 21
133.40518462321768
  0
LINE
  8
_1-b_
  6
CONTINUOUS
 62
    3
 10
188.87828341925245
 20
131.52829170857453
 11
190.567505600418
 21
132.15003375090984
  0
LINE
  8
_1-b_
  6
CONTINUOUS
 62
    3
 10
188.18743143445516
 20
133.40518462321768
 11
188.87828341925245
 21
131.52829170857453
  0
LINE
  8
_1-b_
  6
CONTINUOUS
 62
    3
 10
133.20959379456917
 20
116.15307396153062
 11
187.40797124917222
 21
136.10193227418898
  0
LINE
  8
_1-b_
  6
CONTINUOUS
 62
    3
 10
132.26073630671021
 20
114.09887804197825
 11
132.67806831156665
 21
112.96503454271726
  0
LINE
  8
_1-1_
  6
CONTINUOUS
 62
    7
 10
183.63236122752949
 20
131.34101687881312
 11
188.0095964339273
 21
133.31077395889125
  0
LINE
  8
_1-1_
  6
CONTINUOUS
 62
    7
 10
188.0095964339273
 20
133.31077395889125
 11
189.24068378348389
 21
130.57500504789041
  0
LINE
  8
_1-1_
  6
CONTINUOUS
 62
    7
 10
227.72378694279553
 20
147.89239033478864
 11
226.49267484925667
 21
150.62815924578948
  0
LINE
  8
_1-1_
  6
CONTINUOUS
 62
    7
 10
226.49267484925667
 20
150.62815924578948
 11
230.86991005565449
 21
152.59792869785875
  0
LINE
  8
_1-1_
  6
CONTINUOUS
 62
    7
 10
230.86991005565449
 20
152.59792869785875
 11
232.10099740521107
 21
149.86213504287562
  0
LINE
  8
_1-1_
  6
CONTINUOUS
 62
    7
 10
232.10099740521107
 20
149.86213504287562
 11
227.72378694279553
 21
147.89239033478864
  0
LINE
  8
_1-1_
  6
CONTINUOUS
 62
    7
 10
183.63236122752949
 20
131.34101687881312
 11
189.24068378348389
 21
130.57500504789041
  0
LINE
  8
_1-1_
  6
CONTINUOUS
 62
    7
 10
183.63238597151175
 20
131.34101687881312
 11
188.0095964339273
 21
133.31077395889125
  0
LINE
  8
_1-1_
  6
CONTINUOUS
 62
    7
 10
188.0095964339273
 20
133.31077395889125
 11
189.24070852746615
 21
130.57500504789041
  0
LINE
  8
_1-1_
  6
CONTINUOUS
 62
    7
 10
183.63238597151175
 20
131.34101687881312
 11
189.24070852746615
 21
130.57500504789041
  0
LINE
  8
_1-b_
  6
CONTINUOUS
 62
    3
 10
188.87828341925245
 20
131.52829170857453
 11
190.56748085643574
 21
132.15003375090984
  0
LINE
  8
_1-b_
  6
CONTINUOUS
 62
    3
 10
188.18745617843743
 20
133.40518462321768
 11
188.87828341925245
 21
131.52829170857453
  0
LINE
  8
ADD_LINE
  6
DOT
 62
    3
 10
188.0095964339273
 20
133.31078633088239
 11
188.0095964339273
 21
133.76957687802133
  0
LINE
  8
ADD_LINE
  6
DOT
 62
    3
 10
188.0095964339273
 20
133.31078633088239
 11
188.0095964339273
 21
132.9277494854432
  0
LINE
  8
_1-1_
  6
CONTINUOUS
 62
    7
 10
183.63238597151175
 20
131.34102925080427
 11
188.0095964339273
 21
133.31078633088239
  0
LINE
  8
_1-1_
  6
CONTINUOUS
 62
    7
 10
227.72378694279553
 20
147.89239033478864
 11
226.49267484925667
 21
150.62815924578948
  0
LINE
  8
_1-1_
  6
CONTINUOUS
 62
    7
 10
226.49267484925667
 20
150.62815924578948
 11
230.86991005565449
 21
152.59792869785875
  0
LINE
  8
_1-1_
  6
CONTINUOUS
 62
    7
 10
230.86991005565449
 20
152.59792869785875
 11
232.10099740521107
 21
149.86213504287562
  0
LINE
  8
_1-1_
  6
CONTINUOUS
 62
    7
 10
232.10099740521107
 20
149.86213504287562
 11
227.72378694279553
 21
147.89239033478864
  0
LINE
  8
_1-1_
  6
CONTINUOUS
 62
    7
 10
226.49267484925667
 20
150.62815924578948
 11
232.10099740521107
 21
149.86213504287562
  0
LINE
  8
_1-b_
  6
CONTINUOUS
 62
    3
 10
175.3536186177322
 20
132.19292744416364
 11
231.04774505618235
 21
152.69232699019403
  0
LINE
  8
_1-b_
  6
CONTINUOUS
 62
    3
 10
231.73859704097967
 20
150.81542170355976
 11
233.42781922214519
 21
151.43718848987731
  0
LINE
  8
_1-b_
  6
CONTINUOUS
 62
    3
 10
231.04774505618235
 20
152.69232699019403
 11
231.73859704097967
 21
150.81542170355976
  0
LINE
  8
_1-b_
  6
CONTINUOUS
 62
    3
 10
176.06990741629639
 20
135.44021632850695
 11
230.26828487089944
 21
155.38907464116534
  0
LINE
  8
_1-b_
  6
CONTINUOUS
 62
    3
 10
175.12104992843743
 20
133.38602040895461
 11
175.53838193329383
 21
132.25217690969362
  0
LINE
  8
_1-1_
  6
CONTINUOUS
 62
    7
 10
230.86320443646107
 20
152.61277508721685
 11
232.09429178601766
 21
149.87703092019825
  0
LINE
  8
_1-1_
  6
CONTINUOUS
 62
    7
 10
226.48596923006326
 20
150.64303037912984
 11
232.09429178601766
 21
149.87703092019825
  0
LINE
  8
_1-1_
  6
CONTINUOUS
 62
    7
 10
227.71708132360212
 20
147.90726146812901
 11
226.48596923006326
 21
150.64303037912984
  0
LINE
  8
_1-1_
  6
CONTINUOUS
 62
    7
 10
226.48596923006326
 20
150.64303037912984
 11
230.86320443646107
 21
152.61277508721685
  0
LINE
  8
_1-1_
  6
CONTINUOUS
 62
    7
 10
230.86320443646107
 20
152.61277508721685
 11
232.09429178601766
 21
149.87703092019825
  0
LINE
  8
_1-1_
  6
CONTINUOUS
 62
    7
 10
226.48596923006326
 20
150.64303037912984
 11
232.09429178601766
 21
149.87703092019825
  0
LINE
  8
_1-b_
  6
CONTINUOUS
 62
    3
 10
231.73189142178626
 20
150.83031758088239
 11
233.42111360295178
 21
151.45203487923541
  0
LINE
  8
_1-b_
  6
CONTINUOUS
 62
    3
 10
231.04103943698894
 20
152.70719812353443
 11
231.73189142178626
 21
150.83031758088239
  0
LINE
  8
_1-1_
  6
CONTINUOUS
 62
    7
 10
226.48596923006326
 20
150.64303037912984
 11
230.86320443646107
 21
152.61277508721685
  0
LINE
  8
_1-1_
  6
CONTINUOUS
 62
    7
 10
230.86320443646107
 20
152.61277508721685
 11
232.09429178601766
 21
149.87703092019825
  0
LINE
  8
_1-1_
  6
CONTINUOUS
 62
    7
 10
226.48596923006326
 20
150.64303037912984
 11
232.09429178601766
 21
149.87703092019825
  0
LINE
  8
_1-1_
  6
CONTINUOUS
 62
    7
 10
226.48599397404553
 20
150.64303037912984
 11
230.86320443646107
 21
152.61277508721685
  0
LINE
  8
_1-1_
  6
CONTINUOUS
 62
    7
 10
230.86320443646107
 20
152.61277508721685
 11
232.09431652999993
 21
149.87703092019825
  0
LINE
  8
_1-b_
  6
CONTINUOUS
 62
    3
 10
231.73189142178626
 20
150.83031758088239
 11
233.42108885896951
 21
151.45203487923541
  0
LINE
  8
_1-b_
  6
CONTINUOUS
 62
    3
 10
231.0410641809712
 20
152.70719812353443
 11
231.73189142178626
 21
150.83031758088239
  0
LINE
  8
_1-b_
  6
CONTINUOUS
 62
    3
 10
230.09044987037154
 20
155.8688357132726
 11
230.26157925170602
 21
155.4039457745057
  0
LINE
  8
_1-b_
  6
CONTINUOUS
 62
    3
 10
230.09153860559115
 20
155.8692316169888
 11
230.26828487089944
 21
155.38907464116534
  0
LINE
  8
_1-b_
  6
CONTINUOUS
 62
    3
 10
230.09047461435381
 20
155.86881096929034
 11
230.26157925170602
 21
155.4039457745057
  0
LINE
  8
_1-b_
  6
CONTINUOUS
 62
    3
 10
231.59196420208607
 20
156.42149255712818
 11
233.42108885896951
 21
151.45203487923541
  0
LINE
  8
_1-b_
  6
CONTINUOUS
 62
    3
 10
231.59198894606834
 20
156.42149255712818
 11
233.42111360295178
 21
151.45203487923541
  0
LINE
  8
_1-b_
  6
CONTINUOUS
 62
    3
 10
187.23686661182003
 20
136.56679746897359
 11
187.40797124917222
 21
136.10193227418898
  0
LINE
  8
_1-b_
  6
CONTINUOUS
 62
    3
 10
188.7383561995523
 20
137.11947905681143
 11
190.56748085643574
 21
132.15003375090984
  0
LINE
  8
_1-b_
  6
CONTINUOUS
 62
    3
 10
187.23686661182003
 20
136.56679746897359
 11
187.40797124917222
 21
136.10193227418898
  0
LINE
  8
_1-b_
  6
CONTINUOUS
 62
    3
 10
188.73838094353457
 20
137.11947905681143
 11
190.567505600418
 21
132.15003375090984
  0
LINE
  8
_1-b_
  6
CONTINUOUS
 62
    3
 10
144.37655299009282
 20
117.27966747398838
 11
144.54765762744503
 21
116.81478990721263
  0
LINE
  8
_1-b_
  6
CONTINUOUS
 62
    3
 10
145.87804257782508
 20
117.83232431784396
 11
147.70716723470855
 21
112.86289138393349
  0
LINE
  8
_1-b_
  6
CONTINUOUS
 62
    3
 10
103.01775370008016
 20
98.545181950867601
 11
104.84686598497247
 21
93.575749016957133
  0
LINE
  8
_1-c_
  6
CONTINUOUS
 62
    7
 10
129.77374339338675
 20
120.85572965066703
 11
132.26073630671021
 21
114.09889041396937
  0
LINE
  8
_1-c_
  6
CONTINUOUS
 62
    7
 10
172.63405701511394
 20
140.14284727366109
 11
175.12104992843743
 21
133.38602040895461
  0
LINE
  8
_1-c_
  6
CONTINUOUS
 62
    7
 10
173.58288975899063
 20
142.19704319321346
 11
216.07889772985212
 21
157.83860516534185
  0
LINE
  8
_1-c_
  6
CONTINUOUS
 62
    7
 10
130.72258850925456
 20
122.90991319822825
 11
173.21964809936225
 21
138.55185870208172
  0
LINE
  8
_1-b_
  6
CONTINUOUS
 62
    3
 10
100.92216109820093
 20
97.773862535749373
 11
145.32714255671024
 21
114.11804225624135
  0
LINE
  8
_1-b_
  6
CONTINUOUS
 62
    3
 10
99.770303979852116
 20
100.33354089697193
 11
144.54765762744503
 21
116.81478990721263
  0
LINE
  8
_1-c_
  6
CONTINUOUS
 62
    7
 10
96.80839981494502
 20
106.91557627096896
 11
130.35934684962621
 21
119.26471633510536
  0
LINE
  8
_1-b_
  6
CONTINUOUS
 62
    3
 10
230.09044987037154
 20
155.8688357132726
 11
231.59196420208607
 21
156.42150492911929
  0
ARC
  8
_1-b_
  6
CONTINUOUS
 62
    3
 10
133.76225063842475
 20
114.65154725782494
 40
1.5999999239638045
 50
110.20680236816406
 51
200.20738220214844
  0
ARC
  8
_1-b_
  6
CONTINUOUS
 62
    3
 10
176.62256426015196
 20
133.9386896248013
 40
1.5999999239638045
 50
110.20680236816406
 51
200.20738220214844
  0
ARC
  8
_1-c_
  6
CONTINUOUS
 62
    7
 10
131.27525772510126
 20
121.4083864945226
 40
1.5999999239638045
 50
110.20722961425781
 51
200.20695495605469
  0
ARC
  8
_1-c_
  6
CONTINUOUS
 62
    7
 10
174.13557134682847
 20
140.69550411751666
 40
1.5999999239638045
 50
110.20748901367187
 51
200.20695495605469
  0
LINE
  8
_1-0_
  6
CONTINUOUS
 62
    7
 10
97.172958786423152
 20
89.144513929212422
 11
233.09967082450353
 21
150.31154347014166
  0
LINE
  8
_1-0_
  6
CONTINUOUS
 62
    7
 10
233.09967082450353
 20
150.31154347014166
 11
233.34588164536086
 21
149.76440855413216
  0
LINE
  8
_1-0_
  6
CONTINUOUS
 62
    7
 10
97.419161409945104
 20
88.597368807406042
 11
233.34588164536086
 21
149.76440855413216
  0
LINE
  8
_1-2_
  6
CONTINUOUS
 62
    7
 10
148.153078202995
 20
98.533277870216295
 11
116.90385646438138
 21
184.38980514938768
  0
TEXT
  8
_1-0_
 62
    7
 10
60.536884051418838
 20
175.03015910808665
 40
2.5
 41
1
 50
0
  1
※　地域により瓦桟木の大きさは、異なります
  0
TEXT
  8
_1-5_
 62
    7
 10
46.705431111740381
 20
183.65780392208615
 40
2.5
 41
1
 50
0
  1
桟瓦
  0
TEXT
  8
_1-5_
 62
    7
 10
46.389903066910904
 20
178.26098055452914
 40
2.5
 41
1
 50
0
  1
瓦桟　
  0
TEXT
  8
_1-0_
 62
    7
 10
46.956534074749754
 20
157.66983032226562
 40
2.5
 41
1
 50
0
  1
木煉瓦
  0
TEXT
  8
_1-0_
 62
    7
 10
56.69634182225559
 20
157.66983032226562
 40
2.5
 41
1
 50
0
  1
防腐処理
  0
LINE
  8
_1-2_
  6
CONTINUOUS
 62
    7
 10
78.465643218825733
 20
184.38980514938768
 11
67.314844937462908
 21
184.38980514938768
  0
LINE
  8
_1-2_
  6
CONTINUOUS
 62
    7
 10
95.575624446391188
 20
159.41668123812289
 11
77.75376952515785
 21
159.41668123812289
  0
LINE
  8
_1-2_
  6
CONTINUOUS
 62
    7
 10
78.465643218825733
 20
184.38980514938768
 11
116.90385646438138
 21
184.38980514938768
  0
LINE
  8
_1-2_
  6
CONTINUOUS
 62
    7
 10
112.57135033585487
 20
179.08588306323904
 11
118.8343263145706
 21
179.08588306323904
  0
LINE
  8
_1-2_
  6
CONTINUOUS
 62
    7
 10
79.725681027630628
 20
172.59313634923987
 11
121.19749296232804
 21
172.59313634923987
  0
LINE
  8
_1-2_
  6
CONTINUOUS
 62
    7
 10
123.90818597130023
 20
165.14556884765625
 11
91.324371489161265
 21
165.14556884765625
  0
LINE
  8
_1-2_
  6
CONTINUOUS
 62
    7
 10
95.575624446391188
 20
159.41668123812289
 11
125.99333062947854
 21
159.41668123812289
  0
LINE
  8
_1-2_
  6
CONTINUOUS
 62
    7
 10
123.90818597130023
 20
165.14556884765625
 11
116.54347600163641
 21
165.14556884765625
  0
TEXT
  8
_1-0_
 62
    7
 10
60.396246599163817
 20
177.87037205051732
 40
2.5
 41
1
 50
0
  1
15×21　（樹脂桟木）
  0
TEXT
  8
_1-5_
 62
    7
 10
46.391461937793451
 20
171.26098220412797
 40
2.5
 41
1
 50
0
  1
縦桟
  0
TEXT
  8
_1-5_
 62
    7
 10
46.391462968792723
 20
164.26098385372677
 40
2.5
 41
1
 50
0
  1
ルーフィング
  0
LINE
  8
_1-2_
  6
CONTINUOUS
 62
    7
 10
91.324371489161265
 20
165.14556884765625
 11
66.165514491931077
 21
165.14556884765625
  0
TEXT
  8
_1-0_
 62
    7
 10
183.11434068219634
 20
170.55542845257904
 40
2.5
 41
1
 50
0
  1
葺き土
  0
LINE
  8
ADD_LINE
  6
DOT
 62
    4
 10
230.02664102090372
 20
174.29909783440669
 11
234.52294426995357
 21
175.15884391813918
  0
LINE
  8
ADD_LINE
  6
DOT
 62
    4
 10
220.85994332298179
 20
169.71574898544571
 11
220.85414544754789
 21
169.54181272242823
  0
LINE
  8
_1-b_
  6
CONTINUOUS
 62
    7
 10
216.07889772985212
 20
157.83860516534185
 11
229.28278764780077
 21
162.69857779631778
  0
LINE
  8
_1-b_
  6
CONTINUOUS
 62
    3
 10
229.28278764780077
 20
162.69857779631778
 11
233.42781922214519
 21
151.43718848987731
  0
ARC
  8
_1-4_
  6
CONTINUOUS
 62
    1
 10
142.33282622879389
 20
151.13167876057929
 40
76.058903298173405
 50
359.91408308136664
 51
9.1152488917336587
  0
SOLID
  8
ADD_LINE
  6
DOT
 62
    8
 10
218.40082165232579
 20
157.13795193950679
 11
218.39164401397517
 21
151.01762595926408
 12
230.26828487089944
 22
155.38907464116534
 13
230.26828487089944
 23
155.38907464116534
  0
SOLID
  8
ADD_LINE
  6
DOT
 62
    8
 10
218.40082165232579
 20
157.13795193950679
 11
230.26828487089944
 21
155.38907464116534
 12
230.09044987037154
 22
155.8688357132726
 13
230.09044987037154
 23
155.8688357132726
  0
SOLID
  8
ADD_LINE
  6
DOT
 62
    8
 10
218.40082165232579
 20
157.13795193950679
 11
230.09044987037154
 21
155.8688357132726
 12
231.59198894606834
 22
156.42149255712818
 13
231.59198894606834
 23
156.42149255712818
  0
SOLID
  8
ADD_LINE
  6
DOT
 62
    8
 10
230.02664102090372
 20
174.29909783440669
 11
220.85994332298179
 21
169.71574898544571
 12
220.85414544754789
 22
169.54181272242823
 13
220.85414544754789
 23
169.54181272242823
  0
SOLID
  8
ADD_LINE
  6
DOT
 62
    8
 10
230.02664102090372
 20
174.29909783440669
 11
220.85414544754789
 21
169.54181272242823
 12
221.35437510035965
 22
169.77434413249134
 13
221.35437510035965
 23
169.77434413249134
  0
SOLID
  8
ADD_LINE
  6
DOT
 62
    8
 10
230.02664102090372
 20
174.29909783440669
 11
221.35437510035965
 21
169.77434413249134
 12
222.0004748481455
 22
170.06802583603036
 13
222.0004748481455
 23
170.06802583603036
  0
SOLID
  8
ADD_LINE
  6
DOT
 62
    8
 10
230.02664102090372
 20
174.29909783440669
 11
222.0004748481455
 21
170.06802583603036
 12
222.55847008486964
 22
170.31765528403852
 13
222.55847008486964
 23
170.31765528403852
  0
SOLID
  8
ADD_LINE
  6
DOT
 62
    8
 10
230.02664102090372
 20
174.29909783440669
 11
222.55847008486964
 21
170.31765528403852
 12
223.18254370489007
 22
170.58196881722364
 13
223.18254370489007
 23
170.58196881722364
  0
SOLID
  8
ADD_LINE
  6
DOT
 62
    8
 10
230.02664102090372
 20
174.29909783440669
 11
223.18254370489007
 21
170.58196881722364
 12
223.85801162302985
 22
170.87565052076269
 13
223.85801162302985
 23
170.87565052076269
  0
SOLID
  8
ADD_LINE
  6
DOT
 62
    8
 10
230.02664102090372
 20
174.29909783440669
 11
223.85801162302985
 21
170.87565052076269
 12
224.4453750301079
 22
171.10325384100543
 13
224.4453750301079
 23
171.10325384100543
  0
SOLID
  8
ADD_LINE
  6
DOT
 62
    8
 10
230.02664102090372
 20
174.29909783440669
 11
224.4453750301079
 21
171.10325384100543
 12
225.1061588630707
 22
171.35288328901359
 13
225.1061588630707
 23
171.35288328901359
  0
SOLID
  8
ADD_LINE
  6
DOT
 62
    8
 10
230.02664102090372
 20
174.29909783440669
 11
225.1061588630707
 21
171.35288328901359
 12
225.84458634660052
 22
171.63809286581505
 13
225.84458634660052
 23
171.63809286581505
  0
SOLID
  8
ADD_LINE
  6
DOT
 62
    8
 10
225.64813851913476
 20
167.70783069883527
 11
224.27595261191138
 21
167.10319840528541
 12
223.48175351552874
 22
166.74475456532514
 13
223.48175351552874
 23
166.74475456532514
  0
SOLID
  8
ADD_LINE
  6
DOT
 62
    8
 10
225.64813851913476
 20
167.70783069883527
 11
223.48175351552874
 21
166.74475456532514
 12
222.77189414619562
 22
166.38631072536484
 13
222.77189414619562
 23
166.38631072536484
  0
SOLID
  8
ADD_LINE
  6
DOT
 62
    8
 10
225.64813851913476
 20
167.70783069883527
 11
222.77189414619562
 21
166.38631072536484
 12
222.13934619332449
 22
166.07003674892928
 13
222.13934619332449
 23
166.07003674892928
  0
SOLID
  8
ADD_LINE
  6
DOT
 62
    8
 10
225.64813851913476
 20
167.70783069883527
 11
222.13934619332449
 21
166.07003674892928
 12
220.50217074622483
 22
165.18220045769752
 13
220.50217074622483
 23
165.18220045769752
  0
SOLID
  8
ADD_LINE
  6
DOT
 62
    8
 10
225.64813851913476
 20
167.70783069883527
 11
220.50217074622483
 21
165.18220045769752
 12
219.21166528372407
 22
164.36096970883341
 13
219.21166528372407
 23
164.36096970883341
  0
SOLID
  8
ADD_LINE
  6
DOT
 62
    8
 10
225.64813851913476
 20
167.70783069883527
 11
219.21166528372407
 21
164.36096970883341
 12
217.43123328579759
 22
163.18099527320649
 13
217.43123328579759
 23
163.18099527320649
  0
SOLID
  8
ADD_LINE
  6
DOT
 62
    8
 10
225.64813851913476
 20
167.70783069883527
 11
217.43123328579759
 21
163.18099527320649
 12
218.40082165232579
 22
157.13795193950679
 13
218.40082165232579
 23
157.13795193950679
  0
LINE
  8
_1-0_
  6
CONTINUOUS
 62
    7
 10
107.67830101219384
 20
65.799321355046459
 11
236.68007515572214
 21
123.85015540720735
  0
LINE
  8
_1-0_
  6
CONTINUOUS
 62
    7
 10
236.68007515572214
 20
123.85015540720735
 11
236.68007515572214
 21
104.5945945945946
  0
LINE
  8
_1-3_
  6
DASHED1
 62
    7
 10
227.31900080154676
 20
166.09049021562606
 11
230.81768734877738
 21
166.09049021562606
  0
LINE
  8
_1-3_
  6
DASHED1
 62
    7
 10
227.31900080154676
 20
166.49049021562604
 11
230.81768734877738
 21
166.49049021562604
  0
LINE
  8
_1-3_
  6
DASHED1
 62
    7
 10
230.81768734877738
 20
166.49049021562604
 11
231.19337108804885
 21
166.29049021562605
  0
LINE
  8
_1-3_
  6
DASHED1
 62
    7
 10
230.81768734877738
 20
166.09049021562606
 11
231.19337108804885
 21
166.29049021562605
  0
LINE
  8
ADD_LINE
  6
DOT
 62
    4
 10
226.7568517790842
 20
166.29049021562605
 11
231.19337108804885
 21
166.29049021562605
  0
LINE
  8
_1-3_
  6
CONTINUOUS
 62
    7
 10
227.09923797393802
 20
165.69049021562606
 11
227.09923797393802
 21
166.89049021562604
  0
LINE
  8
_1-3_
  6
CONTINUOUS
 62
    7
 10
227.09923797393802
 20
166.89049021562604
 11
226.79923797393803
 21
166.89049021562604
  0
LINE
  8
_1-3_
  6
CONTINUOUS
 62
    7
 10
226.79923797393803
 20
166.89049021562604
 11
226.79923797393803
 21
165.69049021562606
  0
LINE
  8
_1-3_
  6
CONTINUOUS
 62
    7
 10
226.79923797393803
 20
165.69049021562606
 11
227.09923797393802
 21
165.69049021562606
  0
LINE
  8
_1-3_
  6
CONTINUOUS
 62
    7
 10
227.09923797393802
 20
166.09049021562606
 11
227.31900080154676
 21
166.09049021562606
  0
LINE
  8
_1-3_
  6
CONTINUOUS
 62
    7
 10
227.09923797393802
 20
166.49049021562604
 11
227.31900080154676
 21
166.49049021562604
  0
LINE
  8
_1-3_
  6
CONTINUOUS
 62
    7
 10
224.12523590952179
 20
171.05474478994046
 11
225.880413466551
 21
171.73416836040337
  0
LINE
  8
_1-3_
  6
CONTINUOUS
 62
    7
 10
225.880413466551
 20
171.73416836040337
 11
227.18264197660494
 21
168.29930475417416
  0
LINE
  8
_1-3_
  6
CONTINUOUS
 62
    7
 10
227.18264197660494
 20
168.29930475417416
 11
225.54070168131955
 21
167.63875406066853
  0
LINE
  8
_1-3_
  6
DASHED1
 62
    7
 10
224.12523590952179
 20
171.05474478994046
 11
225.54070168131955
 21
167.63875406066853
  0
LINE
  8
_1-3_
  6
CONTINUOUS
 62
    7
 10
225.54070168131955
 20
167.63875406066853
 11
227.12602334573302
 21
166.8838389823764
  0
LINE
  8
_1-3_
  6
CONTINUOUS
 62
    7
 10
227.12602334573302
 20
166.8838389823764
 11
227.14489622269033
 21
165.82695787276742
  0
LINE
  8
_1-3_
  6
CONTINUOUS
 62
    7
 10
227.2028286189684
 20
163.38955906821963
 11
234.40282861896839
 21
163.38955906821963
  0
LINE
  8
_1-3_
  6
CONTINUOUS
 62
    7
 10
234.40282861896839
 20
163.38955906821963
 11
234.40282861896839
 21
172.38955906821963
  0
LINE
  8
_1-3_
  6
CONTINUOUS
 62
    7
 10
234.40282861896839
 20
172.38955906821963
 11
227.2028286189684
 21
172.38955906821963
  0
LINE
  8
_1-3_
  6
CONTINUOUS
 62
    7
 10
227.2028286189684
 20
172.38955906821963
 11
227.2028286189684
 21
163.38955906821963
  0
LINE
  8
_1-3_
  6
CONTINUOUS
 62
    7
 10
227.2028286189684
 20
172.38955906821963
 11
234.40282861896839
 21
163.38955906821963
  0
LINE
  8
ADD_LINE
  6
DOT
 62
    7
 10
233.42111360295178
 20
151.45203487923541
 11
234.52294426995357
 21
150.07477631440034
  0
LINE
  8
ADD_LINE
  6
DOT
 62
    7
 10
227.2028286189684
 20
172.38955906821963
 11
227.2028286189684
 21
172.64009886867319
  0
LINE
  8
ADD_LINE
  6
DOT
 62
    7
 10
227.09923797393802
 20
165.69049021562606
 11
227.60237807342725
 21
165.69049021562606
  0
LINE
  8
ADD_LINE
  6
DOT
 62
    7
 10
227.12602334573302
 20
166.8838389823764
 11
227.55716562592573
 21
166.8838389823764
  0
SOLID
  8
ADD_LINE
  6
DOT
 62
    8
 10
218.40082165232579
 20
157.13795193950679
 11
231.59193809326212
 21
156.4214953191256
 12
227.2028286189684
 22
163.38955906821963
 13
227.2028286189684
 23
163.38955906821963
  0
SOLID
  8
ADD_LINE
  6
DOT
 62
    8
 10
218.40082165232579
 20
157.13795193950679
 11
227.2028286189684
 21
163.38955906821963
 12
226.79923797393803
 22
165.69049021562606
 13
226.79923797393803
 23
165.69049021562606
  0
SOLID
  8
ADD_LINE
  6
DOT
 62
    8
 10
218.40082165232579
 20
157.13795193950679
 11
226.79923797393803
 21
165.69049021562606
 12
226.79923797393803
 22
166.89049021562604
 13
226.79923797393803
 23
166.89049021562604
  0
SOLID
  8
ADD_LINE
  6
DOT
 62
    8
 10
226.79923797393803
 20
166.89049021562604
 11
225.5350326307466
 21
167.65243536938459
 12
225.58598909869019
 22
167.61718862382537
 13
225.58598909869019
 23
167.61718862382537
  0
SOLID
  8
ADD_LINE
  6
DOT
 62
    8
 10
226.79923797393803
 20
166.89049021562604
 11
225.58598909869019
 21
167.61718862382537
 12
218.40082165232579
 22
157.13795193950679
 13
218.40082165232579
 23
157.13795193950679
  0
SOLID
  8
ADD_LINE
  6
DOT
 62
    8
 10
226.79923797393803
 20
165.69049021562606
 11
227.2028286189684
 21
163.38955906821963
 12
226.79923797393803
 22
165.69049021562606
 13
227.2028286189684
 23
165.69049021562606
  0
SOLID
  8
ADD_LINE
  6
DOT
 62
    8
 10
225.54070168131955
 20
167.63875406066853
 11
226.79923797393803
 21
166.89049021562604
 12
227.19932876121752
 22
168.30553861522381
 13
227.2028286189684
 23
166.8838389823764
  0
SOLID
  8
ADD_LINE
  6
DOT
 62
    8
 10
227.2028286189684
 20
163.38955906821963
 11
231.59193809326212
 21
156.4214953191256
 12
227.2028286189684
 22
163.38955906821963
 13
234.43427620632281
 23
163.30852225457571
  0
SOLID
  8
ADD_LINE
  6
DOT
 62
    8
 10
231.59193809326212
 20
156.4214953191256
 11
233.42781922214519
 21
151.43718848987731
 12
231.5926169490798
 22
156.42314019672833
 13
234.43427620632281
 23
163.30852225457571
  0
SOLID
  8
ADD_LINE
  6
DOT
 62
    8
 10
233.42781922214519
 20
151.43718848987731
 11
234.52294426995357
 21
150.07477631440034
 12
234.43427620632281
 22
163.30852225457571
 13
234.43427620632281
 23
163.30852225457571
  0
SOLID
  8
ADD_LINE
  6
DOT
 62
    8
 10
227.2028286189684
 20
172.50233059506576
 11
225.84458634660052
 21
171.63809286581505
 12
227.19932876121752
 22
168.30553861522381
 13
227.0877054271067
 23
168.260664926608
  0
SOLID
  8
ADD_LINE
  6
DOT
 62
    8
 10
234.52294426995357
 20
175.15884391813918
 11
230.02664102090372
 21
174.29909783440669
 12
234.40282861896839
 22
172.38955906821963
 13
227.2028286189684
 23
172.38955906821963
  0
SOLID
  8
ADD_LINE
  6
DOT
 62
    8
 10
230.02664102090372
 20
174.29909783440669
 11
227.2028286189684
 21
172.50233059506576
 12
227.2028286189684
 22
172.38955906821963
 13
227.2028286189684
 23
172.38955906821963
  0
ENDSEC
  0
EOF
