  0
SECTION
  2
HEADER
  9
$ACADVER
  1
AC1009
  9
$INSBASE
 10
0
 20
0
 30
0
  9
$EXTMIN
 10
0
 20
0
  9
$EXTMAX
 10
420
 20
297
  9
$LIMMIN
 10
0
 20
0
  9
$LIMMAX
 10
420
 20
297
  9
$LTSCALE
 40
1
  0
ENDSEC
  0
SECTION
  2
TABLES
  0
TABLE
  2
LTYPE
 70
     9
  0
LTYPE
  2
CONTINUOUS
 70
    64
  3
実線
 72
    65
 73
     0
 40
0.0
  0
LTYPE
  2
DASHED1
 70
    64
  3
--  --  --  --  --  --  --  --  
 72
    65
 73
     2
 40
2.5
 49
1.25
 49
-1.25
  0
LTYPE
  2
DASHED2
 70
    64
  3
----    ----    ----    ----    
 72
    65
 73
     2
 40
5.0
 49
2.5
 49
-2.5
  0
LTYPE
  2
DASHED3
 70
    64
  3
------  ------  ------  ------  
 72
    65
 73
     2
 40
5.0
 49
3.75
 49
-1.25
  0
LTYPE
  2
CENTER1
 70
    64
  3
----- - ----- - ----- - ----- - 
 72
    65
 73
     4
 40
10.0
 49
6.25
 49
-1.25
 49
1.25
 49
-1.25
  0
LTYPE
  2
CENTER2
 70
    64
  3
----------  --  ----------  --  
 72
    65
 73
     4
 40
20.0
 49
12.5
 49
-2.5
 49
2.5
 49
-2.5
  0
LTYPE
  2
PHANTOM1
 70
    64
  3
--- - - --- - - --- - - --- - - 
 72
    65
 73
     6
 40
10.0
 49
3.25
 49
-1.25
 49
1.25
 49
-1.25
 49
1.25
 49
-1.25
  0
LTYPE
  2
PHANTOM2
 70
    64
  3
--------  -  -  --------  -  -  
 72
    65
 73
     6
 40
20.0
 49
10.0
 49
-2.5
 49
1.25
 49
-2.5
 49
1.25
 49
-2.5
  0
LTYPE
  2
DOT
 70
    64
  3
-   -   -   -   -   -   -   -   
 72
    65
 73
     2
 40
2.5
 49
0.625
 49
-1.875
  0
LTYPE
  2
DUMMY
 70
    64
  3
ダミー
 72
    65
 73
     0
 40
0.0
  0
LTYPE
  2
RAND1
 70
    64
  3
ランダム線1
 72
    65
 73
     4
 40
10.0
 49
1.0
 49
-2.0
 49
3.0
 49
-4.0
  0
LTYPE
  2
RAND2
 70
    64
  3
ランダム線2
 72
    65
 73
     4
 40
14.0
 49
2.0
 49
-3.0
 49
4.0
 49
-5.0
  0
LTYPE
  2
RAND3
 70
    64
  3
ランダム線3
 72
    65
 73
     4
 40
18.0
 49
3.0
 49
-4.0
 49
5.0
 49
-6.0
  0
LTYPE
  2
RAND4
 70
    64
  3
ランダム線4
 72
    65
 73
     4
 40
22.0
 49
4.0
 49
-5.0
 49
6.0
 49
-7.0
  0
LTYPE
  2
RAND5
 70
    64
  3
ランダム線5
 72
    65
 73
     4
 40
26.0
 49
5.0
 49
-6.0
 49
7.0
 49
-8.0
  0
LTYPE
  2
LONG1
 70
    64
  3
----------  --  ----------  --  
 72
    65
 73
     4
 40
40.0
 49
32.5
 49
-2.5
 49
2.5
 49
-2.5
  0
LTYPE
  2
LONG2
 70
    64
  3
--------  -  -  --------  -  -  
 72
    65
 73
     6
 40
40.0
 49
30.0
 49
-2.5
 49
1.25
 49
-2.5
 49
1.25
 49
-2.5
  0
LTYPE
  2
LONG3
 70
    64
  3
+++++++++++++++..+++++++++++++++
 72
    65
 73
     2
 40
40.0
 49
37.5
 49
-2.5
  0
LTYPE
  2
LONG4
 70
    64
  3
+++++++++++++++..+++++++++++++++
 72
    65
 73
     2
 40
80.0
 49
75.0
 49
-5.0
  0
LTYPE
  2
LONG5
 70
    64
  3
----------  --  ----------  --  
 72
    65
 73
     4
 40
60.0
 49
37.5
 49
-7.5
 49
7.5
 49
-7.5
  0
LTYPE
  2
dashed
 70
   64
  3
-------   -------------   ------
 72
   65
 73
    2
 40
7.5
 49
6
 49
-1.5
  0
LTYPE
  2
dashed_spaced
 70
   64
  3
----        --------        ----
 72
   65
 73
    2
 40
12
 49
6
 49
-6
  0
LTYPE
  2
long_dashed_dotted
 70
   64
  3
------------- --- --------------
 72
   65
 73
    4
 40
15.25
 49
12
 49
-1.5
 49
0.25
 49
-1.5
  0
LTYPE
  2
long_dashed_double-dotted
 70
   64
  3
----------- --- --- ------------
 72
   65
 73
    6
 40
17
 49
12
 49
-1.5
 49
0.25
 49
-1.5
 49
0.25
 49
-1.5
  0
LTYPE
  2
long_dashed_triplicate-dotted
 70
   64
  3
--------- --- --- --- ----------
 72
   65
 73
    8
 40
18.75
 49
12
 49
-1.5
 49
0.25
 49
-1.5
 49
0.25
 49
-1.5
 49
0.25
 49
-1.5
  0
LTYPE
  2
dotted
 70
   64
  3
   -       -       -       -    
 72
   65
 73
    2
 40
1.75
 49
0.25
 49
-1.5
  0
LTYPE
  2
chain
 70
   64
  3
-------------- -- --------------
 72
   65
 73
    4
 40
18.5
 49
12
 49
-1.5
 49
3.5
 49
-1.5
  0
LTYPE
  2
chain_double_dash
 70
   64
  3
------------ -- -- -------------
 72
   65
 73
    6
 40
23.5
 49
12
 49
-1.5
 49
3.5
 49
-1.5
 49
3.5
 49
-1.5
  0
LTYPE
  2
dashed_dotted
 70
   64
  3
-----------     -     ----------
 72
   65
 73
    4
 40
9.25
 49
6
 49
-1.5
 49
0.25
 49
-1.5
  0
LTYPE
  2
double-dashed_dotted
 70
   64
  3
------   -----------   -   -----
 72
   65
 73
    6
 40
16.75
 49
6
 49
-1.5
 49
6
 49
-1.5
 49
0.25
 49
-1.5
  0
LTYPE
  2
dashed_double-dotted
 70
   64
  3
---------    -    -    ---------
 72
   65
 73
    6
 40
11
 49
6
 49
-1.5
 49
0.25
 49
-1.5
 49
0.25
 49
-1.5
  0
LTYPE
  2
double-dashed_double-dotted
 70
   64
  3
-----   ---------   -   -   ----
 72
   65
 73
    8
 40
18.5
 49
6
 49
-1.5
 49
6
 49
-1.5
 49
0.25
 49
-1.5
 49
0.25
 49
-1.5
  0
LTYPE
  2
dashed_triplicate-dotted
 70
   64
  3
-------    -    -    -    ------
 72
   65
 73
    8
 40
12.75
 49
6
 49
-1.5
 49
0.25
 49
-1.5
 49
0.25
 49
-1.5
 49
0.25
 49
-1.5
  0
LTYPE
  2
double-dashed_triplicate-dotted
 70
   64
  3
-----  ---------  -  -  -  -----
 72
   65
 73
   10
 40
20.25
 49
6
 49
-1.5
 49
6
 49
-1.5
 49
0.25
 49
-1.5
 49
0.25
 49
-1.5
 49
0.25
 49
-1.5
  0
LTYPE
  2
undefined
 70
   64
  3
--------------------------------
 72
   65
 73
    0
 40
0
  0
ENDTAB
  0
TABLE
  2
STYLE
  5
3
100
AcDbSymbolTable
 70
     1
  0
STYLE
  5
10
100
AcDbSymbolTableRecord
100
AcDbTextStyleTableRecord
  2
STANDARD
 70
     0
 40
0.0
 41
1.0
 50
0.0
 71
     0
 42
0.2
  3
txt
  4
bigfont.shx
  0
STYLE
  5
26
100
AcDbSymbolTableRecord
100
AcDbTextStyleTableRecord
  2
TATEGAKI
 70
    68
 40
0.0
 41
1.0
 50
0.0
 71
     0
 42
1.0
  3
txt
  4
bigfont.shx
  0
ENDTAB
  0
TABLE
  2
LAYER
 70
   12
  0
LAYER
  2
_0-0_
 70
   64
 62
    7
  6
CONTINUOUS
  0
LAYER
  2
_1-0_
 70
   64
 62
    7
  6
CONTINUOUS
  0
LAYER
  2
_1-1_
 70
   64
 62
    7
  6
CONTINUOUS
  0
LAYER
  2
_1-2_
 70
   64
 62
    7
  6
CONTINUOUS
  0
LAYER
  2
_1-3_
 70
   64
 62
    7
  6
CONTINUOUS
  0
LAYER
  2
_1-4_
 70
   64
 62
    7
  6
CONTINUOUS
  0
LAYER
  2
_1-5_
 70
   64
 62
    7
  6
CONTINUOUS
  0
LAYER
  2
_1-6_
 70
   64
 62
    7
  6
CONTINUOUS
  0
LAYER
  2
_1-a_
 70
   64
 62
    7
  6
CONTINUOUS
  0
LAYER
  2
_1-b_
 70
   64
 62
    7
  6
CONTINUOUS
  0
LAYER
  2
_1-c_
 70
   64
 62
    7
  6
CONTINUOUS
  0
LAYER
  2
ADD_LINE
 70
   64
 62
    7
  6
CONTINUOUS
  0
ENDTAB
  0
ENDSEC
  0
SECTION
  2
BLOCKS
  0
ENDSEC
  0
SECTION
  2
ENTITIES
  0
LINE
  8
_0-0_
  6
CONTINUOUS
 62
    5
 10
6.7567526327597136
 20
280.13513513513516
 11
406.75677325274495
 21
280.13513513513516
  0
LINE
  8
_0-0_
  6
CONTINUOUS
 62
    5
 10
406.75677325274495
 20
10.13513513513513
 11
6.7567526327597136
 21
10.13513513513513
  0
LINE
  8
_0-0_
  6
CONTINUOUS
 62
    5
 10
406.75677325274495
 20
30.135133073136615
 11
6.7567402607685949
 21
30.135133073136615
  0
LINE
  8
_0-0_
  6
CONTINUOUS
 62
    5
 10
371.75678150073907
 20
10.13513513513513
 11
371.75678150073907
 21
30.135133073136615
  0
LINE
  8
_0-0_
  6
CONTINUOUS
 62
    5
 10
137.02703939901818
 20
30.135133073136615
 11
137.02703939901818
 21
10.13513513513513
  0
LINE
  8
_0-0_
  6
CONTINUOUS
 62
    5
 10
214.86486486486487
 20
30.135133073136615
 11
214.86486486486487
 21
10.13513513513513
  0
LINE
  8
_0-0_
  6
CONTINUOUS
 62
    5
 10
137.02703939901818
 20
20.135134104135886
 11
214.86486486486487
 21
20.135134104135886
  0
LINE
  8
_0-0_
  6
CONTINUOUS
 62
    5
 10
396.48648648648651
 20
25.945945945945951
 11
383.91891891891896
 21
13.378379924877265
  0
LINE
  8
_1-1_
  6
CONTINUOUS
 62
    7
 10
40.483542777396536
 20
109.3699852195946
 11
44.860765611803203
 21
111.33974229967272
  0
LINE
  8
_1-1_
  6
CONTINUOUS
 62
    7
 10
44.860765611803203
 20
111.33974229967272
 11
46.091865333350938
 21
108.60397338867187
  0
LINE
  8
_1-1_
  6
CONTINUOUS
 62
    7
 10
46.091865333350938
 20
108.60397338867187
 11
41.714642498944272
 21
106.63421630859375
  0
LINE
  8
_1-1_
  6
CONTINUOUS
 62
    7
 10
84.574956120671459
 20
125.9213586755701
 11
83.343844027132604
 21
128.65712758657097
  0
LINE
  8
_1-1_
  6
CONTINUOUS
 62
    7
 10
83.343844027132604
 20
128.65712758657097
 11
87.721079233530403
 21
130.62688466664909
  0
LINE
  8
_1-1_
  6
CONTINUOUS
 62
    7
 10
87.721079233530403
 20
130.62688466664909
 11
88.952166583086992
 21
127.89111575564823
  0
LINE
  8
_1-1_
  6
CONTINUOUS
 62
    7
 10
88.952166583086992
 20
127.89111575564823
 11
84.574956120671459
 21
125.9213586755701
  0
LINE
  8
_1-1_
  6
CONTINUOUS
 62
    7
 10
127.43526974239866
 20
145.20850104254646
 11
126.20415764885981
 21
147.94426995354732
  0
LINE
  8
_1-1_
  6
CONTINUOUS
 62
    7
 10
126.20415764885981
 20
147.94426995354732
 11
130.5813928552576
 21
149.91402703362544
  0
LINE
  8
_1-1_
  6
CONTINUOUS
 62
    7
 10
130.5813928552576
 20
149.91402703362544
 11
131.81248020481419
 21
147.17825812262458
  0
LINE
  8
_1-1_
  6
CONTINUOUS
 62
    7
 10
131.81248020481419
 20
147.17825812262458
 11
127.43526974239866
 21
145.20850104254646
  0
LINE
  8
_1-1_
  6
CONTINUOUS
 62
    7
 10
170.29558336412586
 20
164.49566815350508
 11
169.06447127058701
 21
167.23141232052365
  0
LINE
  8
_1-1_
  6
CONTINUOUS
 62
    7
 10
169.06447127058701
 20
167.23141232052365
 11
173.44170647698482
 21
169.20118177259292
  0
LINE
  8
_1-1_
  6
CONTINUOUS
 62
    7
 10
174.67279382654141
 20
166.46541286159206
 11
170.29558336412586
 21
164.49566815350508
  0
LINE
  8
_1-1_
  6
CONTINUOUS
 62
    7
 10
169.06447127058701
 20
167.23141232052365
 11
174.67281857052365
 21
166.46538811760982
  0
LINE
  8
_1-1_
  6
CONTINUOUS
 62
    7
 10
126.20415764885981
 20
147.94426995354732
 11
131.81248020481419
 21
147.17825812262458
  0
LINE
  8
_1-1_
  6
CONTINUOUS
 62
    7
 10
83.343844027132604
 20
128.65712758657097
 11
88.952166583086992
 21
127.89111575564823
  0
LINE
  8
_1-b_
  6
CONTINUOUS
 62
    3
 10
45.729452597128386
 20
109.557260049356
 11
47.418662406302786
 21
110.1790020916913
  0
LINE
  8
_1-b_
  6
CONTINUOUS
 62
    3
 10
45.038612984322214
 20
111.43415296399917
 11
45.729452597128386
 21
109.557260049356
  0
LINE
  8
_1-1_
  6
CONTINUOUS
 62
    7
 10
40.483555149387655
 20
109.36999759158573
 11
44.86077798379435
 21
111.33975467166385
  0
LINE
  8
_1-1_
  6
CONTINUOUS
 62
    7
 10
84.574956120671459
 20
125.9213586755701
 11
83.34386877111487
 21
128.65712758657097
  0
LINE
  8
_1-1_
  6
CONTINUOUS
 62
    7
 10
83.34386877111487
 20
128.65712758657097
 11
87.721079233530403
 21
130.62688466664909
  0
LINE
  8
_1-1_
  6
CONTINUOUS
 62
    7
 10
87.721079233530403
 20
130.62688466664909
 11
88.952191327069258
 21
127.89111575564823
  0
LINE
  8
_1-1_
  6
CONTINUOUS
 62
    7
 10
88.952191327069258
 20
127.89111575564823
 11
84.574956120671459
 21
125.9213586755701
  0
LINE
  8
_1-1_
  6
CONTINUOUS
 62
    7
 10
83.34386877111487
 20
128.65712758657097
 11
88.952191327069258
 21
127.89111575564823
  0
LINE
  8
_1-b_
  6
CONTINUOUS
 62
    3
 10
88.589766218855573
 20
128.84440241633234
 11
90.278963656038854
 21
129.46614445866766
  0
LINE
  8
_1-b_
  6
CONTINUOUS
 62
    3
 10
87.898938978040547
 20
130.72129533097552
 11
88.589766218855573
 21
128.84440241633234
  0
LINE
  8
_1-b_
  6
CONTINUOUS
 62
    3
 10
32.921076594172291
 20
113.46918466928844
 11
87.119454048775339
 21
133.4180429819468
  0
LINE
  8
_1-1_
  6
CONTINUOUS
 62
    7
 10
83.34386877111487
 20
128.65713995856208
 11
87.721079233530403
 21
130.62689703864021
  0
LINE
  8
_1-1_
  6
CONTINUOUS
 62
    7
 10
127.43526974239866
 20
145.20850104254646
 11
126.20415764885981
 21
147.94426995354732
  0
LINE
  8
_1-1_
  6
CONTINUOUS
 62
    7
 10
126.20415764885981
 20
147.94426995354732
 11
130.5813928552576
 21
149.91402703362544
  0
LINE
  8
_1-1_
  6
CONTINUOUS
 62
    7
 10
130.5813928552576
 20
149.91402703362544
 11
131.81248020481419
 21
147.17825812262458
  0
LINE
  8
_1-1_
  6
CONTINUOUS
 62
    7
 10
131.81248020481419
 20
147.17825812262458
 11
127.43526974239866
 21
145.20850104254646
  0
LINE
  8
_1-1_
  6
CONTINUOUS
 62
    7
 10
126.20415764885981
 20
147.94426995354732
 11
131.81248020481419
 21
147.17825812262458
  0
LINE
  8
_1-b_
  6
CONTINUOUS
 62
    3
 10
75.065101417335313
 20
129.50903815192146
 11
130.75922785578547
 21
150.00843769795188
  0
LINE
  8
_1-b_
  6
CONTINUOUS
 62
    3
 10
131.45007984058279
 20
148.1315447833087
 11
133.13930202174831
 21
148.75328682564401
  0
LINE
  8
_1-b_
  6
CONTINUOUS
 62
    3
 10
130.75922785578547
 20
150.00843769795188
 11
131.45007984058279
 21
148.1315447833087
  0
LINE
  8
_1-b_
  6
CONTINUOUS
 62
    3
 10
75.781390215899478
 20
132.75632703626479
 11
129.97976767050255
 21
152.70518534892315
  0
LINE
  8
_1-b_
  6
CONTINUOUS
 62
    3
 10
74.832532728040547
 20
130.70213111671242
 11
75.249864732896981
 21
129.56828761745143
  0
LINE
  8
_1-1_
  6
CONTINUOUS
 62
    7
 10
126.20415764885981
 20
147.94426995354732
 11
130.5813928552576
 21
149.91402703362544
  0
LINE
  8
_1-1_
  6
CONTINUOUS
 62
    7
 10
130.5813928552576
 20
149.91402703362544
 11
131.81248020481419
 21
147.17825812262458
  0
LINE
  8
_1-1_
  6
CONTINUOUS
 62
    7
 10
170.29558336412586
 20
164.49564340952281
 11
169.06447127058701
 21
167.23141232052365
  0
LINE
  8
_1-1_
  6
CONTINUOUS
 62
    7
 10
169.06447127058701
 20
167.23141232052365
 11
173.44170647698482
 21
169.20118177259292
  0
LINE
  8
_1-1_
  6
CONTINUOUS
 62
    7
 10
173.44170647698482
 20
169.20118177259292
 11
174.67279382654141
 21
166.46538811760982
  0
LINE
  8
_1-1_
  6
CONTINUOUS
 62
    7
 10
174.67279382654141
 20
166.46538811760982
 11
170.29558336412586
 21
164.49564340952281
  0
LINE
  8
_1-1_
  6
CONTINUOUS
 62
    7
 10
169.06447127058701
 20
167.23141232052365
 11
174.67279382654141
 21
166.46538811760982
  0
LINE
  8
_1-1_
  6
CONTINUOUS
 62
    7
 10
126.20415764885981
 20
147.94426995354732
 11
131.81248020481419
 21
147.17825812262458
  0
LINE
  8
_1-1_
  6
CONTINUOUS
 62
    7
 10
126.20418239284207
 20
147.94426995354732
 11
130.5813928552576
 21
149.91402703362544
  0
LINE
  8
_1-1_
  6
CONTINUOUS
 62
    7
 10
130.5813928552576
 20
149.91402703362544
 11
131.81250494879646
 21
147.17825812262458
  0
LINE
  8
_1-1_
  6
CONTINUOUS
 62
    7
 10
126.20418239284207
 20
147.94426995354732
 11
131.81250494879646
 21
147.17825812262458
  0
LINE
  8
_1-b_
  6
CONTINUOUS
 62
    3
 10
131.45007984058279
 20
148.1315447833087
 11
133.13927727776604
 21
148.75328682564401
  0
LINE
  8
_1-b_
  6
CONTINUOUS
 62
    3
 10
130.75925259976773
 20
150.00843769795188
 11
131.45007984058279
 21
148.1315447833087
  0
LINE
  8
ADD_LINE
  6
DOT
 62
    3
 10
130.5813928552576
 20
149.91403940561656
 11
130.5813928552576
 21
149.53100256017737
  0
LINE
  8
_1-1_
  6
CONTINUOUS
 62
    7
 10
126.20418239284207
 20
147.94428232553844
 11
130.5813928552576
 21
149.91403940561656
  0
LINE
  8
_1-1_
  6
CONTINUOUS
 62
    7
 10
170.29558336412586
 20
164.49564340952281
 11
169.06447127058701
 21
167.23141232052365
  0
LINE
  8
_1-1_
  6
CONTINUOUS
 62
    7
 10
169.06447127058701
 20
167.23141232052365
 11
173.44170647698482
 21
169.20118177259292
  0
LINE
  8
_1-1_
  6
CONTINUOUS
 62
    7
 10
173.44170647698482
 20
169.20118177259292
 11
174.67279382654141
 21
166.46538811760982
  0
LINE
  8
_1-1_
  6
CONTINUOUS
 62
    7
 10
174.67279382654141
 20
166.46538811760982
 11
170.29558336412586
 21
164.49564340952281
  0
LINE
  8
_1-1_
  6
CONTINUOUS
 62
    7
 10
169.06447127058701
 20
167.23141232052365
 11
174.67279382654141
 21
166.46538811760982
  0
LINE
  8
_1-b_
  6
CONTINUOUS
 62
    3
 10
117.69284634976775
 20
149.98927348368878
 11
118.11017835462417
 21
148.85542998442779
  0
LINE
  8
_1-b_
  6
CONTINUOUS
 62
    3
 10
174.30368784311656
 20
167.43357065561656
 11
175.99291002428211
 21
168.05528795396961
  0
LINE
  8
_1-b_
  6
CONTINUOUS
 62
    3
 10
174.30368784311656
 20
167.43357065561656
 11
175.99288528029984
 21
168.05528795396961
  0
LINE
  8
_1-b_
  6
CONTINUOUS
 62
    3
 10
172.66224629170188
 20
172.47208878800677
 11
172.83337567303633
 21
172.00719884923987
  0
LINE
  8
_1-b_
  6
CONTINUOUS
 62
    3
 10
172.66227103568414
 20
172.47206404402451
 11
172.83337567303633
 21
172.00719884923987
  0
LINE
  8
_1-b_
  6
CONTINUOUS
 62
    3
 10
174.16376062341641
 20
173.02474563186234
 11
175.99288528029984
 21
168.05528795396961
  0
LINE
  8
_1-b_
  6
CONTINUOUS
 62
    3
 10
174.16378536739865
 20
173.02474563186234
 11
175.99291002428211
 21
168.05528795396961
  0
LINE
  8
_1-b_
  6
CONTINUOUS
 62
    3
 10
129.80866303315034
 20
153.17005054370779
 11
129.97976767050255
 21
152.70518534892315
  0
LINE
  8
_1-b_
  6
CONTINUOUS
 62
    3
 10
131.3101526208826
 20
153.72273213154563
 11
133.13927727776604
 21
148.75328682564401
  0
LINE
  8
_1-b_
  6
CONTINUOUS
 62
    3
 10
129.80866303315034
 20
153.17005054370779
 11
129.97976767050255
 21
152.70518534892315
  0
LINE
  8
_1-b_
  6
CONTINUOUS
 62
    3
 10
131.31017736486487
 20
153.72273213154563
 11
133.13930202174831
 21
148.75328682564401
  0
LINE
  8
_1-b_
  6
CONTINUOUS
 62
    3
 10
86.948349411423152
 20
133.88292054872255
 11
87.119454048775339
 21
133.4180429819468
  0
LINE
  8
_1-b_
  6
CONTINUOUS
 62
    3
 10
88.449838999155403
 20
134.43557739257812
 11
90.278963656038854
 21
129.46614445866766
  0
LINE
  8
_1-b_
  6
CONTINUOUS
 62
    3
 10
44.088023417704818
 20
114.59577818174621
 11
44.259140427048152
 21
114.13090061497044
  0
LINE
  8
_1-b_
  6
CONTINUOUS
 62
    3
 10
45.589550121410468
 20
115.14843502560178
 11
47.418662406302786
 21
110.1790020916913
  0
LINE
  8
_1-c_
  6
CONTINUOUS
 62
    7
 10
72.345539814717085
 20
137.4589827254012
 11
74.832532728040547
 21
130.70214348870354
  0
LINE
  8
_1-c_
  6
CONTINUOUS
 62
    7
 10
115.20585343644426
 20
156.74610034839529
 11
117.69284634976775
 21
149.98927348368878
  0
LINE
  8
_1-c_
  6
CONTINUOUS
 62
    7
 10
116.15468618032095
 20
158.80029626794763
 11
158.65069415118245
 21
174.44185824007602
  0
LINE
  8
_1-c_
  6
CONTINUOUS
 62
    7
 10
73.294384930584897
 20
139.51316627296242
 11
115.79144452069258
 21
155.15511177681589
  0
LINE
  8
_1-4_
  6
CONTINUOUS
 62
    7
 10
106.21621621621622
 20
149.18918918918919
 11
91.144483411634297
 21
175.29417708113388
  0
LINE
  8
_1-4_
  6
CONTINUOUS
 62
    7
 10
91.144483411634297
 20
175.29417708113388
 11
83.513513513513516
 21
175.29417708113388
  0
LINE
  8
_1-b_
  6
CONTINUOUS
 62
    3
 10
33.243243243243228
 20
107.0926233240076
 11
45.038612984322214
 21
111.43415296399917
  0
LINE
  8
_1-b_
  6
CONTINUOUS
 62
    3
 10
33.243243243243228
 20
110.0762650773332
 11
44.259140427048152
 21
114.13090061497044
  0
LINE
  8
_1-b_
  6
CONTINUOUS
 62
    3
 10
33.243243243243228
 20
110.6041160789696
 11
87.898938978040547
 21
130.72129533097552
  0
LINE
  8
_1-c_
  6
CONTINUOUS
 62
    7
 10
33.243243243243228
 20
121.26000069283151
 11
72.931143270956511
 21
135.86796940983953
  0
LINE
  8
_1-1_
  6
DASHED1
 62
    3
 10
33.243243243243228
 20
101.9448233939506
 11
181.99290507548565
 21
168.88218235325169
  0
LINE
  8
_1-b_
  6
CONTINUOUS
 62
    3
 10
173.92709680505703
 20
173.67113268053211
 11
175.99961564347552
 21
168.04044156461148
  0
LINE
  8
_1-1_
  6
CONTINUOUS
 62
    3
 10
172.42555772936024
 20
173.11846346468539
 11
173.92709680505703
 21
173.67113268053211
  0
LINE
  8
_1-b_
  6
CONTINUOUS
 62
    3
 10
172.42555772936024
 20
173.11846346468539
 11
172.84008129222974
 21
171.99232771589951
  0
LINE
  8
_1-1_
  6
CONTINUOUS
 62
    7
 10
174.16378536739865
 20
173.02474563186234
 11
171.41234114363388
 21
179.13905788112331
  0
LINE
  8
_1-1_
  6
CONTINUOUS
 62
    7
 10
172.42555772936024
 20
173.11846346468539
 11
169.95728363861909
 21
178.60349912901182
  0
LINE
  8
_1-1_
  6
CONTINUOUS
 62
    7
 10
323.50227974556589
 20
109.3699852195946
 11
319.12504453916807
 21
111.33974229967272
  0
LINE
  8
_1-1_
  6
CONTINUOUS
 62
    7
 10
319.12504453916807
 20
111.33974229967272
 11
317.89395718961151
 21
108.60397338867187
  0
LINE
  8
_1-1_
  6
CONTINUOUS
 62
    7
 10
317.89395718961151
 20
108.60397338867187
 11
322.27116765202703
 21
106.63421630859375
  0
LINE
  8
_1-1_
  6
CONTINUOUS
 62
    7
 10
279.41085403029984
 20
125.9213586755701
 11
280.6419661238387
 21
128.65712758657097
  0
LINE
  8
_1-1_
  6
CONTINUOUS
 62
    7
 10
280.6419661238387
 20
128.65712758657097
 11
276.26473091744089
 21
130.62688466664909
  0
LINE
  8
_1-1_
  6
CONTINUOUS
 62
    7
 10
276.26473091744089
 20
130.62688466664909
 11
275.03364356788433
 21
127.89111575564823
  0
LINE
  8
_1-1_
  6
CONTINUOUS
 62
    7
 10
275.03364356788433
 20
127.89111575564823
 11
279.41085403029984
 21
125.9213586755701
  0
LINE
  8
_1-1_
  6
CONTINUOUS
 62
    7
 10
236.55054040857266
 20
145.20850104254646
 11
237.78165250211151
 21
147.94426995354732
  0
LINE
  8
_1-1_
  6
CONTINUOUS
 62
    7
 10
237.78165250211151
 20
147.94426995354732
 11
233.4044172957137
 21
149.91402703362544
  0
LINE
  8
_1-1_
  6
CONTINUOUS
 62
    7
 10
233.4044172957137
 20
149.91402703362544
 11
232.17332994615711
 21
147.17825812262458
  0
LINE
  8
_1-1_
  6
CONTINUOUS
 62
    7
 10
232.17332994615711
 20
147.17825812262458
 11
236.55054040857266
 21
145.20850104254646
  0
LINE
  8
_1-1_
  6
CONTINUOUS
 62
    7
 10
193.69022678684544
 20
164.49566815350508
 11
194.9213388803843
 21
167.23141232052365
  0
LINE
  8
_1-1_
  6
CONTINUOUS
 62
    7
 10
194.9213388803843
 20
167.23141232052365
 11
190.54410367398648
 21
169.20118177259292
  0
LINE
  8
_1-1_
  6
CONTINUOUS
 62
    7
 10
189.3130163244299
 20
166.46541286159206
 11
193.69022678684544
 21
164.49566815350508
  0
LINE
  8
_1-1_
  6
CONTINUOUS
 62
    7
 10
194.9213388803843
 20
167.23141232052365
 11
189.31299158044766
 21
166.46538811760982
  0
LINE
  8
_1-1_
  6
CONTINUOUS
 62
    7
 10
237.78165250211151
 20
147.94426995354732
 11
232.17332994615711
 21
147.17825812262458
  0
LINE
  8
_1-1_
  6
CONTINUOUS
 62
    7
 10
280.6419661238387
 20
128.65712758657097
 11
275.03364356788433
 21
127.89111575564823
  0
LINE
  8
_1-b_
  6
CONTINUOUS
 62
    3
 10
318.25635755384292
 20
109.557260049356
 11
316.5671353726774
 21
110.1790020916913
  0
LINE
  8
_1-1_
  6
CONTINUOUS
 62
    7
 10
323.50225500158365
 20
109.36999759158573
 11
319.12501979518584
 21
111.33975467166385
  0
LINE
  8
_1-1_
  6
CONTINUOUS
 62
    7
 10
279.41085403029984
 20
125.9213586755701
 11
280.64194137985646
 21
128.65712758657097
  0
LINE
  8
_1-1_
  6
CONTINUOUS
 62
    7
 10
280.64194137985646
 20
128.65712758657097
 11
276.26473091744089
 21
130.62688466664909
  0
LINE
  8
_1-1_
  6
CONTINUOUS
 62
    7
 10
276.26473091744089
 20
130.62688466664909
 11
275.03361882390203
 21
127.89111575564823
  0
LINE
  8
_1-1_
  6
CONTINUOUS
 62
    7
 10
275.03361882390203
 20
127.89111575564823
 11
279.41085403029984
 21
125.9213586755701
  0
LINE
  8
_1-1_
  6
CONTINUOUS
 62
    7
 10
280.64194137985646
 20
128.65712758657097
 11
275.03361882390203
 21
127.89111575564823
  0
LINE
  8
_1-b_
  6
CONTINUOUS
 62
    3
 10
275.39604393211573
 20
128.84440241633234
 11
273.70684649493245
 21
129.46614445866766
  0
LINE
  8
_1-b_
  6
CONTINUOUS
 62
    3
 10
276.08687117293078
 20
130.72129533097552
 11
275.39604393211573
 21
128.84440241633234
  0
LINE
  8
_1-b_
  6
CONTINUOUS
 62
    3
 10
331.06473355679901
 20
113.46918466928844
 11
276.86635610219594
 21
133.4180429819468
  0
LINE
  8
_1-1_
  6
CONTINUOUS
 62
    7
 10
280.64194137985646
 20
128.65713995856208
 11
276.26473091744089
 21
130.62689703864021
  0
LINE
  8
_1-1_
  6
CONTINUOUS
 62
    7
 10
236.55054040857266
 20
145.20850104254646
 11
237.78165250211151
 21
147.94426995354732
  0
LINE
  8
_1-1_
  6
CONTINUOUS
 62
    7
 10
237.78165250211151
 20
147.94426995354732
 11
233.4044172957137
 21
149.91402703362544
  0
LINE
  8
_1-1_
  6
CONTINUOUS
 62
    7
 10
233.4044172957137
 20
149.91402703362544
 11
232.17332994615711
 21
147.17825812262458
  0
LINE
  8
_1-1_
  6
CONTINUOUS
 62
    7
 10
232.17332994615711
 20
147.17825812262458
 11
236.55054040857266
 21
145.20850104254646
  0
LINE
  8
_1-1_
  6
CONTINUOUS
 62
    7
 10
237.78165250211151
 20
147.94426995354732
 11
232.17332994615711
 21
147.17825812262458
  0
LINE
  8
_1-b_
  6
CONTINUOUS
 62
    3
 10
288.92070873363599
 20
129.50903815192146
 11
233.22658229518584
 21
150.00843769795188
  0
LINE
  8
_1-b_
  6
CONTINUOUS
 62
    3
 10
232.53573031038852
 20
148.1315447833087
 11
230.846508129223
 21
148.75328682564401
  0
LINE
  8
_1-b_
  6
CONTINUOUS
 62
    3
 10
233.22658229518584
 20
150.00843769795188
 11
232.53573031038852
 21
148.1315447833087
  0
LINE
  8
_1-b_
  6
CONTINUOUS
 62
    3
 10
288.20441993507183
 20
132.75632703626479
 11
234.00604248046875
 21
152.70518534892315
  0
LINE
  8
_1-b_
  6
CONTINUOUS
 62
    3
 10
289.15327742293078
 20
130.70213111671242
 11
288.73594541807432
 21
129.56828761745143
  0
LINE
  8
_1-1_
  6
CONTINUOUS
 62
    7
 10
237.78165250211151
 20
147.94426995354732
 11
233.4044172957137
 21
149.91402703362544
  0
LINE
  8
_1-1_
  6
CONTINUOUS
 62
    7
 10
233.4044172957137
 20
149.91402703362544
 11
232.17332994615711
 21
147.17825812262458
  0
LINE
  8
_1-1_
  6
CONTINUOUS
 62
    7
 10
193.69022678684544
 20
164.49564340952281
 11
194.9213388803843
 21
167.23141232052365
  0
LINE
  8
_1-1_
  6
CONTINUOUS
 62
    7
 10
194.9213388803843
 20
167.23141232052365
 11
190.54410367398648
 21
169.20118177259292
  0
LINE
  8
_1-1_
  6
CONTINUOUS
 62
    7
 10
190.54410367398648
 20
169.20118177259292
 11
189.3130163244299
 21
166.46538811760982
  0
LINE
  8
_1-1_
  6
CONTINUOUS
 62
    7
 10
189.3130163244299
 20
166.46538811760982
 11
193.69022678684544
 21
164.49564340952281
  0
LINE
  8
_1-1_
  6
CONTINUOUS
 62
    7
 10
194.9213388803843
 20
167.23141232052365
 11
189.3130163244299
 21
166.46538811760982
  0
LINE
  8
_1-1_
  6
CONTINUOUS
 62
    7
 10
237.78165250211151
 20
147.94426995354732
 11
232.17332994615711
 21
147.17825812262458
  0
LINE
  8
_1-1_
  6
CONTINUOUS
 62
    7
 10
237.78162775812925
 20
147.94426995354732
 11
233.4044172957137
 21
149.91402703362544
  0
LINE
  8
_1-1_
  6
CONTINUOUS
 62
    7
 10
233.4044172957137
 20
149.91402703362544
 11
232.17330520217484
 21
147.17825812262458
  0
LINE
  8
_1-1_
  6
CONTINUOUS
 62
    7
 10
237.78162775812925
 20
147.94426995354732
 11
232.17330520217484
 21
147.17825812262458
  0
LINE
  8
_1-b_
  6
CONTINUOUS
 62
    3
 10
232.53573031038852
 20
148.1315447833087
 11
230.84653287320526
 21
148.75328682564401
  0
LINE
  8
_1-b_
  6
CONTINUOUS
 62
    3
 10
233.22655755120357
 20
150.00843769795188
 11
232.53573031038852
 21
148.1315447833087
  0
LINE
  8
ADD_LINE
  6
DOT
 62
    3
 10
233.4044172957137
 20
149.91403940561656
 11
233.4044172957137
 21
150.3728299527555
  0
LINE
  8
ADD_LINE
  6
DOT
 62
    3
 10
233.4044172957137
 20
149.91403940561656
 11
233.4044172957137
 21
149.53100256017737
  0
LINE
  8
_1-1_
  6
CONTINUOUS
 62
    7
 10
237.78162775812925
 20
147.94428232553844
 11
233.4044172957137
 21
149.91403940561656
  0
LINE
  8
_1-1_
  6
CONTINUOUS
 62
    7
 10
193.69022678684544
 20
164.49564340952281
 11
194.9213388803843
 21
167.23141232052365
  0
LINE
  8
_1-1_
  6
CONTINUOUS
 62
    7
 10
194.9213388803843
 20
167.23141232052365
 11
190.54410367398648
 21
169.20118177259292
  0
LINE
  8
_1-1_
  6
CONTINUOUS
 62
    7
 10
190.54410367398648
 20
169.20118177259292
 11
189.3130163244299
 21
166.46538811760982
  0
LINE
  8
_1-1_
  6
CONTINUOUS
 62
    7
 10
189.3130163244299
 20
166.46538811760982
 11
193.69022678684544
 21
164.49564340952281
  0
LINE
  8
_1-1_
  6
CONTINUOUS
 62
    7
 10
194.9213388803843
 20
167.23141232052365
 11
189.3130163244299
 21
166.46538811760982
  0
LINE
  8
_1-b_
  6
CONTINUOUS
 62
    3
 10
246.0603951119088
 20
148.79618051889781
 11
190.36626867345862
 21
169.29558006492823
  0
LINE
  8
_1-b_
  6
CONTINUOUS
 62
    3
 10
245.34410631334461
 20
152.04346940324115
 11
191.14572885874156
 21
171.99232771589951
  0
LINE
  8
_1-b_
  6
CONTINUOUS
 62
    3
 10
246.29296380120357
 20
149.98927348368878
 11
245.87563179634714
 21
148.85542998442779
  0
LINE
  8
_1-b_
  6
CONTINUOUS
 62
    3
 10
189.68212230785474
 20
167.43357065561656
 11
187.99290012668919
 21
168.05528795396961
  0
LINE
  8
_1-b_
  6
CONTINUOUS
 62
    3
 10
189.68212230785474
 20
167.43357065561656
 11
187.99292487067146
 21
168.05528795396961
  0
LINE
  8
_1-b_
  6
CONTINUOUS
 62
    3
 10
191.32356385926943
 20
172.47208878800677
 11
191.15243447793497
 21
172.00719884923987
  0
LINE
  8
_1-b_
  6
CONTINUOUS
 62
    3
 10
191.32353911528716
 20
172.47206404402451
 11
191.15243447793497
 21
172.00719884923987
  0
LINE
  8
_1-b_
  6
CONTINUOUS
 62
    3
 10
189.8220495275549
 20
173.02474563186234
 11
187.99292487067146
 21
168.05528795396961
  0
LINE
  8
_1-b_
  6
CONTINUOUS
 62
    3
 10
189.82202478357266
 20
173.02474563186234
 11
187.99290012668919
 21
168.05528795396961
  0
LINE
  8
_1-b_
  6
CONTINUOUS
 62
    3
 10
234.17714711782097
 20
153.17005054370779
 11
234.00604248046875
 21
152.70518534892315
  0
LINE
  8
_1-b_
  6
CONTINUOUS
 62
    3
 10
232.6756575300887
 20
153.72273213154563
 11
230.84653287320526
 21
148.75328682564401
  0
LINE
  8
_1-b_
  6
CONTINUOUS
 62
    3
 10
234.17714711782097
 20
153.17005054370779
 11
234.00604248046875
 21
152.70518534892315
  0
LINE
  8
_1-b_
  6
CONTINUOUS
 62
    3
 10
232.67563278610643
 20
153.72273213154563
 11
230.846508129223
 21
148.75328682564401
  0
LINE
  8
_1-b_
  6
CONTINUOUS
 62
    3
 10
277.03746073954818
 20
133.88292054872255
 11
276.86635610219594
 21
133.4180429819468
  0
LINE
  8
_1-b_
  6
CONTINUOUS
 62
    3
 10
275.53597115181589
 20
134.43557739257812
 11
273.70684649493245
 21
129.46614445866766
  0
LINE
  8
_1-b_
  6
CONTINUOUS
 62
    3
 10
319.89777436127537
 20
114.59577818174621
 11
319.72666972392318
 21
114.13090061497044
  0
LINE
  8
_1-b_
  6
CONTINUOUS
 62
    3
 10
318.39626002956084
 20
115.14843502560178
 11
316.5671353726774
 21
110.1790020916913
  0
LINE
  8
_1-c_
  6
CONTINUOUS
 62
    7
 10
291.64027033625422
 20
137.4589827254012
 11
289.15327742293078
 21
130.70214348870354
  0
LINE
  8
_1-c_
  6
CONTINUOUS
 62
    7
 10
248.77995671452703
 20
156.74610034839529
 11
246.29296380120357
 21
149.98927348368878
  0
LINE
  8
_1-c_
  6
CONTINUOUS
 62
    7
 10
247.83112397065034
 20
158.80029626794763
 11
205.33511599978885
 21
174.44185824007602
  0
LINE
  8
_1-c_
  6
CONTINUOUS
 62
    7
 10
290.69141284839526
 20
139.51316627296242
 11
248.19436563027872
 21
155.15511177681589
  0
LINE
  8
_1-b_
  6
CONTINUOUS
 62
    3
 10
330.74256690772808
 20
107.0926233240076
 11
318.94720953864021
 21
111.43415296399917
  0
LINE
  8
_1-b_
  6
CONTINUOUS
 62
    3
 10
330.74256690772808
 20
110.0762650773332
 11
319.72666972392318
 21
114.13090061497044
  0
LINE
  8
_1-b_
  6
CONTINUOUS
 62
    3
 10
330.74256690772808
 20
110.6041160789696
 11
276.08687117293078
 21
130.72129533097552
  0
LINE
  8
_1-c_
  6
CONTINUOUS
 62
    7
 10
330.74256690772808
 20
121.26000069283151
 11
291.05465450802365
 21
135.86796940983953
  0
LINE
  8
_1-0_
  6
CONTINUOUS
 62
    7
 10
330.74256690772808
 20
101.06755024677999
 11
181.99290507548565
 21
168.00490920608109
  0
LINE
  8
_1-0_
  6
CONTINUOUS
 62
    7
 10
330.74256690772808
 20
102.82209654112121
 11
181.99290507548565
 21
169.75944312843117
  0
LINE
  8
_1-0_
  6
CONTINUOUS
 62
    7
 10
330.74256690772808
 20
102.16414168074324
 11
181.99290507548565
 21
169.10151301203547
  0
LINE
  8
_1-1_
  6
CONTINUOUS
 62
    3
 10
191.56025242161107
 20
173.11846346468539
 11
190.05871334591427
 21
173.67113268053211
  0
LINE
  8
_1-b_
  6
CONTINUOUS
 62
    3
 10
191.56025242161107
 20
173.11846346468539
 11
191.14572885874156
 21
171.99232771589951
  0
LINE
  8
_1-1_
  6
CONTINUOUS
 62
    7
 10
205.33511599978885
 20
174.44185824007602
 11
192.57346900733742
 21
179.13905788112331
  0
LINE
  8
_1-1_
  6
CONTINUOUS
 62
    7
 10
189.82202478357266
 20
173.02474563186234
 11
192.57346900733742
 21
179.13905788112331
  0
LINE
  8
_1-1_
  6
CONTINUOUS
 62
    7
 10
191.56025242161107
 20
173.11846346468539
 11
194.02852651235222
 21
178.60349912901182
  0
LINE
  8
_1-1_
  6
CONTINUOUS
 62
    7
 10
205.33511599978885
 20
174.44185824007602
 11
192.57346900733742
 21
179.13905788112331
  0
LINE
  8
_1-3_
  6
CONTINUOUS
 62
    7
 10
260.70853568412161
 20
190.23324502480997
 11
266.45621634818411
 21
190.23324502480997
  0
LINE
  8
_1-0_
  6
CONTINUOUS
 62
    7
 10
33.243243243243228
 20
102.82209654112121
 11
181.99290507548565
 21
169.75944312843117
  0
LINE
  8
_1-0_
  6
CONTINUOUS
 62
    7
 10
33.243243243243228
 20
102.16414168074324
 11
181.99290507548565
 21
169.10151301203547
  0
LINE
  8
_1-0_
  6
CONTINUOUS
 62
    7
 10
33.243243243243228
 20
101.06755024677999
 11
181.99290507548565
 21
168.00490920608109
  0
LINE
  8
_1-3_
  6
CONTINUOUS
 62
    7
 10
232.08115861222552
 20
140.64921198664484
 11
260.70853568412161
 21
190.23324502480997
  0
LINE
  8
_1-0_
  6
CONTINUOUS
 62
    7
 10
268.02931502058703
 20
168.99379008525128
 11
248.44591295396961
 21
168.99379008525128
  0
LINE
  8
_1-0_
  6
CONTINUOUS
 62
    7
 10
267.51746100348396
 20
162.68104347022805
 11
244.80124808646539
 21
162.68104347022805
  0
LINE
  8
_1-0_
  6
CONTINUOUS
 62
    7
 10
268.19992477829396
 20
176.15961023279141
 11
252.58310678842906
 21
176.15961023279141
  0
LINE
  8
_1-0_
  6
CONTINUOUS
 62
    7
 10
267.34685124577703
 20
183.49602776604732
 11
256.81880641627959
 21
183.49602776604732
  0
LINE
  8
_1-0_
  6
CONTINUOUS
 62
    7
 10
37.34689042374896
 20
91.94833497743349
 11
85.201560355521536
 21
113.48294232342695
  0
LINE
  8
_1-0_
  6
CONTINUOUS
 62
    7
 10
316.79015288481844
 20
70.062220805400131
 11
181.99291744747677
 21
130.72099840318836
  0
LINE
  8
_1-0_
  6
CONTINUOUS
 62
    7
 10
47.195644894161745
 20
70.062220805400131
 11
181.99291744747677
 21
130.72099840318836
  0
LINE
  8
_1-0_
  6
CONTINUOUS
 62
    7
 10
75.590941970412814
 20
109.15816435942779
 11
63.05852941564612
 21
77.200519458667657
  0
LINE
  8
_1-0_
  6
CONTINUOUS
 62
    7
 10
77.677849434517526
 20
110.09727271827492
 11
65.145436879750832
 21
78.139627817514778
  0
LINE
  8
_1-0_
  6
CONTINUOUS
 62
    7
 10
73.5040283203125
 20
108.21905600058066
 11
60.97162195154138
 21
76.261411099820535
  0
LINE
  8
_1-0_
  6
CONTINUOUS
 62
    7
 10
144.81874620592274
 20
140.31067719330659
 11
132.28633983715162
 21
108.35303229254646
  0
LINE
  8
_1-0_
  6
CONTINUOUS
 62
    7
 10
142.731838741818
 20
139.37156883445948
 11
130.19942000105576
 21
107.41392393369934
  0
LINE
  8
_1-0_
  6
CONTINUOUS
 62
    7
 10
146.90567841400971
 20
141.24979792414484
 11
134.37325967324747
 21
109.29215302338471
  0
LINE
  8
_1-0_
  6
CONTINUOUS
 62
    7
 10
258.90479835304058
 20
122.42868371911952
 11
250.13211636929901
 21
100.05834218618033
  0
LINE
  8
_1-0_
  6
CONTINUOUS
 62
    7
 10
257.44396312816724
 20
123.08606946790542
 11
248.67128114442568
 21
100.71572174897065
  0
LINE
  8
_1-0_
  6
CONTINUOUS
 62
    7
 10
255.98312790329393
 20
123.74344284470017
 11
247.21044591955237
 21
101.37310131176099
  0
LINE
  8
_1-0_
  6
CONTINUOUS
 62
    7
 10
162.87897058435391
 20
228.31368936074747
 11
159.43119358372044
 21
228.31368936074747
  0
LINE
  8
_1-b_
  6
CONTINUOUS
 62
    3
 10
190.36733266469597
 20
169.29518416121201
 11
189.68212230785474
 21
167.43357065561656
  0
LINE
  8
_1-b_
  6
CONTINUOUS
 62
    3
 10
318.94720953864021
 20
111.43415296399917
 11
318.25635755384292
 21
109.557260049356
  0
LINE
  8
_1-0_
  6
CONTINUOUS
 62
    7
 10
323.50227974556589
 20
109.3699852195946
 11
322.26817363017318
 21
106.6275354333826
  0
LINE
  8
_1-0_
  6
CONTINUOUS
 62
    7
 10
322.26817363017318
 20
106.6275354333826
 11
322.27119239600933
 21
106.63421630859375
  0
LINE
  8
_1-1_
  6
CONTINUOUS
 62
    7
 10
323.50225500158365
 20
109.3699852195946
 11
317.89395718961151
 21
108.60397338867187
  0
LINE
  8
_1-0_
  6
CONTINUOUS
 62
    7
 10
40.483555149387655
 20
109.36999759158573
 11
41.714654870935391
 21
106.63422868058488
  0
LINE
  8
_1-1_
  6
CONTINUOUS
 62
    7
 10
40.483533498403176
 20
109.3699852195946
 11
46.091865333350938
 21
108.60397338867187
  0
LINE
  8
_1-1_
  6
CONTINUOUS
 62
    7
 10
173.44170647698482
 20
169.20118177259292
 11
174.67279382654141
 21
166.46541286159206
  0
LINE
  8
_1-b_
  6
CONTINUOUS
 62
    3
 10
117.9254150390625
 20
148.79618051889781
 11
173.61847748627534
 21
169.29518416121201
  0
LINE
  8
_1-b_
  6
CONTINUOUS
 62
    3
 10
173.61847748627534
 20
169.29518416121201
 11
174.30368784311656
 21
167.43357065561656
  0
LINE
  8
_1-1_
  6
DASHED1
 62
    3
 10
227.5889876082137
 20
148.36394026472763
 11
181.99290507548565
 21
168.88218235325169
  0
LINE
  8
_1-3_
  6
DASHED1
 62
    3
 10
227.42483602987755
 20
147.99917685019005
 11
329.71826501794766
 21
101.96711153597445
  0
LINE
  8
_1-a_
  6
CONTINUOUS
 62
    7
 10
206.17548349741344
 20
100.77842918602197
 11
220.91204669024495
 21
133.52634739231419
  0
LINE
  8
_1-a_
  6
CONTINUOUS
 62
    7
 10
160.57941333667654
 20
121.29667127454604
 11
175.31597652950802
 21
154.04457710884714
  0
LINE
  8
_1-a_
  6
CONTINUOUS
 62
    7
 10
206.17548349741344
 20
100.77842918602197
 11
160.57941333667654
 21
121.29667127454604
  0
LINE
  8
_1-3_
  6
DASHED1
 62
    3
 10
136.56243401604729
 20
147.99983256572003
 11
181.99290507548565
 21
168.44354577966641
  0
LINE
  8
_1-3_
  6
DASHED1
 62
    3
 10
227.42483602987755
 20
147.99917685019005
 11
181.99290507548565
 21
168.44354577966641
  0
LINE
  8
_1-a_
  6
CONTINUOUS
 62
    7
 10
156.09075597814612
 20
104.60356428816512
 11
142.71408493454393
 21
134.32948756862331
  0
LINE
  8
_1-a_
  6
CONTINUOUS
 62
    7
 10
201.52122703758448
 20
125.04728987410263
 11
188.14455599398227
 21
154.77321315456081
  0
LINE
  8
_1-a_
  6
CONTINUOUS
 62
    7
 10
156.09075597814612
 20
104.60356428816512
 11
201.52122703758448
 21
125.04728987410263
  0
LINE
  8
_1-2_
  6
CONTINUOUS
 62
    7
 10
176.99288857949747
 20
177.04925537109375
 11
186.99289682749156
 21
177.04925537109375
  0
LINE
  8
_1-2_
  6
CONTINUOUS
 62
    7
 10
177.39288742477831
 20
176.64925652581294
 11
186.59289798221073
 21
176.64925652581294
  0
LINE
  8
_1-2_
  6
CONTINUOUS
 62
    7
 10
163.99289517789273
 20
161.65943867451438
 11
163.99289517789273
 21
161.22080210092906
  0
LINE
  8
_1-2_
  6
CONTINUOUS
 62
    7
 10
199.9928902290963
 20
161.6594510465055
 11
199.9928902290963
 21
161.22080210092906
  0
LINE
  8
_1-2_
  6
CONTINUOUS
 62
    7
 10
163.99289517789273
 20
161.65943867451438
 11
181.99290507548565
 21
169.75944312843117
  0
LINE
  8
_1-2_
  6
CONTINUOUS
 62
    7
 10
199.99287785710516
 20
161.6594510465055
 11
181.99290507548565
 21
169.75944312843117
  0
LINE
  8
_1-2_
  6
CONTINUOUS
 62
    7
 10
176.99288857949747
 20
177.04925537109375
 11
176.99288857949747
 21
167.50943570523648
  0
LINE
  8
_1-2_
  6
CONTINUOUS
 62
    7
 10
186.99289682749156
 20
177.04925537109375
 11
186.99289682749156
 21
167.50944807722763
  0
LINE
  8
_1-2_
  6
CONTINUOUS
 62
    7
 10
181.29289781725086
 20
176.64925652581294
 11
181.29289781725086
 21
169.44443986222552
  0
LINE
  8
_1-2_
  6
CONTINUOUS
 62
    7
 10
182.69288758973818
 20
176.64925652581294
 11
182.69288758973818
 21
169.44445223421664
  0
LINE
  8
_1-2_
  6
CONTINUOUS
 62
    7
 10
181.29289781725086
 20
180.30890387457771
 11
182.69288758973818
 21
180.30890387457771
  0
LINE
  8
_1-2_
  6
CONTINUOUS
 62
    7
 10
181.29289781725086
 20
179.90890502929687
 11
182.69288758973818
 21
179.90890502929687
  0
LINE
  8
_1-2_
  6
CONTINUOUS
 62
    7
 10
181.29289781725086
 20
179.50890618401607
 11
182.69288758973818
 21
179.50890618401607
  0
LINE
  8
_1-2_
  6
CONTINUOUS
 62
    7
 10
181.29289781725086
 20
179.10890733873524
 11
182.69288758973818
 21
179.10890733873524
  0
LINE
  8
_1-2_
  6
CONTINUOUS
 62
    7
 10
181.29289781725086
 20
178.7089084934544
 11
182.69288758973818
 21
178.7089084934544
  0
LINE
  8
_1-2_
  6
CONTINUOUS
 62
    7
 10
181.29289781725086
 20
178.30890964817357
 11
182.69288758973818
 21
178.30890964817357
  0
LINE
  8
_1-2_
  6
CONTINUOUS
 62
    7
 10
181.29289781725086
 20
177.90891080289273
 11
182.69288758973818
 21
177.90891080289273
  0
LINE
  8
_1-2_
  6
CONTINUOUS
 62
    7
 10
181.29289781725086
 20
177.50891195761193
 11
182.69288758973818
 21
177.50891195761193
  0
LINE
  8
_1-2_
  6
CONTINUOUS
 62
    7
 10
181.29289781725086
 20
177.10891311233109
 11
182.69288758973818
 21
177.10891311233109
  0
LINE
  8
_1-2_
  6
CONTINUOUS
 62
    7
 10
181.29289781725086
 20
176.24925768053211
 11
182.69288758973818
 21
176.24925768053211
  0
LINE
  8
_1-2_
  6
CONTINUOUS
 62
    7
 10
186.59289798221073
 20
176.64925652581294
 11
186.59289798221073
 21
167.68944817620357
  0
LINE
  8
_1-2_
  6
CONTINUOUS
 62
    7
 10
177.39288742477831
 20
176.64925652581294
 11
177.39288742477831
 21
167.68943580421242
  0
LINE
  8
_1-2_
  6
CONTINUOUS
 62
    7
 10
177.39288742477831
 20
176.64925652581294
 11
186.59289798221073
 21
176.64925652581294
  0
LINE
  8
_1-2_
  6
CONTINUOUS
 62
    7
 10
181.29289781725086
 20
175.84925883525128
 11
182.69288758973818
 21
175.84925883525128
  0
LINE
  8
_1-2_
  6
CONTINUOUS
 62
    7
 10
181.29289781725086
 20
175.44925998997044
 11
182.69288758973818
 21
175.44925998997044
  0
LINE
  8
_1-2_
  6
CONTINUOUS
 62
    7
 10
181.29289781725086
 20
175.04926114468961
 11
182.69288758973818
 21
175.04926114468961
  0
LINE
  8
_1-2_
  6
CONTINUOUS
 62
    7
 10
181.29289781725086
 20
174.6492622994088
 11
182.69288758973818
 21
174.6492622994088
  0
LINE
  8
_1-2_
  6
CONTINUOUS
 62
    7
 10
181.29289781725086
 20
174.24926345412797
 11
182.69288758973818
 21
174.24926345412797
  0
LINE
  8
_1-2_
  6
CONTINUOUS
 62
    7
 10
181.29289781725086
 20
173.84926460884714
 11
182.69288758973818
 21
173.84926460884714
  0
LINE
  8
_1-2_
  6
CONTINUOUS
 62
    7
 10
181.29289781725086
 20
173.4492657635663
 11
182.69288758973818
 21
173.4492657635663
  0
LINE
  8
_1-2_
  6
CONTINUOUS
 62
    7
 10
181.29289781725086
 20
173.0492669182855
 11
182.69288758973818
 21
173.0492669182855
  0
LINE
  8
_1-2_
  6
CONTINUOUS
 62
    7
 10
181.29289781725086
 20
172.64926807300466
 11
182.69288758973818
 21
172.64926807300466
  0
LINE
  8
_1-2_
  6
CONTINUOUS
 62
    7
 10
181.29289781725086
 20
172.24926922772383
 11
182.69288758973818
 21
172.24926922772383
  0
LINE
  8
_1-2_
  6
CONTINUOUS
 62
    7
 10
181.29289781725086
 20
171.849270382443
 11
182.69288758973818
 21
171.849270382443
  0
LINE
  8
_1-2_
  6
CONTINUOUS
 62
    7
 10
181.29289781725086
 20
171.44927153716216
 11
182.69288758973818
 21
171.44927153716216
  0
LINE
  8
_1-2_
  6
CONTINUOUS
 62
    7
 10
181.29289781725086
 20
171.04927269188136
 11
182.69288758973818
 21
171.04927269188136
  0
LINE
  8
_1-2_
  6
CONTINUOUS
 62
    7
 10
181.29289781725086
 20
170.64927384660052
 11
182.69288758973818
 21
170.64927384660052
  0
LINE
  8
_1-2_
  6
CONTINUOUS
 62
    7
 10
181.29289781725086
 20
170.27384577570734
 11
182.69288758973818
 21
170.27384577570734
  0
LINE
  8
_1-2_
  6
CONTINUOUS
 62
    7
 10
181.29289781725086
 20
169.87384693042654
 11
182.69288758973818
 21
169.87384693042654
  0
LINE
  8
_1-2_
  6
CONTINUOUS
 62
    3
 10
140.07925909918708
 20
172.85109236433701
 11
141.58396540461359
 21
167.6649640057538
  0
LINE
  8
_1-2_
  6
CONTINUOUS
 62
    3
 10
179.45537257838893
 20
184.27568590318836
 11
180.96006651182432
 21
179.08955754460516
  0
LINE
  8
_1-2_
  6
CONTINUOUS
 62
    3
 10
140.30513454127956
 20
179.25078933303422
 11
141.80984084670609
 21
174.06466097445102
  0
LINE
  8
_1-2_
  6
CONTINUOUS
 62
    3
 10
179.68123564849029
 20
190.67538287188557
 11
181.18594195391682
 21
185.48925451330237
  0
LINE
  8
ADD_LINE
  6
DOT
 62
    3
 10
148.40350589236698
 20
195.38189862225508
 11
153.67513708166175
 21
195.84310170766472
  0
LINE
  8
_1-2_
  6
CONTINUOUS
 62
    3
 10
149.3361065838788
 20
201.49689133102831
 11
149.80674949852198
 21
196.11743823902029
  0
LINE
  8
_1-2_
  6
CONTINUOUS
 62
    3
 10
169.44432851430534
 20
206.86988624366555
 11
169.75809458139781
 21
203.28358005832982
  0
LINE
  8
_1-2_
  6
CONTINUOUS
 62
    3
 10
148.40350589236698
 20
195.38189862225508
 11
148.87414880701013
 21
190.00243315825591
  0
LINE
  8
_1-2_
  6
CONTINUOUS
 62
    3
 10
168.51172782279352
 20
200.75489353489232
 11
168.82549388988599
 21
197.16858734955659
  0
LINE
  8
ADD_LINE
  6
DOT
 62
    3
 10
153.78889754011826
 20
191.77526525548987
 11
149.58300203890414
 21
191.40729749524917
  0
LINE
  8
ADD_LINE
  6
DOT
 62
    7
 10
148.40350589236698
 20
195.38188625026396
 11
147.94125118771115
 21
195.38188625026396
  0
LINE
  8
_1-2_
  6
CONTINUOUS
 62
    3
 10
147.41779224292654
 20
189.2832493137669
 11
147.88843515756969
 21
183.90379622175888
  0
LINE
  8
_1-2_
  6
CONTINUOUS
 62
    3
 10
167.52601417335305
 20
194.65624422640414
 11
167.83978024044552
 21
191.06993804106841
  0
LINE
  8
_1-2_
  6
CONTINUOUS
 62
    3
 10
214.64969119510135
 20
201.49689133102831
 11
214.17906065244932
 21
196.11743823902029
  0
LINE
  8
_1-2_
  6
CONTINUOUS
 62
    3
 10
194.54148163666596
 20
206.86988624366555
 11
194.22771556957349
 21
203.28358005832982
  0
LINE
  8
_1-2_
  6
CONTINUOUS
 62
    3
 10
215.58229188661318
 20
195.38189862225508
 11
215.11166134396117
 21
190.00243315825591
  0
LINE
  8
_1-2_
  6
CONTINUOUS
 62
    3
 10
195.47408232817779
 20
200.75489353489232
 11
195.16031626108531
 21
197.16858734955659
  0
LINE
  8
ADD_LINE
  6
DOT
 62
    3
 10
210.19691261085305
 20
191.77526525548987
 11
214.40279574007602
 21
191.40729749524917
  0
LINE
  8
ADD_LINE
  6
DOT
 62
    7
 10
215.58229188661318
 20
195.38188625026396
 11
216.04455896326016
 21
195.38188625026396
  0
LINE
  8
_1-2_
  6
CONTINUOUS
 62
    3
 10
216.56801790804477
 20
189.2832493137669
 11
216.09738736539276
 21
183.90379622175888
  0
LINE
  8
_1-2_
  6
CONTINUOUS
 62
    3
 10
196.45979597761826
 20
194.65624422640414
 11
196.14602991052578
 21
191.06993804106841
  0
LINE
  8
_1-2_
  6
CONTINUOUS
 62
    3
 10
223.90653867979307
 20
172.85109236433701
 11
222.40183237436656
 21
167.6649640057538
  0
LINE
  8
_1-2_
  6
CONTINUOUS
 62
    3
 10
184.53043757258237
 20
184.27568590318836
 11
183.02574363914698
 21
179.08955754460516
  0
LINE
  8
_1-2_
  6
CONTINUOUS
 62
    3
 10
223.68067560969175
 20
179.25078933303422
 11
222.17596930426521
 21
174.06466097445102
  0
LINE
  8
_1-2_
  6
CONTINUOUS
 62
    3
 10
184.30457450248102
 20
190.67538287188557
 11
182.79986819705448
 21
185.48925451330237
  0
LINE
  8
_1-2_
  6
CONTINUOUS
 62
    7
 10
171.29980551229943
 20
249.02836155247044
 11
168.93569121489654
 21
249.02836155247044
  0
LINE
  8
_1-2_
  6
CONTINUOUS
 62
    7
 10
171.29980551229943
 20
249.02836155247044
 11
182.08258963919977
 21
216.81877342430323
  0
LINE
  8
_1-2_
  6
CONTINUOUS
 62
    7
 10
182.74541906408362
 20
192.52661627692146
 11
212.85169446790542
 21
244.67213398701438
  0
LINE
  8
_1-2_
  6
CONTINUOUS
 62
    7
 10
212.85169446790542
 20
244.67213398701438
 11
217.95697186444258
 21
244.67213398701438
  0
LINE
  8
_1-2_
  6
CONTINUOUS
 62
    7
 10
216.46795324377112
 20
175.18955952412375
 11
229.59904026340794
 21
197.93325063344597
  0
LINE
  8
_1-2_
  6
CONTINUOUS
 62
    7
 10
229.59904026340794
 20
197.93325063344597
 11
233.59685124577703
 21
197.93325063344597
  0
LINE
  8
_1-2_
  6
CONTINUOUS
 62
    7
 10
140.02999383050042
 20
164.82597557274073
 11
122.68401687209672
 21
194.87009409311656
  0
LINE
  8
_1-2_
  6
CONTINUOUS
 62
    7
 10
122.68401687209672
 20
194.87009409311656
 11
119.24266093486065
 21
194.87009409311656
  0
LINE
  8
_1-2_
  6
CONTINUOUS
 62
    3
 10
203.49290177628802
 20
210.30365815033784
 11
203.49290177628802
 21
205.40031639305323
  0
LINE
  8
_1-3_
  6
CONTINUOUS
 62
    7
 10
215.87986301731419
 20
217.20195873363599
 11
220.20723909945102
 21
217.20195873363599
  0
LINE
  8
_1-1_
  6
CONTINUOUS
 62
    7
 10
162.87897058435391
 20
228.31368936074747
 11
171.84371535842484
 21
201.60691544816302
  0
LINE
  8
_1-1_
  6
CONTINUOUS
 62
    7
 10
162.87897058435391
 20
228.31368936074747
 11
177.21825676995357
 21
196.48937740841427
  0
LINE
  8
_1-1_
  6
CONTINUOUS
 62
    7
 10
200.46572298616977
 20
211.80099074904984
 11
211.87151109850086
 21
231.25790157833617
  0
LINE
  8
_1-3_
  6
CONTINUOUS
 62
    7
 10
211.87151109850086
 20
231.25790157833617
 11
214.40398345122466
 21
231.25790157833617
  0
LINE
  8
_1-1_
  6
CONTINUOUS
 62
    7
 10
215.87986301731419
 20
217.20195873363599
 11
206.67181066564612
 21
203.91758274387669
  0
LINE
  8
_1-1_
  6
CONTINUOUS
 62
    7
 10
215.87986301731419
 20
217.20195873363599
 11
212.20696526604732
 21
195.19551457585516
  0
LINE
  8
_1-1_
  6
CONTINUOUS
 62
    7
 10
229.59904026340794
 20
197.93325063344597
 11
218.58079240128802
 21
182.78333921690245
  0
LINE
  8
_1-0_
  6
CONTINUOUS
 62
    7
 10
158.65069415118245
 20
174.44185824007602
 11
171.41234114363388
 21
179.13905788112331
  0
LINE
  8
_1-0_
  6
CONTINUOUS
 62
    7
 10
140.02999383050042
 20
164.82597557274073
 11
150.91295396959461
 21
168.8798811629012
  0
ARC
  8
_1-b_
  6
CONTINUOUS
 62
    3
 10
76.334047059755051
 20
131.25480033255914
 40
1.5999999239638045
 50
110.20680236816406
 51
200.20738220214844
  0
ARC
  8
_1-b_
  6
CONTINUOUS
 62
    3
 10
119.19436068148227
 20
150.54194269953547
 40
1.5999999239638045
 50
110.20680236816406
 51
200.20738220214844
  0
ARC
  8
_1-c_
  6
CONTINUOUS
 62
    7
 10
73.847054146431589
 20
138.01163956925677
 40
1.5999999239638045
 50
110.20722961425781
 51
200.20695495605469
  0
ARC
  8
_1-c_
  6
CONTINUOUS
 62
    7
 10
116.70736776815879
 20
157.29875719225086
 40
1.5999999239638045
 50
110.20748901367187
 51
200.20695495605469
  0
ARC
  8
_1-b_
  6
CONTINUOUS
 62
    3
 10
287.65176309121625
 20
131.25480033255914
 40
1.5999999239638045
 50
339.79261779785156
 51
69.793197631835938
  0
ARC
  8
_1-b_
  6
CONTINUOUS
 62
    3
 10
244.79144946948904
 20
150.54194269953547
 40
1.5999999239638045
 50
339.79261779785156
 51
69.793197631835938
  0
ARC
  8
_1-c_
  6
CONTINUOUS
 62
    7
 10
290.13875600453969
 20
138.01163956925677
 40
1.5999999239638045
 50
339.79304504394526
 51
69.792770385742131
  0
ARC
  8
_1-c_
  6
CONTINUOUS
 62
    7
 10
247.2784423828125
 20
157.29875719225086
 40
1.5999999239638045
 50
339.79304504394526
 51
69.792510986328125
  0
CIRCLE
  8
_1-0_
  6
CONTINUOUS
 62
    7
 10
35.735534461768907
 20
99.221834749788854
 40
0.2321758785763302
  0
CIRCLE
  8
_1-0_
  6
CONTINUOUS
 62
    7
 10
38.289500056086354
 20
101.77579725110854
 40
0.2321758785763302
  0
CIRCLE
  8
_1-0_
  6
CONTINUOUS
 62
    7
 10
38.637765420449739
 20
99.221834749788854
 40
0.2321758785763302
  0
CIRCLE
  8
_1-0_
  6
CONTINUOUS
 62
    7
 10
37.709052627151095
 20
97.82876092034418
 40
0.2321758785763302
  0
CIRCLE
  8
_1-0_
  6
CONTINUOUS
 62
    7
 10
37.360784169789895
 20
99.221834749788854
 40
0.2321758785763302
  0
CIRCLE
  8
_1-0_
  6
CONTINUOUS
 62
    7
 10
35.61944497598185
 20
100.61490857923354
 40
0.2321758785763302
  0
CIRCLE
  8
_1-0_
  6
CONTINUOUS
 62
    7
 10
40.030839249894427
 20
101.07926652238176
 40
0.2321758785763302
  0
CIRCLE
  8
_1-0_
  6
CONTINUOUS
 62
    7
 10
40.146925642683698
 20
99.105748356999584
 40
0.2321758785763302
  0
CIRCLE
  8
_1-0_
  6
CONTINUOUS
 62
    7
 10
44.210048366237345
 20
100.84708136481208
 40
0.2321758785763302
  0
CIRCLE
  8
_1-0_
  6
CONTINUOUS
 62
    7
 10
41.888264836491771
 20
102.9366921089791
 40
0.2321758785763302
  0
CIRCLE
  8
_1-0_
  6
CONTINUOUS
 62
    7
 10
46.415745503193619
 20
102.9366921089791
 40
0.2321758785763302
  0
CIRCLE
  8
_1-0_
  6
CONTINUOUS
 62
    7
 10
42.81698072278823
 20
101.65971085831926
 40
0.2321758785763302
  0
CIRCLE
  8
_1-0_
  6
CONTINUOUS
 62
    7
 10
45.138764252533804
 20
103.63322902370145
 40
0.2321758785763302
  0
CIRCLE
  8
_1-0_
  6
CONTINUOUS
 62
    7
 10
52.452386392129426
 20
106.18719152502112
 40
0.2321758785763302
  0
CIRCLE
  8
_1-0_
  6
CONTINUOUS
 62
    7
 10
54.890262500659844
 20
107.81243814004435
 40
0.2321758785763302
  0
CIRCLE
  8
_1-0_
  6
CONTINUOUS
 62
    7
 10
51.755849477407082
 20
107.23199380410685
 40
0.2321758785763302
  0
CIRCLE
  8
_1-0_
  6
CONTINUOUS
 62
    7
 10
48.853621611724037
 20
106.30327791781039
 40
0.2321758785763302
  0
CIRCLE
  8
_1-0_
  6
CONTINUOUS
 62
    7
 10
50.711047198321381
 20
104.79411769557645
 40
0.2321758785763302
  0
CIRCLE
  8
_1-0_
  6
CONTINUOUS
 62
    7
 10
48.737529032939193
 20
103.16887108055322
 40
0.2321758785763302
  0
CIRCLE
  8
_1-0_
  6
CONTINUOUS
 62
    7
 10
53.497188671215156
 20
105.02630285314612
 40
0.2321758785763302
  0
CIRCLE
  8
_1-0_
  6
CONTINUOUS
 62
    7
 10
56.051151172534844
 20
108.74115402634079
 40
0.2321758785763302
  0
CIRCLE
  8
_1-0_
  6
CONTINUOUS
 62
    7
 10
57.676403973553647
 20
108.04462329761402
 40
0.2321758785763302
  0
CIRCLE
  8
_1-0_
  6
CONTINUOUS
 62
    7
 10
55.470706836597344
 20
106.88372225374789
 40
0.2321758785763302
  0
CIRCLE
  8
_1-0_
  6
CONTINUOUS
 62
    7
 10
52.800657942488385
 20
109.08942557669975
 40
0.2321758785763302
  0
CIRCLE
  8
_1-0_
  6
CONTINUOUS
 62
    7
 10
58.372940888275991
 20
110.59858579893371
 40
0.2321758785763302
  0
CIRCLE
  8
_1-0_
  6
CONTINUOUS
 62
    7
 10
60.926903389595651
 20
110.36640064136402
 40
0.2321758785763302
  0
CIRCLE
  8
_1-0_
  6
CONTINUOUS
 62
    7
 10
59.766008531725078
 20
108.50898124076225
 40
0.2321758785763302
  0
CIRCLE
  8
_1-0_
  6
CONTINUOUS
 62
    7
 10
64.873939720359999
 20
109.78595630542652
 40
0.2321758785763302
  0
CIRCLE
  8
_1-0_
  6
CONTINUOUS
 62
    7
 10
65.57047044908677
 20
111.64338807801943
 40
0.2321758785763302
  0
CIRCLE
  8
_1-0_
  6
CONTINUOUS
 62
    7
 10
62.610100411080026
 20
112.81096999709671
 40
0.2321758785763302
  0
CIRCLE
  8
_1-0_
  6
CONTINUOUS
 62
    7
 10
66.535801243137655
 20
113.52473490947003
 40
0.2321758785763302
  0
CIRCLE
  8
_1-0_
  6
CONTINUOUS
 62
    7
 10
67.784889839790964
 20
111.38344017235009
 40
0.2321758785763302
  0
CIRCLE
  8
_1-0_
  6
CONTINUOUS
 62
    7
 10
63.859189007733335
 20
111.20499894425676
 40
0.2321758785763302
  0
CIRCLE
  8
_1-0_
  6
CONTINUOUS
 62
    7
 10
68.677089794262031
 20
112.63252876900339
 40
0.2321758785763302
  0
CIRCLE
  8
_1-0_
  6
CONTINUOUS
 62
    7
 10
66.892683699324323
 20
114.95226473421664
 40
0.2321758785763302
  0
CIRCLE
  8
_1-0_
  6
CONTINUOUS
 62
    7
 10
72.781238040408596
 20
116.73666464315879
 40
0.2321758785763302
  0
CIRCLE
  8
_1-0_
  6
CONTINUOUS
 62
    7
 10
70.283060847101979
 20
114.77381113413219
 40
0.2321758785763302
  0
CIRCLE
  8
_1-0_
  6
CONTINUOUS
 62
    7
 10
73.31656172468854
 20
113.16785245328337
 40
0.2321758785763302
  0
CIRCLE
  8
_1-0_
  6
CONTINUOUS
 62
    7
 10
69.390854706635366
 20
116.02291210277662
 40
0.2321758785763302
  0
CIRCLE
  8
_1-0_
  6
CONTINUOUS
 62
    7
 10
70.996825759475314
 20
113.34629368137669
 40
0.2321758785763302
  0
CIRCLE
  8
_1-0_
  6
CONTINUOUS
 62
    7
 10
74.922526591532943
 20
114.95226473421664
 40
0.2321758785763302
  0
CIRCLE
  8
_1-0_
  6
CONTINUOUS
 62
    7
 10
73.673444180875208
 20
115.30914719040329
 40
0.2321758785763302
  0
CIRCLE
  8
_1-0_
  6
CONTINUOUS
 62
    7
 10
76.350056416279585
 20
118.34263569599874
 40
0.2321758785763302
  0
CIRCLE
  8
_1-0_
  6
CONTINUOUS
 62
    7
 10
77.063821328652864
 20
116.2013409588788
 40
0.2321758785763302
  0
CIRCLE
  8
_1-0_
  6
CONTINUOUS
 62
    7
 10
74.20876786515521
 20
117.27198832743878
 40
0.2321758785763302
  0
CIRCLE
  8
_1-0_
  6
CONTINUOUS
 62
    7
 10
80.632639704523854
 20
118.87795938027872
 40
0.2321758785763302
  0
CIRCLE
  8
_1-0_
  6
CONTINUOUS
 62
    7
 10
78.669786195497238
 20
116.55822341506546
 40
0.2321758785763302
  0
CIRCLE
  8
_1-0_
  6
CONTINUOUS
 62
    7
 10
78.669786195497238
 20
117.98575323981208
 40
0.2321758785763302
  0
CIRCLE
  8
_1-0_
  6
CONTINUOUS
 62
    7
 10
79.20510987977724
 20
120.12704797693202
 40
0.2321758785763302
  0
CIRCLE
  8
_1-0_
  6
CONTINUOUS
 62
    7
 10
83.844581810203763
 20
121.9114602578653
 40
0.2321758785763302
  0
CIRCLE
  8
_1-0_
  6
CONTINUOUS
 62
    7
 10
86.342752817514778
 20
122.26834271405195
 40
0.2321758785763302
  0
CIRCLE
  8
_1-0_
  6
CONTINUOUS
 62
    7
 10
83.309258125923776
 20
119.77016552074537
 40
0.2321758785763302
  0
CIRCLE
  8
_1-0_
  6
CONTINUOUS
 62
    7
 10
81.881728301177162
 20
117.62887078362543
 40
0.2321758785763302
  0
CIRCLE
  8
_1-0_
  6
CONTINUOUS
 62
    7
 10
86.164311589421459
 20
119.41328306455871
 40
0.2321758785763302
  0
CIRCLE
  8
_1-0_
  6
CONTINUOUS
 62
    7
 10
81.703287073083828
 20
121.19769534549198
 40
0.2321758785763302
  0
CIRCLE
  8
_1-0_
  6
CONTINUOUS
 62
    7
 10
90.090006235483528
 20
121.19769534549198
 40
0.2321758785763302
  0
CIRCLE
  8
_1-0_
  6
CONTINUOUS
 62
    7
 10
87.948711498363608
 20
121.19769534549198
 40
0.2321758785763302
  0
CIRCLE
  8
_1-0_
  6
CONTINUOUS
 62
    7
 10
89.554682551203555
 20
123.87430139490077
 40
0.2321758785763302
  0
CIRCLE
  8
_1-0_
  6
CONTINUOUS
 62
    7
 10
94.551036937816733
 20
124.94494876346073
 40
0.2321758785763302
  0
CIRCLE
  8
_1-0_
  6
CONTINUOUS
 62
    7
 10
96.279558748812292
 20
124.06124218090162
 40
0.2321758785763302
  0
CIRCLE
  8
_1-0_
  6
CONTINUOUS
 62
    7
 10
96.976089477539063
 20
125.91867395349452
 40
0.2321758785763302
  0
CIRCLE
  8
_1-0_
  6
CONTINUOUS
 62
    7
 10
94.015719439532305
 20
127.0862558725718
 40
0.2321758785763302
  0
CIRCLE
  8
_1-0_
  6
CONTINUOUS
 62
    7
 10
97.941420271589948
 20
127.8000207849451
 40
0.2321758785763302
  0
CIRCLE
  8
_1-0_
  6
CONTINUOUS
 62
    7
 10
99.190508868243242
 20
125.65872604782517
 40
0.2321758785763302
  0
CIRCLE
  8
_1-0_
  6
CONTINUOUS
 62
    7
 10
95.264808036185599
 20
125.48028481973185
 40
0.2321758785763302
  0
CIRCLE
  8
_1-0_
  6
CONTINUOUS
 62
    7
 10
100.08270882271432
 20
126.90781464447846
 40
0.2321758785763302
  0
CIRCLE
  8
_1-0_
  6
CONTINUOUS
 62
    7
 10
98.298302727776615
 20
129.22755060969172
 40
0.2321758785763302
  0
CIRCLE
  8
_1-0_
  6
CONTINUOUS
 62
    7
 10
104.18686325485642
 20
131.01195051863388
 40
0.2321758785763302
  0
CIRCLE
  8
_1-0_
  6
CONTINUOUS
 62
    7
 10
101.68867987555427
 20
129.04909700960727
 40
0.2321758785763302
  0
CIRCLE
  8
_1-0_
  6
CONTINUOUS
 62
    7
 10
104.72217456714527
 20
127.44313832875845
 40
0.2321758785763302
  0
CIRCLE
  8
_1-0_
  6
CONTINUOUS
 62
    7
 10
100.79647373508763
 20
130.29819797825169
 40
0.2321758785763302
  0
CIRCLE
  8
_1-0_
  6
CONTINUOUS
 62
    7
 10
102.40244478792758
 20
127.62157955685178
 40
0.2321758785763302
  0
CIRCLE
  8
_1-0_
  6
CONTINUOUS
 62
    7
 10
106.32814561998522
 20
129.22755060969172
 40
0.2321758785763302
  0
CIRCLE
  8
_1-0_
  6
CONTINUOUS
 62
    7
 10
105.07905702333193
 20
129.58443306587839
 40
0.2321758785763302
  0
CIRCLE
  8
_1-0_
  6
CONTINUOUS
 62
    7
 10
107.75567544473185
 20
132.61792157147383
 40
0.2321758785763302
  0
CIRCLE
  8
_1-0_
  6
CONTINUOUS
 62
    7
 10
108.46944035710516
 20
130.47662683435388
 40
0.2321758785763302
  0
CIRCLE
  8
_1-0_
  6
CONTINUOUS
 62
    7
 10
105.61439307960305
 20
131.54727420291385
 40
0.2321758785763302
  0
CIRCLE
  8
_1-0_
  6
CONTINUOUS
 62
    7
 10
110.0754114099451
 20
130.83350929054055
 40
0.2321758785763302
  0
CIRCLE
  8
_1-0_
  6
CONTINUOUS
 62
    7
 10
110.0754114099451
 20
132.26103911528716
 40
0.2321758785763302
  0
CIRCLE
  8
_1-0_
  6
CONTINUOUS
 62
    7
 10
113.287353515625
 20
131.90415665910052
 40
0.2321758785763302
  0
CIRCLE
  8
_1-0_
  6
CONTINUOUS
 62
    7
 10
117.33559273384714
 20
132.80484998548354
 40
0.2321758785763302
  0
CIRCLE
  8
_1-0_
  6
CONTINUOUS
 62
    7
 10
118.03211109058277
 20
134.66228175807643
 40
0.2321758785763302
  0
CIRCLE
  8
_1-0_
  6
CONTINUOUS
 62
    7
 10
115.07174105257602
 20
135.82986367715372
 40
0.2321758785763302
  0
CIRCLE
  8
_1-0_
  6
CONTINUOUS
 62
    7
 10
118.99744807062923
 20
136.54362858952703
 40
0.2321758785763302
  0
CIRCLE
  8
_1-0_
  6
CONTINUOUS
 62
    7
 10
120.24653666728253
 20
134.40233385240711
 40
0.2321758785763302
  0
CIRCLE
  8
_1-0_
  6
CONTINUOUS
 62
    7
 10
116.32084202122044
 20
134.22389262431378
 40
0.2321758785763302
  0
CIRCLE
  8
_1-0_
  6
CONTINUOUS
 62
    7
 10
121.13874280774917
 20
135.65142244906039
 40
0.2321758785763302
  0
CIRCLE
  8
_1-0_
  6
CONTINUOUS
 62
    7
 10
119.35433052681589
 20
137.97115841427365
 40
0.2321758785763302
  0
CIRCLE
  8
_1-0_
  6
CONTINUOUS
 62
    7
 10
125.24287868190457
 20
139.75555832321581
 40
0.2321758785763302
  0
CIRCLE
  8
_1-0_
  6
CONTINUOUS
 62
    7
 10
122.74470148859798
 20
137.79270481418919
 40
0.2321758785763302
  0
CIRCLE
  8
_1-0_
  6
CONTINUOUS
 62
    7
 10
125.77821473817568
 20
136.18674613334039
 40
0.2321758785763302
  0
CIRCLE
  8
_1-0_
  6
CONTINUOUS
 62
    7
 10
121.85250772012247
 20
139.04180578283362
 40
0.2321758785763302
  0
CIRCLE
  8
_1-0_
  6
CONTINUOUS
 62
    7
 10
123.45846640097129
 20
136.3651873614337
 40
0.2321758785763302
  0
CIRCLE
  8
_1-0_
  6
CONTINUOUS
 62
    7
 10
127.38417341902451
 20
137.97115841427365
 40
0.2321758785763302
  0
CIRCLE
  8
_1-0_
  6
CONTINUOUS
 62
    7
 10
126.13509719436234
 20
138.32804087046031
 40
0.2321758785763302
  0
CIRCLE
  8
_1-0_
  6
CONTINUOUS
 62
    7
 10
128.81170324377112
 20
141.36152937605576
 40
0.2321758785763302
  0
CIRCLE
  8
_1-0_
  6
CONTINUOUS
 62
    7
 10
129.52546815614443
 20
139.22023463893581
 40
0.2321758785763302
  0
CIRCLE
  8
_1-0_
  6
CONTINUOUS
 62
    7
 10
126.67040850665119
 20
140.29088200749578
 40
0.2321758785763302
  0
CIRCLE
  8
_1-0_
  6
CONTINUOUS
 62
    7
 10
131.13142683699326
 20
139.57711709512247
 40
0.2321758785763302
  0
CIRCLE
  8
_1-0_
  6
CONTINUOUS
 62
    7
 10
131.13142683699326
 20
141.00464691986909
 40
0.2321758785763302
  0
CIRCLE
  8
_1-0_
  6
CONTINUOUS
 62
    7
 10
134.34336894267315
 20
140.64776446368245
 40
0.2321758785763302
  0
CIRCLE
  8
_1-0_
  6
CONTINUOUS
 62
    7
 10
140.53290289801521
 20
143.51129892710094
 40
0.2321758785763302
  0
CIRCLE
  8
_1-0_
  6
CONTINUOUS
 62
    7
 10
141.22944599873313
 20
145.36873069969386
 40
0.2321758785763302
  0
CIRCLE
  8
_1-0_
  6
CONTINUOUS
 62
    7
 10
138.26907596072635
 20
146.53631261877112
 40
0.2321758785763302
  0
CIRCLE
  8
_1-0_
  6
CONTINUOUS
 62
    7
 10
142.19477060678844
 20
147.25007753114443
 40
0.2321758785763302
  0
CIRCLE
  8
_1-0_
  6
CONTINUOUS
 62
    7
 10
143.44385920344172
 20
145.10878279402451
 40
0.2321758785763302
  0
CIRCLE
  8
_1-0_
  6
CONTINUOUS
 62
    7
 10
139.51815218538852
 20
144.93034156593117
 40
0.2321758785763302
  0
CIRCLE
  8
_1-0_
  6
CONTINUOUS
 62
    7
 10
144.33605297191724
 20
146.35787139067779
 40
0.2321758785763302
  0
CIRCLE
  8
_1-0_
  6
CONTINUOUS
 62
    7
 10
142.55165306297511
 20
148.67760735589107
 40
0.2321758785763302
  0
CIRCLE
  8
_1-0_
  6
CONTINUOUS
 62
    7
 10
148.4402135900549
 20
150.4620072648332
 40
0.2321758785763302
  0
CIRCLE
  8
_1-0_
  6
CONTINUOUS
 62
    7
 10
145.94203639674831
 20
148.49915375580659
 40
0.2321758785763302
  0
CIRCLE
  8
_1-0_
  6
CONTINUOUS
 62
    7
 10
148.97552490234375
 20
146.89319507495779
 40
0.2321758785763302
  0
CIRCLE
  8
_1-0_
  6
CONTINUOUS
 62
    7
 10
145.04981788429055
 20
149.74825472445102
 40
0.2321758785763302
  0
CIRCLE
  8
_1-0_
  6
CONTINUOUS
 62
    7
 10
146.65580130912164
 20
147.07163630305109
 40
0.2321758785763302
  0
CIRCLE
  8
_1-0_
  6
CONTINUOUS
 62
    7
 10
150.5814959551837
 20
148.67760735589107
 40
0.2321758785763302
  0
CIRCLE
  8
_1-0_
  6
CONTINUOUS
 62
    7
 10
149.33240735853042
 20
149.03448981207771
 40
0.2321758785763302
  0
CIRCLE
  8
_1-0_
  6
CONTINUOUS
 62
    7
 10
152.00902577993034
 20
152.06797831767315
 40
0.2321758785763302
  0
CIRCLE
  8
_1-0_
  6
CONTINUOUS
 62
    7
 10
152.72279069230365
 20
149.92668358055323
 40
0.2321758785763302
  0
CIRCLE
  8
_1-0_
  6
CONTINUOUS
 62
    7
 10
149.86774341480154
 20
150.99733094911318
 40
0.2321758785763302
  0
CIRCLE
  8
_1-0_
  6
CONTINUOUS
 62
    7
 10
154.32876174514359
 20
150.28356603673987
 40
0.2321758785763302
  0
CIRCLE
  8
_1-0_
  6
CONTINUOUS
 62
    7
 10
154.32876174514359
 20
151.71109586148648
 40
0.2321758785763302
  0
CIRCLE
  8
_1-0_
  6
CONTINUOUS
 62
    7
 10
157.54070385082349
 20
151.35421340529984
 40
0.2321758785763302
  0
CIRCLE
  8
_1-0_
  6
CONTINUOUS
 62
    7
 10
154.45131868929477
 20
149.93518313846073
 40
0.2321758785763302
  0
CIRCLE
  8
_1-0_
  6
CONTINUOUS
 62
    7
 10
155.14783704603042
 20
151.79261491105365
 40
0.2321758785763302
  0
CIRCLE
  8
_1-0_
  6
CONTINUOUS
 62
    7
 10
152.18746700802365
 20
152.96019683013091
 40
0.2321758785763302
  0
CIRCLE
  8
_1-0_
  6
CONTINUOUS
 62
    7
 10
156.11317402607688
 20
153.67396174250422
 40
0.2321758785763302
  0
CIRCLE
  8
_1-0_
  6
CONTINUOUS
 62
    7
 10
157.36226262273016
 20
151.5326670053843
 40
0.2321758785763302
  0
CIRCLE
  8
_1-0_
  6
CONTINUOUS
 62
    7
 10
153.43656797666807
 20
151.35422577729096
 40
0.2321758785763302
  0
CIRCLE
  8
_1-0_
  6
CONTINUOUS
 62
    7
 10
158.2544687631968
 20
152.78175560203761
 40
0.2321758785763302
  0
CIRCLE
  8
_1-0_
  6
CONTINUOUS
 62
    7
 10
156.47005648226352
 20
155.10149156725086
 40
0.2321758785763302
  0
CIRCLE
  8
_1-0_
  6
CONTINUOUS
 62
    7
 10
162.35860463735222
 20
156.885891476193
 40
0.2321758785763302
  0
CIRCLE
  8
_1-0_
  6
CONTINUOUS
 62
    7
 10
159.86042744404563
 20
154.92303796716638
 40
0.2321758785763302
  0
CIRCLE
  8
_1-0_
  6
CONTINUOUS
 62
    7
 10
162.89394069362331
 20
153.31707928631758
 40
0.2321758785763302
  0
CIRCLE
  8
_1-0_
  6
CONTINUOUS
 62
    7
 10
158.9682336755701
 20
156.17213893581081
 40
0.2321758785763302
  0
CIRCLE
  8
_1-0_
  6
CONTINUOUS
 62
    7
 10
160.57419235641893
 20
153.49552051441091
 40
0.2321758785763302
  0
CIRCLE
  8
_1-0_
  6
CONTINUOUS
 62
    7
 10
164.49989937447214
 20
155.10149156725086
 40
0.2321758785763302
  0
CIRCLE
  8
_1-0_
  6
CONTINUOUS
 62
    7
 10
163.25082314980997
 20
155.4583740234375
 40
0.2321758785763302
  0
CIRCLE
  8
_1-0_
  6
CONTINUOUS
 62
    7
 10
165.92742919921875
 20
158.49186252903294
 40
0.2321758785763302
  0
CIRCLE
  8
_1-0_
  6
CONTINUOUS
 62
    7
 10
166.64119411159206
 20
156.35056779191302
 40
0.2321758785763302
  0
CIRCLE
  8
_1-0_
  6
CONTINUOUS
 62
    7
 10
163.78613446209883
 20
157.42121516047297
 40
0.2321758785763302
  0
CIRCLE
  8
_1-0_
  6
CONTINUOUS
 62
    7
 10
168.24715279244089
 20
156.70745024809966
 40
0.2321758785763302
  0
CIRCLE
  8
_1-0_
  6
CONTINUOUS
 62
    7
 10
168.24715279244089
 20
158.1349800728463
 40
0.2321758785763302
  0
CIRCLE
  8
_1-0_
  6
CONTINUOUS
 62
    7
 10
171.45909489812078
 20
157.77809761665964
 40
0.2321758785763302
  0
CIRCLE
  8
_1-0_
  6
CONTINUOUS
 62
    7
 10
168.36970973659206
 20
156.3590549778294
 40
0.2321758785763302
  0
CIRCLE
  8
_1-0_
  6
CONTINUOUS
 62
    7
 10
169.06625283730997
 20
158.21648675042232
 40
0.2321758785763302
  0
CIRCLE
  8
_1-0_
  6
CONTINUOUS
 62
    7
 10
166.10588279930323
 20
159.38406866949958
 40
0.2321758785763302
  0
CIRCLE
  8
_1-0_
  6
CONTINUOUS
 62
    7
 10
170.03157744536529
 20
160.09783358187289
 40
0.2321758785763302
  0
CIRCLE
  8
_1-0_
  6
CONTINUOUS
 62
    7
 10
171.28066604201859
 20
157.95653884475297
 40
0.2321758785763302
  0
CIRCLE
  8
_1-0_
  6
CONTINUOUS
 62
    7
 10
167.35495902396539
 20
157.77809761665964
 40
0.2321758785763302
  0
CIRCLE
  8
_1-0_
  6
CONTINUOUS
 62
    7
 10
172.17285981049409
 20
159.20562744140625
 40
0.2321758785763302
  0
CIRCLE
  8
_1-0_
  6
CONTINUOUS
 62
    7
 10
170.38845990155195
 20
161.52536340661953
 40
0.2321758785763302
  0
CIRCLE
  8
_1-0_
  6
CONTINUOUS
 62
    7
 10
176.27702042863177
 20
163.30976331556167
 40
0.2321758785763302
  0
CIRCLE
  8
_1-0_
  6
CONTINUOUS
 62
    7
 10
173.77884323532518
 20
161.34690980653505
 40
0.2321758785763302
  0
CIRCLE
  8
_1-0_
  6
CONTINUOUS
 62
    7
 10
176.81233174092063
 20
159.74095112568625
 40
0.2321758785763302
  0
CIRCLE
  8
_1-0_
  6
CONTINUOUS
 62
    7
 10
172.8866247228674
 20
162.59601077517948
 40
0.2321758785763302
  0
CIRCLE
  8
_1-0_
  6
CONTINUOUS
 62
    7
 10
174.49260814769849
 20
159.91939235377956
 40
0.2321758785763302
  0
CIRCLE
  8
_1-0_
  6
CONTINUOUS
 62
    7
 10
178.41830279376057
 20
161.52536340661953
 40
0.2321758785763302
  0
CIRCLE
  8
_1-0_
  6
CONTINUOUS
 62
    7
 10
177.16921419710727
 20
161.88224586280617
 40
0.2321758785763302
  0
CIRCLE
  8
_1-0_
  6
CONTINUOUS
 62
    7
 10
179.84583261850719
 20
164.91573436840162
 40
0.2321758785763302
  0
CIRCLE
  8
_1-0_
  6
CONTINUOUS
 62
    7
 10
180.5595975308805
 20
162.77443963128169
 40
0.2321758785763302
  0
CIRCLE
  8
_1-0_
  6
CONTINUOUS
 62
    7
 10
177.70455025337839
 20
163.84508699984164
 40
0.2321758785763302
  0
CIRCLE
  8
_1-0_
  6
CONTINUOUS
 62
    7
 10
182.16556858372044
 20
163.13132208746833
 40
0.2321758785763302
  0
CIRCLE
  8
_1-0_
  6
CONTINUOUS
 62
    7
 10
182.16556858372044
 20
164.55885191221495
 40
0.2321758785763302
  0
CIRCLE
  8
_1-0_
  6
CONTINUOUS
 62
    7
 10
185.37751068940034
 20
164.20196945602831
 40
0.2321758785763302
  0
CIRCLE
  8
_1-0_
  6
CONTINUOUS
 62
    7
 10
131.30986806508659
 20
142.96748805690456
 40
0.2321758785763302
  0
CIRCLE
  8
_1-0_
  6
CONTINUOUS
 62
    7
 10
132.55895666173987
 20
140.82619331978464
 40
0.2321758785763302
  0
CIRCLE
  8
_1-0_
  6
CONTINUOUS
 62
    7
 10
133.45115043021539
 20
142.07528191643792
 40
0.2321758785763302
  0
CIRCLE
  8
_1-0_
  6
CONTINUOUS
 62
    7
 10
131.66675052127323
 20
144.3950178816512
 40
0.2321758785763302
  0
CIRCLE
  8
_1-0_
  6
CONTINUOUS
 62
    7
 10
137.55531104835305
 20
146.17941779059333
 40
0.2321758785763302
  0
CIRCLE
  8
_1-0_
  6
CONTINUOUS
 62
    7
 10
135.05713385504646
 20
144.21656428156672
 40
0.2321758785763302
  0
CIRCLE
  8
_1-0_
  6
CONTINUOUS
 62
    7
 10
138.0906223606419
 20
142.61060560071792
 40
0.2321758785763302
  0
CIRCLE
  8
_1-0_
  6
CONTINUOUS
 62
    7
 10
134.1649153425887
 20
145.46566525021115
 40
0.2321758785763302
  0
CIRCLE
  8
_1-0_
  6
CONTINUOUS
 62
    7
 10
135.77089876741977
 20
142.78904682881125
 40
0.2321758785763302
  0
CIRCLE
  8
_1-0_
  6
CONTINUOUS
 62
    7
 10
138.44750481682854
 20
144.75190033783784
 40
0.2321758785763302
  0
CIRCLE
  8
_1-0_
  6
CONTINUOUS
 62
    7
 10
138.98284087309966
 20
146.71474147487331
 40
0.2321758785763302
  0
CIRCLE
  8
_1-0_
  6
CONTINUOUS
 62
    7
 10
183.54613433013091
 20
166.03333344330659
 40
0.2321758785763302
  0
CIRCLE
  8
_1-0_
  6
CONTINUOUS
 62
    7
 10
188.47674395586995
 20
162.37060546875
 40
0.2321758785763302
  0
CIRCLE
  8
_1-0_
  6
CONTINUOUS
 62
    7
 10
187.06799481366133
 20
161.1027361895587
 40
0.2321758785763302
  0
CIRCLE
  8
_1-0_
  6
CONTINUOUS
 62
    7
 10
184.53225625527872
 20
161.94797825168919
 40
0.2321758785763302
  0
CIRCLE
  8
_1-0_
  6
CONTINUOUS
 62
    7
 10
188.75849130991344
 20
162.65235282279352
 40
0.2321758785763302
  0
CIRCLE
  8
_1-0_
  6
CONTINUOUS
 62
    7
 10
191.29422986829604
 20
159.27137220228042
 40
0.2321758785763302
  0
CIRCLE
  8
_1-0_
  6
CONTINUOUS
 62
    7
 10
193.12559385557432
 20
158.00349055109797
 40
0.2321758785763302
  0
CIRCLE
  8
_1-0_
  6
CONTINUOUS
 62
    7
 10
194.39347550675677
 20
158.00349055109797
 40
0.2321758785763302
  0
CIRCLE
  8
_1-0_
  6
CONTINUOUS
 62
    7
 10
190.44898780616555
 20
159.69398704735011
 40
0.2321758785763302
  0
CIRCLE
  8
_1-0_
  6
CONTINUOUS
 62
    7
 10
193.97084828969597
 20
160.11661426441091
 40
0.2321758785763302
  0
CIRCLE
  8
_1-0_
  6
CONTINUOUS
 62
    7
 10
191.57597722233953
 20
161.24361605257602
 40
0.2321758785763302
  0
CIRCLE
  8
_1-0_
  6
CONTINUOUS
 62
    7
 10
192.56209914748734
 20
161.94797825168919
 40
0.2321758785763302
  0
CIRCLE
  8
_1-0_
  6
CONTINUOUS
 62
    7
 10
197.07008155616555
 20
158.98961247624578
 40
0.2321758785763302
  0
CIRCLE
  8
_1-0_
  6
CONTINUOUS
 62
    7
 10
199.32407276050466
 20
158.00349055109797
 40
0.2321758785763302
  0
CIRCLE
  8
_1-0_
  6
CONTINUOUS
 62
    7
 10
197.49270877322635
 20
156.17212656381969
 40
0.2321758785763302
  0
CIRCLE
  8
_1-0_
  6
CONTINUOUS
 62
    7
 10
195.37959743190459
 20
156.17212656381969
 40
0.2321758785763302
  0
CIRCLE
  8
_1-0_
  6
CONTINUOUS
 62
    7
 10
196.08395963101773
 20
159.41223969330659
 40
0.2321758785763302
  0
CIRCLE
  8
_1-0_
  6
CONTINUOUS
 62
    7
 10
195.66134478594807
 20
160.3983616184544
 40
0.2321758785763302
  0
CIRCLE
  8
_1-0_
  6
CONTINUOUS
 62
    7
 10
196.64746671109586
 20
158.14437041411529
 40
0.2321758785763302
  0
CIRCLE
  8
_1-0_
  6
CONTINUOUS
 62
    7
 10
197.35184128220018
 20
157.43999584301099
 40
0.2321758785763302
  0
CIRCLE
  8
_1-0_
  6
CONTINUOUS
 62
    7
 10
198.76057805241766
 20
158.84874498521961
 40
0.2321758785763302
  0
CIRCLE
  8
_1-0_
  6
CONTINUOUS
 62
    7
 10
201.43719647381758
 20
156.5947537808805
 40
0.2321758785763302
  0
CIRCLE
  8
_1-0_
  6
CONTINUOUS
 62
    7
 10
199.74669997756547
 20
154.90425728462839
 40
0.2321758785763302
  0
CIRCLE
  8
_1-0_
  6
CONTINUOUS
 62
    7
 10
199.18320526947846
 20
156.03124670080237
 40
0.2321758785763302
  0
CIRCLE
  8
_1-0_
  6
CONTINUOUS
 62
    7
 10
201.71894382786107
 20
154.34076257654138
 40
0.2321758785763302
  0
CIRCLE
  8
_1-0_
  6
CONTINUOUS
 62
    7
 10
202.84593324403505
 20
154.48163006756758
 40
0.2321758785763302
  0
CIRCLE
  8
_1-0_
  6
CONTINUOUS
 62
    7
 10
202.98681310705237
 20
156.45387391786318
 40
0.2321758785763302
  0
CIRCLE
  8
_1-0_
  6
CONTINUOUS
 62
    7
 10
200.87370176573057
 20
158.14437041411529
 40
0.2321758785763302
  0
CIRCLE
  8
_1-0_
  6
CONTINUOUS
 62
    7
 10
206.50867359058279
 20
154.90425728462839
 40
0.2321758785763302
  0
CIRCLE
  8
_1-0_
  6
CONTINUOUS
 62
    7
 10
205.66343152845229
 20
153.21376078837628
 40
0.2321758785763302
  0
CIRCLE
  8
_1-0_
  6
CONTINUOUS
 62
    7
 10
203.97293503220018
 20
152.36851872624578
 40
0.2321758785763302
  0
CIRCLE
  8
_1-0_
  6
CONTINUOUS
 62
    7
 10
202.00069118190459
 20
152.93201343433279
 40
0.2321758785763302
  0
CIRCLE
  8
_1-0_
  6
CONTINUOUS
 62
    7
 10
204.959056957348
 20
154.48163006756758
 40
0.2321758785763302
  0
CIRCLE
  8
_1-0_
  6
CONTINUOUS
 62
    7
 10
204.67730960330448
 20
155.8903792097762
 40
0.2321758785763302
  0
CIRCLE
  8
_1-0_
  6
CONTINUOUS
 62
    7
 10
208.62178493190459
 20
155.32688450168919
 40
0.2321758785763302
  0
CIRCLE
  8
_1-0_
  6
CONTINUOUS
 62
    7
 10
211.72101819837417
 20
153.7772678684544
 40
0.2321758785763302
  0
CIRCLE
  8
_1-0_
  6
CONTINUOUS
 62
    7
 10
208.76267716691302
 20
152.65026608028927
 40
0.2321758785763302
  0
CIRCLE
  8
_1-0_
  6
CONTINUOUS
 62
    7
 10
207.91742273279141
 20
153.49550814241977
 40
0.2321758785763302
  0
CIRCLE
  8
_1-0_
  6
CONTINUOUS
 62
    7
 10
207.21304816168708
 20
151.8050240181588
 40
0.2321758785763302
  0
CIRCLE
  8
_1-0_
  6
CONTINUOUS
 62
    7
 10
210.73492101720862
 20
150.67802222999367
 40
0.2321758785763302
  0
CIRCLE
  8
_1-0_
  6
CONTINUOUS
 62
    7
 10
212.28453765044341
 20
149.83278016786318
 40
0.2321758785763302
  0
CIRCLE
  8
_1-0_
  6
CONTINUOUS
 62
    7
 10
210.03053407411318
 20
151.8050240181588
 40
0.2321758785763302
  0
CIRCLE
  8
_1-0_
  6
CONTINUOUS
 62
    7
 10
208.62178493190459
 20
150.81890209301099
 40
0.2321758785763302
  0
CIRCLE
  8
_1-0_
  6
CONTINUOUS
 62
    7
 10
212.98889984955659
 20
151.8050240181588
 40
0.2321758785763302
  0
CIRCLE
  8
_1-0_
  6
CONTINUOUS
 62
    7
 10
214.96114369985222
 20
149.41015295080237
 40
0.2321758785763302
  0
CIRCLE
  8
_1-0_
  6
CONTINUOUS
 62
    7
 10
212.70714012352198
 20
148.70577837969807
 40
0.2321758785763302
  0
CIRCLE
  8
_1-0_
  6
CONTINUOUS
 62
    7
 10
216.22900060705237
 20
150.67802222999367
 40
0.2321758785763302
  0
CIRCLE
  8
_1-0_
  6
CONTINUOUS
 62
    7
 10
218.48297943940034
 20
149.69190030484586
 40
0.2321758785763302
  0
CIRCLE
  8
_1-0_
  6
CONTINUOUS
 62
    7
 10
216.65162782411318
 20
147.86053631756758
 40
0.2321758785763302
  0
CIRCLE
  8
_1-0_
  6
CONTINUOUS
 62
    7
 10
214.53851648279141
 20
147.86053631756758
 40
0.2321758785763302
  0
CIRCLE
  8
_1-0_
  6
CONTINUOUS
 62
    7
 10
215.24287868190459
 20
151.10064944705448
 40
0.2321758785763302
  0
CIRCLE
  8
_1-0_
  6
CONTINUOUS
 62
    7
 10
214.82027620882602
 20
152.08677137220229
 40
0.2321758785763302
  0
CIRCLE
  8
_1-0_
  6
CONTINUOUS
 62
    7
 10
215.80637338999156
 20
149.83278016786318
 40
0.2321758785763302
  0
CIRCLE
  8
_1-0_
  6
CONTINUOUS
 62
    7
 10
216.51076033308701
 20
149.12840559675888
 40
0.2321758785763302
  0
CIRCLE
  8
_1-0_
  6
CONTINUOUS
 62
    7
 10
217.91950947529563
 20
150.5371547389675
 40
0.2321758785763302
  0
CIRCLE
  8
_1-0_
  6
CONTINUOUS
 62
    7
 10
220.5961155247044
 20
148.28316353462839
 40
0.2321758785763302
  0
CIRCLE
  8
_1-0_
  6
CONTINUOUS
 62
    7
 10
218.90560665646117
 20
146.59266703837628
 40
0.2321758785763302
  0
CIRCLE
  8
_1-0_
  6
CONTINUOUS
 62
    7
 10
218.34213669235643
 20
147.71965645455026
 40
0.2321758785763302
  0
CIRCLE
  8
_1-0_
  6
CONTINUOUS
 62
    7
 10
220.87785050675677
 20
146.02917233028927
 40
0.2321758785763302
  0
CIRCLE
  8
_1-0_
  6
CONTINUOUS
 62
    7
 10
222.00483992293076
 20
146.17003982131547
 40
0.2321758785763302
  0
CIRCLE
  8
_1-0_
  6
CONTINUOUS
 62
    7
 10
222.14573215793919
 20
148.14228367161107
 40
0.2321758785763302
  0
CIRCLE
  8
_1-0_
  6
CONTINUOUS
 62
    7
 10
220.03262081661742
 20
149.83278016786318
 40
0.2321758785763302
  0
CIRCLE
  8
_1-0_
  6
CONTINUOUS
 62
    7
 10
224.822338207348
 20
144.90217054212417
 40
0.2321758785763302
  0
CIRCLE
  8
_1-0_
  6
CONTINUOUS
 62
    7
 10
223.13185408308701
 20
144.05692847999367
 40
0.2321758785763302
  0
CIRCLE
  8
_1-0_
  6
CONTINUOUS
 62
    7
 10
221.15961023279141
 20
144.62042318808068
 40
0.2321758785763302
  0
CIRCLE
  8
_1-0_
  6
CONTINUOUS
 62
    7
 10
224.11797600823482
 20
146.17003982131547
 40
0.2321758785763302
  0
CIRCLE
  8
_1-0_
  6
CONTINUOUS
 62
    7
 10
223.83624102618245
 20
147.57878896352409
 40
0.2321758785763302
  0
CIRCLE
  8
_1-0_
  6
CONTINUOUS
 62
    7
 10
230.03470755912164
 20
144.62041081608953
 40
0.2321758785763302
  0
CIRCLE
  8
_1-0_
  6
CONTINUOUS
 62
    7
 10
232.28868639146961
 20
143.63428889094172
 40
0.2321758785763302
  0
CIRCLE
  8
_1-0_
  6
CONTINUOUS
 62
    7
 10
230.45733477618245
 20
141.80292490366344
 40
0.2321758785763302
  0
CIRCLE
  8
_1-0_
  6
CONTINUOUS
 62
    7
 10
228.34422343486065
 20
141.80292490366344
 40
0.2321758785763302
  0
CIRCLE
  8
_1-0_
  6
CONTINUOUS
 62
    7
 10
229.04858563397383
 20
145.04303803315034
 40
0.2321758785763302
  0
CIRCLE
  8
_1-0_
  6
CONTINUOUS
 62
    7
 10
228.62598316089529
 20
146.02915995829815
 40
0.2321758785763302
  0
CIRCLE
  8
_1-0_
  6
CONTINUOUS
 62
    7
 10
229.61208034206084
 20
143.77516875395904
 40
0.2321758785763302
  0
CIRCLE
  8
_1-0_
  6
CONTINUOUS
 62
    7
 10
230.31646728515625
 20
143.07079418285474
 40
0.2321758785763302
  0
CIRCLE
  8
_1-0_
  6
CONTINUOUS
 62
    7
 10
231.72521642736487
 20
144.47954332506336
 40
0.2321758785763302
  0
CIRCLE
  8
_1-0_
  6
CONTINUOUS
 62
    7
 10
234.40182247677367
 20
142.22555212072425
 40
0.2321758785763302
  0
CIRCLE
  8
_1-0_
  6
CONTINUOUS
 62
    7
 10
232.71131360853042
 20
140.53505562447214
 40
0.2321758785763302
  0
CIRCLE
  8
_1-0_
  6
CONTINUOUS
 62
    7
 10
232.14784364442568
 20
141.66204504064612
 40
0.2321758785763302
  0
CIRCLE
  8
_1-0_
  6
CONTINUOUS
 62
    7
 10
234.68355745882602
 20
139.97156091638513
 40
0.2321758785763302
  0
CIRCLE
  8
_1-0_
  6
CONTINUOUS
 62
    7
 10
235.810546875
 20
140.11242840741133
 40
0.2321758785763302
  0
CIRCLE
  8
_1-0_
  6
CONTINUOUS
 62
    7
 10
235.95143911000847
 20
142.08467225770693
 40
0.2321758785763302
  0
CIRCLE
  8
_1-0_
  6
CONTINUOUS
 62
    7
 10
233.83832776868667
 20
143.77516875395904
 40
0.2321758785763302
  0
CIRCLE
  8
_1-0_
  6
CONTINUOUS
 62
    7
 10
238.62804515941724
 20
138.84455912822003
 40
0.2321758785763302
  0
CIRCLE
  8
_1-0_
  6
CONTINUOUS
 62
    7
 10
236.93756103515625
 20
137.99931706608953
 40
0.2321758785763302
  0
CIRCLE
  8
_1-0_
  6
CONTINUOUS
 62
    7
 10
234.96531718486065
 20
138.56281177417654
 40
0.2321758785763302
  0
CIRCLE
  8
_1-0_
  6
CONTINUOUS
 62
    7
 10
237.92368296030406
 20
140.11242840741133
 40
0.2321758785763302
  0
CIRCLE
  8
_1-0_
  6
CONTINUOUS
 62
    7
 10
237.64194797825169
 20
141.52117754961995
 40
0.2321758785763302
  0
CIRCLE
  8
_1-0_
  6
CONTINUOUS
 62
    7
 10
244.73416715054901
 20
137.87643845016893
 40
0.2321758785763302
  0
CIRCLE
  8
_1-0_
  6
CONTINUOUS
 62
    7
 10
246.98814598289698
 20
136.89031652502112
 40
0.2321758785763302
  0
CIRCLE
  8
_1-0_
  6
CONTINUOUS
 62
    7
 10
245.15679436760982
 20
135.05895253774284
 40
0.2321758785763302
  0
CIRCLE
  8
_1-0_
  6
CONTINUOUS
 62
    7
 10
243.04368302628802
 20
135.05895253774284
 40
0.2321758785763302
  0
CIRCLE
  8
_1-0_
  6
CONTINUOUS
 62
    7
 10
243.7480452254012
 20
138.29906566722974
 40
0.2321758785763302
  0
CIRCLE
  8
_1-0_
  6
CONTINUOUS
 62
    7
 10
243.32544275232266
 20
139.28518759237755
 40
0.2321758785763302
  0
CIRCLE
  8
_1-0_
  6
CONTINUOUS
 62
    7
 10
244.31153993348818
 20
137.03119638803844
 40
0.2321758785763302
  0
CIRCLE
  8
_1-0_
  6
CONTINUOUS
 62
    7
 10
245.01592687658362
 20
136.32682181693414
 40
0.2321758785763302
  0
CIRCLE
  8
_1-0_
  6
CONTINUOUS
 62
    7
 10
246.42467601879224
 20
137.73557095914273
 40
0.2321758785763302
  0
CIRCLE
  8
_1-0_
  6
CONTINUOUS
 62
    7
 10
249.10128206820102
 20
135.48157975480365
 40
0.2321758785763302
  0
CIRCLE
  8
_1-0_
  6
CONTINUOUS
 62
    7
 10
247.41077319995779
 20
133.79108325855154
 40
0.2321758785763302
  0
CIRCLE
  8
_1-0_
  6
CONTINUOUS
 62
    7
 10
246.84730323585305
 20
134.91807267472552
 40
0.2321758785763302
  0
CIRCLE
  8
_1-0_
  6
CONTINUOUS
 62
    7
 10
249.38301705025339
 20
133.22758855046453
 40
0.2321758785763302
  0
CIRCLE
  8
_1-0_
  6
CONTINUOUS
 62
    7
 10
250.51000646642737
 20
133.36845604149073
 40
0.2321758785763302
  0
CIRCLE
  8
_1-0_
  6
CONTINUOUS
 62
    7
 10
250.65089870143584
 20
135.34069989178633
 40
0.2321758785763302
  0
CIRCLE
  8
_1-0_
  6
CONTINUOUS
 62
    7
 10
248.53778736011404
 20
137.03119638803844
 40
0.2321758785763302
  0
CIRCLE
  8
_1-0_
  6
CONTINUOUS
 62
    7
 10
253.32750475084461
 20
132.10058676229943
 40
0.2321758785763302
  0
CIRCLE
  8
_1-0_
  6
CONTINUOUS
 62
    7
 10
251.63702062658362
 20
131.25534470016893
 40
0.2321758785763302
  0
CIRCLE
  8
_1-0_
  6
CONTINUOUS
 62
    7
 10
249.66477677628802
 20
131.81883940825591
 40
0.2321758785763302
  0
CIRCLE
  8
_1-0_
  6
CONTINUOUS
 62
    7
 10
252.62314255173143
 20
133.36845604149073
 40
0.2321758785763302
  0
CIRCLE
  8
_1-0_
  6
CONTINUOUS
 62
    7
 10
252.34140756967906
 20
134.77720518369932
 40
0.2321758785763302
  0
CIRCLE
  8
_1-0_
  6
CONTINUOUS
 62
    7
 10
250.57107461465372
 20
134.86954972550677
 40
0.2321758785763302
  0
CIRCLE
  8
_1-0_
  6
CONTINUOUS
 62
    7
 10
252.82505344700169
 20
133.88342780035896
 40
0.2321758785763302
  0
CIRCLE
  8
_1-0_
  6
CONTINUOUS
 62
    7
 10
250.99370183171453
 20
132.05206381308068
 40
0.2321758785763302
  0
CIRCLE
  8
_1-0_
  6
CONTINUOUS
 62
    7
 10
248.88059049039276
 20
132.05206381308068
 40
0.2321758785763302
  0
CIRCLE
  8
_1-0_
  6
CONTINUOUS
 62
    7
 10
249.58495268950594
 20
135.29217694256758
 40
0.2321758785763302
  0
CIRCLE
  8
_1-0_
  6
CONTINUOUS
 62
    7
 10
249.16235021642737
 20
136.27829886771539
 40
0.2321758785763302
  0
CIRCLE
  8
_1-0_
  6
CONTINUOUS
 62
    7
 10
250.14844739759292
 20
134.02430766337628
 40
0.2321758785763302
  0
CIRCLE
  8
_1-0_
  6
CONTINUOUS
 62
    7
 10
250.85283434068836
 20
133.31993309227198
 40
0.2321758785763302
  0
CIRCLE
  8
_1-0_
  6
CONTINUOUS
 62
    7
 10
252.26158348289698
 20
134.72868223448057
 40
0.2321758785763302
  0
CIRCLE
  8
_1-0_
  6
CONTINUOUS
 62
    7
 10
254.93818953230576
 20
132.47469103014149
 40
0.2321758785763302
  0
CIRCLE
  8
_1-0_
  6
CONTINUOUS
 62
    7
 10
253.2476806640625
 20
130.78419453388938
 40
0.2321758785763302
  0
CIRCLE
  8
_1-0_
  6
CONTINUOUS
 62
    7
 10
252.68421069995779
 20
131.91118395006336
 40
0.2321758785763302
  0
CIRCLE
  8
_1-0_
  6
CONTINUOUS
 62
    7
 10
255.21992451435813
 20
130.22069982580237
 40
0.2321758785763302
  0
CIRCLE
  8
_1-0_
  6
CONTINUOUS
 62
    7
 10
256.34691393053208
 20
130.36156731682854
 40
0.2321758785763302
  0
CIRCLE
  8
_1-0_
  6
CONTINUOUS
 62
    7
 10
256.48780616554058
 20
132.33381116712417
 40
0.2321758785763302
  0
CIRCLE
  8
_1-0_
  6
CONTINUOUS
 62
    7
 10
254.37469482421875
 20
134.02430766337628
 40
0.2321758785763302
  0
CIRCLE
  8
_1-0_
  6
CONTINUOUS
 62
    7
 10
259.16441221494932
 20
129.09369803763727
 40
0.2321758785763302
  0
CIRCLE
  8
_1-0_
  6
CONTINUOUS
 62
    7
 10
257.47392809068833
 20
128.24845597550677
 40
0.2321758785763302
  0
CIRCLE
  8
_1-0_
  6
CONTINUOUS
 62
    7
 10
255.50168424039276
 20
128.81195068359375
 40
0.2321758785763302
  0
CIRCLE
  8
_1-0_
  6
CONTINUOUS
 62
    7
 10
258.46005001583615
 20
130.36156731682854
 40
0.2321758785763302
  0
CIRCLE
  8
_1-0_
  6
CONTINUOUS
 62
    7
 10
258.1783150337838
 20
131.77031645903716
 40
0.2321758785763302
  0
CIRCLE
  8
_1-0_
  6
CONTINUOUS
 62
    7
 10
274.44931442673146
 20
124.2570041965794
 40
0.2321758785763302
  0
CIRCLE
  8
_1-0_
  6
CONTINUOUS
 62
    7
 10
276.70329325907943
 20
123.27088227143159
 40
0.2321758785763302
  0
CIRCLE
  8
_1-0_
  6
CONTINUOUS
 62
    7
 10
274.87194164379224
 20
121.43951828415329
 40
0.2321758785763302
  0
CIRCLE
  8
_1-0_
  6
CONTINUOUS
 62
    7
 10
272.75883030247047
 20
121.43951828415329
 40
0.2321758785763302
  0
CIRCLE
  8
_1-0_
  6
CONTINUOUS
 62
    7
 10
273.46319250158365
 20
124.67963141364021
 40
0.2321758785763302
  0
CIRCLE
  8
_1-0_
  6
CONTINUOUS
 62
    7
 10
273.04059002850511
 20
125.66575333878801
 40
0.2321758785763302
  0
CIRCLE
  8
_1-0_
  6
CONTINUOUS
 62
    7
 10
274.02668720967063
 20
123.41176213444891
 40
0.2321758785763302
  0
CIRCLE
  8
_1-0_
  6
CONTINUOUS
 62
    7
 10
274.73107415276604
 20
122.7073875633446
 40
0.2321758785763302
  0
CIRCLE
  8
_1-0_
  6
CONTINUOUS
 62
    7
 10
276.13982329497469
 20
124.11613670555322
 40
0.2321758785763302
  0
CIRCLE
  8
_1-0_
  6
CONTINUOUS
 62
    7
 10
278.81642934438344
 20
121.86214550121412
 40
0.2321758785763302
  0
CIRCLE
  8
_1-0_
  6
CONTINUOUS
 62
    7
 10
277.12592047614021
 20
120.17164900496201
 40
0.2321758785763302
  0
CIRCLE
  8
_1-0_
  6
CONTINUOUS
 62
    7
 10
276.56245051203547
 20
121.29863842113599
 40
0.2321758785763302
  0
CIRCLE
  8
_1-0_
  6
CONTINUOUS
 62
    7
 10
279.09816432643584
 20
119.608154296875
 40
0.2321758785763302
  0
CIRCLE
  8
_1-0_
  6
CONTINUOUS
 62
    7
 10
280.22515374260979
 20
119.74902178790119
 40
0.2321758785763302
  0
CIRCLE
  8
_1-0_
  6
CONTINUOUS
 62
    7
 10
280.36604597761828
 20
121.7212656381968
 40
0.2321758785763302
  0
CIRCLE
  8
_1-0_
  6
CONTINUOUS
 62
    7
 10
278.25293463629646
 20
123.41176213444891
 40
0.2321758785763302
  0
CIRCLE
  8
_1-0_
  6
CONTINUOUS
 62
    7
 10
283.04265202702703
 20
118.48115250870988
 40
0.2321758785763302
  0
CIRCLE
  8
_1-0_
  6
CONTINUOUS
 62
    7
 10
281.35216790276604
 20
117.6359104465794
 40
0.2321758785763302
  0
CIRCLE
  8
_1-0_
  6
CONTINUOUS
 62
    7
 10
279.37992405247047
 20
118.19940515466639
 40
0.2321758785763302
  0
CIRCLE
  8
_1-0_
  6
CONTINUOUS
 62
    7
 10
282.33828982791385
 20
119.74902178790119
 40
0.2321758785763302
  0
CIRCLE
  8
_1-0_
  6
CONTINUOUS
 62
    7
 10
282.05655484586151
 20
121.15777093010981
 40
0.2321758785763302
  0
CIRCLE
  8
_1-0_
  6
CONTINUOUS
 62
    7
 10
260.82988017314193
 20
130.97828633076438
 40
0.2321758785763302
  0
CIRCLE
  8
_1-0_
  6
CONTINUOUS
 62
    7
 10
263.0838590054899
 20
129.99216440561656
 40
0.2321758785763302
  0
CIRCLE
  8
_1-0_
  6
CONTINUOUS
 62
    7
 10
261.25250739020271
 20
128.16080041833825
 40
0.2321758785763302
  0
CIRCLE
  8
_1-0_
  6
CONTINUOUS
 62
    7
 10
259.13939604888094
 20
128.16080041833825
 40
0.2321758785763302
  0
CIRCLE
  8
_1-0_
  6
CONTINUOUS
 62
    7
 10
259.84375824799412
 20
131.40091354782518
 40
0.2321758785763302
  0
CIRCLE
  8
_1-0_
  6
CONTINUOUS
 62
    7
 10
259.42115577491558
 20
132.38703547297297
 40
0.2321758785763302
  0
CIRCLE
  8
_1-0_
  6
CONTINUOUS
 62
    7
 10
260.40725295608109
 20
130.13304426863388
 40
0.2321758785763302
  0
CIRCLE
  8
_1-0_
  6
CONTINUOUS
 62
    7
 10
261.11163989917651
 20
129.42866969752956
 40
0.2321758785763302
  0
CIRCLE
  8
_1-0_
  6
CONTINUOUS
 62
    7
 10
262.52038904138516
 20
130.83741883973818
 40
0.2321758785763302
  0
CIRCLE
  8
_1-0_
  6
CONTINUOUS
 62
    7
 10
265.19699509079396
 20
128.58342763539909
 40
0.2321758785763302
  0
CIRCLE
  8
_1-0_
  6
CONTINUOUS
 62
    7
 10
263.50648622255068
 20
126.89293113914697
 40
0.2321758785763302
  0
CIRCLE
  8
_1-0_
  6
CONTINUOUS
 62
    7
 10
262.94301625844594
 20
128.01992055532097
 40
0.2321758785763302
  0
CIRCLE
  8
_1-0_
  6
CONTINUOUS
 62
    7
 10
265.4787300728463
 20
126.32943643105997
 40
0.2321758785763302
  0
CIRCLE
  8
_1-0_
  6
CONTINUOUS
 62
    7
 10
266.60571948902026
 20
126.47030392208616
 40
0.2321758785763302
  0
CIRCLE
  8
_1-0_
  6
CONTINUOUS
 62
    7
 10
266.74661172402875
 20
128.44254777238177
 40
0.2321758785763302
  0
CIRCLE
  8
_1-0_
  6
CONTINUOUS
 62
    7
 10
264.63350038270693
 20
130.13304426863388
 40
0.2321758785763302
  0
CIRCLE
  8
_1-0_
  6
CONTINUOUS
 62
    7
 10
269.4232177734375
 20
125.20243464289486
 40
0.2321758785763302
  0
CIRCLE
  8
_1-0_
  6
CONTINUOUS
 62
    7
 10
267.73273364917651
 20
124.35719258076436
 40
0.2321758785763302
  0
CIRCLE
  8
_1-0_
  6
CONTINUOUS
 62
    7
 10
265.76048979888094
 20
124.92068728885135
 40
0.2321758785763302
  0
CIRCLE
  8
_1-0_
  6
CONTINUOUS
 62
    7
 10
268.71885557432432
 20
126.47030392208616
 40
0.2321758785763302
  0
CIRCLE
  8
_1-0_
  6
CONTINUOUS
 62
    7
 10
268.43712059227198
 20
127.87905306429477
 40
0.2321758785763302
  0
CIRCLE
  8
_1-0_
  6
CONTINUOUS
 62
    7
 10
282.762451171875
 20
120.71949314426732
 40
0.2321758785763302
  0
CIRCLE
  8
_1-0_
  6
CONTINUOUS
 62
    7
 10
285.01643000422297
 20
119.73337121911952
 40
0.2321758785763302
  0
CIRCLE
  8
_1-0_
  6
CONTINUOUS
 62
    7
 10
283.18507838893584
 20
117.90200723184122
 40
0.2321758785763302
  0
CIRCLE
  8
_1-0_
  6
CONTINUOUS
 62
    7
 10
281.07196704761401
 20
117.90200723184122
 40
0.2321758785763302
  0
CIRCLE
  8
_1-0_
  6
CONTINUOUS
 62
    7
 10
281.77632924672719
 20
121.14212036132812
 40
0.2321758785763302
  0
CIRCLE
  8
_1-0_
  6
CONTINUOUS
 62
    7
 10
281.35372677364865
 20
122.12824228647594
 40
0.2321758785763302
  0
CIRCLE
  8
_1-0_
  6
CONTINUOUS
 62
    7
 10
282.33982395481422
 20
119.87425108213684
 40
0.2321758785763302
  0
CIRCLE
  8
_1-0_
  6
CONTINUOUS
 62
    7
 10
283.04421089790964
 20
119.16987651103253
 40
0.2321758785763302
  0
CIRCLE
  8
_1-0_
  6
CONTINUOUS
 62
    7
 10
284.45296004011828
 20
120.57862565324113
 40
0.2321758785763302
  0
CIRCLE
  8
_1-0_
  6
CONTINUOUS
 62
    7
 10
287.12956608952703
 20
118.32463444890203
 40
0.2321758785763302
  0
CIRCLE
  8
_1-0_
  6
CONTINUOUS
 62
    7
 10
285.4390572212838
 20
116.63413795264992
 40
0.2321758785763302
  0
CIRCLE
  8
_1-0_
  6
CONTINUOUS
 62
    7
 10
284.87558725717906
 20
117.76112736882391
 40
0.2321758785763302
  0
CIRCLE
  8
_1-0_
  6
CONTINUOUS
 62
    7
 10
287.41130107157943
 20
116.07064324456293
 40
0.2321758785763302
  0
CIRCLE
  8
_1-0_
  6
CONTINUOUS
 62
    7
 10
288.53829048775339
 20
116.21151073558912
 40
0.2321758785763302
  0
CIRCLE
  8
_1-0_
  6
CONTINUOUS
 62
    7
 10
288.67918272276182
 20
118.18375458588471
 40
0.2321758785763302
  0
CIRCLE
  8
_1-0_
  6
CONTINUOUS
 62
    7
 10
286.56607138144005
 20
119.87425108213684
 40
0.2321758785763302
  0
CIRCLE
  8
_1-0_
  6
CONTINUOUS
 62
    7
 10
291.35578877217063
 20
114.94364145639781
 40
0.2321758785763302
  0
CIRCLE
  8
_1-0_
  6
CONTINUOUS
 62
    7
 10
289.66530464790964
 20
114.09839939426732
 40
0.2321758785763302
  0
CIRCLE
  8
_1-0_
  6
CONTINUOUS
 62
    7
 10
287.69306079761401
 20
114.66189410235431
 40
0.2321758785763302
  0
CIRCLE
  8
_1-0_
  6
CONTINUOUS
 62
    7
 10
290.65142657305745
 20
116.21151073558912
 40
0.2321758785763302
  0
CIRCLE
  8
_1-0_
  6
CONTINUOUS
 62
    7
 10
290.36969159100511
 20
117.62025987779772
 40
0.2321758785763302
  0
CIRCLE
  8
_1-0_
  6
CONTINUOUS
 62
    7
 10
294.43626610008448
 20
116.12072506466428
 40
0.2321758785763302
  0
CIRCLE
  8
_1-0_
  6
CONTINUOUS
 62
    7
 10
296.69024493243245
 20
115.13460313951647
 40
0.2321758785763302
  0
CIRCLE
  8
_1-0_
  6
CONTINUOUS
 62
    7
 10
294.85889331714526
 20
113.30323915223818
 40
0.2321758785763302
  0
CIRCLE
  8
_1-0_
  6
CONTINUOUS
 62
    7
 10
292.74578197582349
 20
113.30323915223818
 40
0.2321758785763302
  0
CIRCLE
  8
_1-0_
  6
CONTINUOUS
 62
    7
 10
293.45014417493667
 20
116.54335228172509
 40
0.2321758785763302
  0
CIRCLE
  8
_1-0_
  6
CONTINUOUS
 62
    7
 10
293.02754170185813
 20
117.52947420687289
 40
0.2321758785763302
  0
CIRCLE
  8
_1-0_
  6
CONTINUOUS
 62
    7
 10
294.01363888302365
 20
115.27548300253379
 40
0.2321758785763302
  0
CIRCLE
  8
_1-0_
  6
CONTINUOUS
 62
    7
 10
294.71802582611912
 20
114.57110843142948
 40
0.2321758785763302
  0
CIRCLE
  8
_1-0_
  6
CONTINUOUS
 62
    7
 10
296.12677496832771
 20
115.9798575736381
 40
0.2321758785763302
  0
CIRCLE
  8
_1-0_
  6
CONTINUOUS
 62
    7
 10
298.80338101773651
 20
113.725866369299
 40
0.2321758785763302
  0
CIRCLE
  8
_1-0_
  6
CONTINUOUS
 62
    7
 10
297.11287214949328
 20
112.03536987304688
 40
0.2321758785763302
  0
CIRCLE
  8
_1-0_
  6
CONTINUOUS
 62
    7
 10
296.54940218538854
 20
113.16235928922087
 40
0.2321758785763302
  0
CIRCLE
  8
_1-0_
  6
CONTINUOUS
 62
    7
 10
299.08511599978885
 20
111.47187516495988
 40
0.2321758785763302
  0
CIRCLE
  8
_1-0_
  6
CONTINUOUS
 62
    7
 10
300.21210541596287
 20
111.61274265598607
 40
0.2321758785763302
  0
CIRCLE
  8
_1-0_
  6
CONTINUOUS
 62
    7
 10
300.3529976509713
 20
113.58498650628168
 40
0.2321758785763302
  0
CIRCLE
  8
_1-0_
  6
CONTINUOUS
 62
    7
 10
298.23988630964953
 20
115.27548300253379
 40
0.2321758785763302
  0
CIRCLE
  8
_1-0_
  6
CONTINUOUS
 62
    7
 10
303.02960370038011
 20
110.34487337679477
 40
0.2321758785763302
  0
CIRCLE
  8
_1-0_
  6
CONTINUOUS
 62
    7
 10
301.33911957611912
 20
109.49963131466428
 40
0.2321758785763302
  0
CIRCLE
  8
_1-0_
  6
CONTINUOUS
 62
    7
 10
299.36687572582349
 20
110.06312602275128
 40
0.2321758785763302
  0
CIRCLE
  8
_1-0_
  6
CONTINUOUS
 62
    7
 10
302.32524150126693
 20
111.61274265598607
 40
0.2321758785763302
  0
CIRCLE
  8
_1-0_
  6
CONTINUOUS
 62
    7
 10
302.04350651921453
 20
113.02149179819469
 40
0.2321758785763302
  0
CIRCLE
  8
_1-0_
  6
CONTINUOUS
 62
    7
 10
307.70193563925255
 20
109.39944293047931
 40
0.2321758785763302
  0
CIRCLE
  8
_1-0_
  6
CONTINUOUS
 62
    7
 10
309.95593921558276
 20
108.41332100533151
 40
0.2321758785763302
  0
CIRCLE
  8
_1-0_
  6
CONTINUOUS
 62
    7
 10
308.12456285631339
 20
106.58195701805322
 40
0.2321758785763302
  0
CIRCLE
  8
_1-0_
  6
CONTINUOUS
 62
    7
 10
306.01145151499156
 20
106.58195701805322
 40
0.2321758785763302
  0
CIRCLE
  8
_1-0_
  6
CONTINUOUS
 62
    7
 10
306.71581371410474
 20
109.82207014754013
 40
0.2321758785763302
  0
CIRCLE
  8
_1-0_
  6
CONTINUOUS
 62
    7
 10
306.29318649704396
 20
110.80819207268793
 40
0.2321758785763302
  0
CIRCLE
  8
_1-0_
  6
CONTINUOUS
 62
    7
 10
307.27933316617401
 20
108.55420086834883
 40
0.2321758785763302
  0
CIRCLE
  8
_1-0_
  6
CONTINUOUS
 62
    7
 10
307.98369536528719
 20
107.84982629724452
 40
0.2321758785763302
  0
CIRCLE
  8
_1-0_
  6
CONTINUOUS
 62
    7
 10
309.39241976351354
 20
109.25857543945312
 40
0.2321758785763302
  0
CIRCLE
  8
_1-0_
  6
CONTINUOUS
 62
    7
 10
312.06905055690459
 20
107.00458423511402
 40
0.2321758785763302
  0
CIRCLE
  8
_1-0_
  6
CONTINUOUS
 62
    7
 10
310.37856643264359
 20
105.31408773886191
 40
0.2321758785763302
  0
CIRCLE
  8
_1-0_
  6
CONTINUOUS
 62
    7
 10
309.81504698057432
 20
106.4410771550359
 40
0.2321758785763302
  0
CIRCLE
  8
_1-0_
  6
CONTINUOUS
 62
    7
 10
312.35081028293922
 20
104.75059303077492
 40
0.2321758785763302
  0
CIRCLE
  8
_1-0_
  6
CONTINUOUS
 62
    7
 10
313.47779969911318
 20
104.89146052180111
 40
0.2321758785763302
  0
CIRCLE
  8
_1-0_
  6
CONTINUOUS
 62
    7
 10
313.61866719013938
 20
106.86370437209671
 40
0.2321758785763302
  0
CIRCLE
  8
_1-0_
  6
CONTINUOUS
 62
    7
 10
311.50555584881761
 20
108.55420086834883
 40
0.2321758785763302
  0
CIRCLE
  8
_1-0_
  6
CONTINUOUS
 62
    7
 10
316.29529798353042
 20
103.62359124260981
 40
0.2321758785763302
  0
CIRCLE
  8
_1-0_
  6
CONTINUOUS
 62
    7
 10
314.60478911528719
 20
102.77834918047931
 40
0.2321758785763302
  0
CIRCLE
  8
_1-0_
  6
CONTINUOUS
 62
    7
 10
312.63254526499156
 20
103.3418438885663
 40
0.2321758785763302
  0
CIRCLE
  8
_1-0_
  6
CONTINUOUS
 62
    7
 10
315.590911040435
 20
104.89146052180111
 40
0.2321758785763302
  0
CIRCLE
  8
_1-0_
  6
CONTINUOUS
 62
    7
 10
315.30915131440037
 20
106.30020966400971
 40
0.2321758785763302
  0
CIRCLE
  8
_1-0_
  6
CONTINUOUS
 62
    7
 10
318.3144811681799
 20
105.50817953573691
 40
0.2321758785763302
  0
CIRCLE
  8
_1-0_
  6
CONTINUOUS
 62
    7
 10
320.56848474451016
 20
104.52205761058912
 40
0.2321758785763302
  0
CIRCLE
  8
_1-0_
  6
CONTINUOUS
 62
    7
 10
318.73710838524073
 20
102.69069362331082
 40
0.2321758785763302
  0
CIRCLE
  8
_1-0_
  6
CONTINUOUS
 62
    7
 10
316.62399704391896
 20
102.69069362331082
 40
0.2321758785763302
  0
CIRCLE
  8
_1-0_
  6
CONTINUOUS
 62
    7
 10
317.32835924303214
 20
105.93080675279772
 40
0.2321758785763302
  0
CIRCLE
  8
_1-0_
  6
CONTINUOUS
 62
    7
 10
316.9057320259713
 20
106.91692867794553
 40
0.2321758785763302
  0
CIRCLE
  8
_1-0_
  6
CONTINUOUS
 62
    7
 10
317.89187869510135
 20
104.66293747360642
 40
0.2321758785763302
  0
CIRCLE
  8
_1-0_
  6
CONTINUOUS
 62
    7
 10
318.59624089421453
 20
103.95856290250212
 40
0.2321758785763302
  0
CIRCLE
  8
_1-0_
  6
CONTINUOUS
 62
    7
 10
320.00496529244089
 20
105.36731204471073
 40
0.2321758785763302
  0
CIRCLE
  8
_1-0_
  6
CONTINUOUS
 62
    7
 10
322.68159608583193
 20
103.11332084037163
 40
0.2321758785763302
  0
CIRCLE
  8
_1-0_
  6
CONTINUOUS
 62
    7
 10
320.99111196157094
 20
101.42282434411952
 40
0.2321758785763302
  0
CIRCLE
  8
_1-0_
  6
CONTINUOUS
 62
    7
 10
320.42759250950172
 20
102.5498137602935
 40
0.2321758785763302
  0
CIRCLE
  8
_1-0_
  6
CONTINUOUS
 62
    7
 10
322.96335581186656
 20
100.85932963603253
 40
0.2321758785763302
  0
CIRCLE
  8
_1-0_
  6
CONTINUOUS
 62
    7
 10
324.09034522804058
 20
101.00019712705871
 40
0.2321758785763302
  0
CIRCLE
  8
_1-0_
  6
CONTINUOUS
 62
    7
 10
324.23121271906672
 20
102.97244097735431
 40
0.2321758785763302
  0
CIRCLE
  8
_1-0_
  6
CONTINUOUS
 62
    7
 10
322.11810137774495
 20
104.66293747360642
 40
0.2321758785763302
  0
CIRCLE
  8
_1-0_
  6
CONTINUOUS
 62
    7
 10
326.90784351245782
 20
99.73232784786741
 40
0.2321758785763302
  0
CIRCLE
  8
_1-0_
  6
CONTINUOUS
 62
    7
 10
325.21733464421453
 20
98.887085785736915
 40
0.2321758785763302
  0
CIRCLE
  8
_1-0_
  6
CONTINUOUS
 62
    7
 10
323.24509079391896
 20
99.450580493823907
 40
0.2321758785763302
  0
CIRCLE
  8
_1-0_
  6
CONTINUOUS
 62
    7
 10
326.20345656936234
 20
101.00019712705871
 40
0.2321758785763302
  0
CIRCLE
  8
_1-0_
  6
CONTINUOUS
 62
    7
 10
325.92169684332771
 20
102.40894626926732
 40
0.2321758785763302
  0
CIRCLE
  8
_1-0_
  6
CONTINUOUS
 62
    7
 10
304.05642947635135
 20
108.70447107263514
 40
0.2321758785763302
  0
CIRCLE
  8
_1-0_
  6
CONTINUOUS
 62
    7
 10
305.74693834459464
 20
108.56359120961783
 40
0.2321758785763302
  0
CIRCLE
  8
_1-0_
  6
CONTINUOUS
 62
    7
 10
318.56021365603885
 20
101.62944278201542
 40
0.2321758785763302
  0
CIRCLE
  8
_1-0_
  6
CONTINUOUS
 62
    7
 10
320.25072252428214
 20
101.4885629189981
 40
0.2321758785763302
  0
CIRCLE
  8
_1-0_
  6
CONTINUOUS
 62
    7
 10
269.21190416490708
 20
123.73891469594595
 40
0.2321758785763302
  0
CIRCLE
  8
_1-0_
  6
CONTINUOUS
 62
    7
 10
270.90241303315037
 20
123.59803483292863
 40
0.2321758785763302
  0
CIRCLE
  8
_1-0_
  6
CONTINUOUS
 62
    7
 10
271.15752349028719
 20
126.56892106339738
 40
0.2321758785763302
  0
CIRCLE
  8
_1-0_
  6
CONTINUOUS
 62
    7
 10
272.84803235853042
 20
126.42804120038008
 40
0.2321758785763302
  0
CIRCLE
  8
_1-0_
  6
CONTINUOUS
 62
    7
 10
238.96614693306589
 20
136.82771424989443
 40
0.2321758785763302
  0
CIRCLE
  8
_1-0_
  6
CONTINUOUS
 62
    7
 10
240.65665580130914
 20
136.68683438687711
 40
0.2321758785763302
  0
CIRCLE
  8
_1-0_
  6
CONTINUOUS
 62
    7
 10
238.43551223342484
 20
140.54210765941724
 40
0.2321758785763302
  0
CIRCLE
  8
_1-0_
  6
CONTINUOUS
 62
    7
 10
240.1260211016681
 20
140.40122779639992
 40
0.2321758785763302
  0
CIRCLE
  8
_1-0_
  6
CONTINUOUS
 62
    7
 10
226.05421736433701
 20
144.07961871172932
 40
0.2321758785763302
  0
CIRCLE
  8
_1-0_
  6
CONTINUOUS
 62
    7
 10
227.74472623258026
 20
143.93873884871201
 40
0.2321758785763302
  0
CIRCLE
  8
_1-0_
  6
CONTINUOUS
 62
    7
 10
225.52358266469597
 20
145.84838042388091
 40
0.2321758785763302
  0
CIRCLE
  8
_1-0_
  6
CONTINUOUS
 62
    7
 10
227.21409153293919
 20
145.70750056086359
 40
0.2321758785763302
  0
CIRCLE
  8
_1-0_
  6
CONTINUOUS
 62
    7
 10
42.582250028043177
 20
96.780011976087422
 40
0.2321758785763302
  0
CIRCLE
  8
_1-0_
  6
CONTINUOUS
 62
    7
 10
41.305268777383333
 20
96.780011976087422
 40
0.2321758785763302
  0
CIRCLE
  8
_1-0_
  6
CONTINUOUS
 62
    7
 10
43.975323857487865
 20
98.637443748680326
 40
0.2321758785763302
  0
CIRCLE
  8
_1-0_
  6
CONTINUOUS
 62
    7
 10
44.091410250277136
 20
96.663925583298152
 40
0.2321758785763302
  0
CIRCLE
  8
_1-0_
  6
CONTINUOUS
 62
    7
 10
48.154532973830783
 20
98.405258591110652
 40
0.2321758785763302
  0
CIRCLE
  8
_1-0_
  6
CONTINUOUS
 62
    7
 10
50.471222336227839
 20
100.5366681073163
 40
0.2321758785763302
  0
CIRCLE
  8
_1-0_
  6
CONTINUOUS
 62
    7
 10
49.194241085567995
 20
100.5366681073163
 40
0.2321758785763302
  0
CIRCLE
  8
_1-0_
  6
CONTINUOUS
 62
    7
 10
51.864296165672499
 20
102.39409987990921
 40
0.2321758785763302
  0
CIRCLE
  8
_1-0_
  6
CONTINUOUS
 62
    7
 10
51.98038255846177
 20
100.42058171452703
 40
0.2321758785763302
  0
CIRCLE
  8
_1-0_
  6
CONTINUOUS
 62
    7
 10
56.043505282015417
 20
102.16191472233953
 40
0.2321758785763302
  0
CIRCLE
  8
_1-0_
  6
CONTINUOUS
 62
    7
 10
59.111524014859583
 20
103.91766109982053
 40
0.2321758785763302
  0
CIRCLE
  8
_1-0_
  6
CONTINUOUS
 62
    7
 10
57.834542764199739
 20
103.91766109982053
 40
0.2321758785763302
  0
CIRCLE
  8
_1-0_
  6
CONTINUOUS
 62
    7
 10
60.504597844304271
 20
105.77509287241344
 40
0.2321758785763302
  0
CIRCLE
  8
_1-0_
  6
CONTINUOUS
 62
    7
 10
60.620684237093542
 20
103.80157470703125
 40
0.2321758785763302
  0
CIRCLE
  8
_1-0_
  6
CONTINUOUS
 62
    7
 10
64.683806960647189
 20
105.54290771484375
 40
0.2321758785763302
  0
CIRCLE
  8
_1-0_
  6
CONTINUOUS
 62
    7
 10
62.868173960092918
 20
105.79597679344384
 40
0.2321758785763302
  0
CIRCLE
  8
_1-0_
  6
CONTINUOUS
 62
    7
 10
61.591192709433074
 20
105.79597679344384
 40
0.2321758785763302
  0
CIRCLE
  8
_1-0_
  6
CONTINUOUS
 62
    7
 10
64.261247789537606
 20
107.65340856603675
 40
0.2321758785763302
  0
CIRCLE
  8
_1-0_
  6
CONTINUOUS
 62
    7
 10
64.377334182326877
 20
105.67989040065457
 40
0.2321758785763302
  0
CIRCLE
  8
_1-0_
  6
CONTINUOUS
 62
    7
 10
68.440456905880495
 20
107.42122340846707
 40
0.2321758785763302
  0
CIRCLE
  8
_1-0_
  6
CONTINUOUS
 62
    7
 10
71.132806314004426
 20
109.36480135531039
 40
0.2321758785763302
  0
CIRCLE
  8
_1-0_
  6
CONTINUOUS
 62
    7
 10
69.855825063344582
 20
109.36480135531039
 40
0.2321758785763302
  0
CIRCLE
  8
_1-0_
  6
CONTINUOUS
 62
    7
 10
72.525880143449115
 20
111.22223312790329
 40
0.2321758785763302
  0
CIRCLE
  8
_1-0_
  6
CONTINUOUS
 62
    7
 10
72.641966536238385
 20
109.24871496252112
 40
0.2321758785763302
  0
CIRCLE
  8
_1-0_
  6
CONTINUOUS
 62
    7
 10
76.705089259792032
 20
110.99004797033362
 40
0.2321758785763302
  0
CIRCLE
  8
_1-0_
  6
CONTINUOUS
 62
    7
 10
77.519116788297083
 20
111.80662412901184
 40
0.2321758785763302
  0
CIRCLE
  8
_1-0_
  6
CONTINUOUS
 62
    7
 10
76.242135537637239
 20
111.80662412901184
 40
0.2321758785763302
  0
CIRCLE
  8
_1-0_
  6
CONTINUOUS
 62
    7
 10
78.912190617741771
 20
113.66405590160474
 40
0.2321758785763302
  0
CIRCLE
  8
_1-0_
  6
CONTINUOUS
 62
    7
 10
79.028277010531042
 20
111.69053773622255
 40
0.2321758785763302
  0
CIRCLE
  8
_1-0_
  6
CONTINUOUS
 62
    7
 10
83.091399734084675
 20
113.43187074403505
 40
0.2321758785763302
  0
CIRCLE
  8
_1-0_
  6
CONTINUOUS
 62
    7
 10
82.402768521695535
 20
114.06061533335094
 40
0.2321758785763302
  0
CIRCLE
  8
_1-0_
  6
CONTINUOUS
 62
    7
 10
81.125787271035676
 20
114.06061533335094
 40
0.2321758785763302
  0
CIRCLE
  8
_1-0_
  6
CONTINUOUS
 62
    7
 10
83.795842351140209
 20
115.91804710594384
 40
0.2321758785763302
  0
CIRCLE
  8
_1-0_
  6
CONTINUOUS
 62
    7
 10
83.911928743929479
 20
113.94452894056167
 40
0.2321758785763302
  0
CIRCLE
  8
_1-0_
  6
CONTINUOUS
 62
    7
 10
87.975051467483112
 20
115.68586194837417
 40
0.2321758785763302
  0
CIRCLE
  8
_1-0_
  6
CONTINUOUS
 62
    7
 10
87.286414069098399
 20
116.87811361776816
 40
0.2321758785763302
  0
CIRCLE
  8
_1-0_
  6
CONTINUOUS
 62
    7
 10
86.009432818438555
 20
116.87811361776816
 40
0.2321758785763302
  0
CIRCLE
  8
_1-0_
  6
CONTINUOUS
 62
    7
 10
88.679487898543073
 20
118.73554539036107
 40
0.2321758785763302
  0
CIRCLE
  8
_1-0_
  6
CONTINUOUS
 62
    7
 10
88.795574291332358
 20
116.76202722497889
 40
0.2321758785763302
  0
CIRCLE
  8
_1-0_
  6
CONTINUOUS
 62
    7
 10
92.85869701488599
 20
118.50336023279139
 40
0.2321758785763302
  0
CIRCLE
  8
_1-0_
  6
CONTINUOUS
 62
    7
 10
95.926715747730157
 20
120.44692580764358
 40
0.2321758785763302
  0
CIRCLE
  8
_1-0_
  6
CONTINUOUS
 62
    7
 10
94.649734497070313
 20
120.44692580764358
 40
0.2321758785763302
  0
CIRCLE
  8
_1-0_
  6
CONTINUOUS
 62
    7
 10
97.319789577174831
 20
122.3043575802365
 40
0.2321758785763302
  0
CIRCLE
  8
_1-0_
  6
CONTINUOUS
 62
    7
 10
97.435875969964115
 20
120.33083941485431
 40
0.2321758785763302
  0
CIRCLE
  8
_1-0_
  6
CONTINUOUS
 62
    7
 10
101.49899869351775
 20
122.07217242266681
 40
0.2321758785763302
  0
CIRCLE
  8
_1-0_
  6
CONTINUOUS
 62
    7
 10
100.43469815640837
 20
122.7009170119827
 40
0.2321758785763302
  0
CIRCLE
  8
_1-0_
  6
CONTINUOUS
 62
    7
 10
99.157716905748529
 20
122.7009170119827
 40
0.2321758785763302
  0
CIRCLE
  8
_1-0_
  6
CONTINUOUS
 62
    7
 10
101.82777198585305
 20
124.5583487845756
 40
0.2321758785763302
  0
CIRCLE
  8
_1-0_
  6
CONTINUOUS
 62
    7
 10
101.94385837864232
 20
122.58483061919343
 40
0.2321758785763302
  0
CIRCLE
  8
_1-0_
  6
CONTINUOUS
 62
    7
 10
106.00698110219595
 20
124.32616362700593
 40
0.2321758785763302
  0
CIRCLE
  8
_1-0_
  6
CONTINUOUS
 62
    7
 10
111.51682260874156
 20
128.14805726747255
 40
0.2321758785763302
  0
CIRCLE
  8
_1-0_
  6
CONTINUOUS
 62
    7
 10
110.23984754407729
 20
128.14805726747255
 40
0.2321758785763302
  0
CIRCLE
  8
_1-0_
  6
CONTINUOUS
 62
    7
 10
112.90990881017737
 20
130.00548904006547
 40
0.2321758785763302
  0
CIRCLE
  8
_1-0_
  6
CONTINUOUS
 62
    7
 10
113.02598283097551
 20
128.03197087468328
 40
0.2321758785763302
  0
CIRCLE
  8
_1-0_
  6
CONTINUOUS
 62
    7
 10
117.08911792652027
 20
129.77330388249578
 40
0.2321758785763302
  0
CIRCLE
  8
_1-0_
  6
CONTINUOUS
 62
    7
 10
121.28411370354731
 20
132.46820810678844
 40
0.2321758785763302
  0
CIRCLE
  8
_1-0_
  6
CONTINUOUS
 62
    7
 10
120.00713863888303
 20
132.46820810678844
 40
0.2321758785763302
  0
CIRCLE
  8
_1-0_
  6
CONTINUOUS
 62
    7
 10
122.67719990498311
 20
134.32563987938136
 40
0.2321758785763302
  0
CIRCLE
  8
_1-0_
  6
CONTINUOUS
 62
    7
 10
122.79327392578125
 20
132.35212171399917
 40
0.2321758785763302
  0
CIRCLE
  8
_1-0_
  6
CONTINUOUS
 62
    7
 10
126.85640902132602
 20
134.09345472181167
 40
0.2321758785763302
  0
CIRCLE
  8
_1-0_
  6
CONTINUOUS
 62
    7
 10
134.80806092958193
 20
139.23019409179687
 40
0.2321758785763302
  0
CIRCLE
  8
_1-0_
  6
CONTINUOUS
 62
    7
 10
133.53108586491766
 20
139.23019409179687
 40
0.2321758785763302
  0
CIRCLE
  8
_1-0_
  6
CONTINUOUS
 62
    7
 10
136.20114713101773
 20
141.08762586438979
 40
0.2321758785763302
  0
CIRCLE
  8
_1-0_
  6
CONTINUOUS
 62
    7
 10
136.31722115181589
 20
139.1141076990076
 40
0.2321758785763302
  0
CIRCLE
  8
_1-0_
  6
CONTINUOUS
 62
    7
 10
140.38035624736065
 20
140.8554407068201
 40
0.2321758785763302
  0
CIRCLE
  8
_1-0_
  6
CONTINUOUS
 62
    7
 10
128.79742596600508
 20
136.60052737674198
 40
0.2321758785763302
  0
CIRCLE
  8
_1-0_
  6
CONTINUOUS
 62
    7
 10
127.52045090134079
 20
136.60052737674198
 40
0.2321758785763302
  0
CIRCLE
  8
_1-0_
  6
CONTINUOUS
 62
    7
 10
130.19051216744089
 20
138.4579591493349
 40
0.2321758785763302
  0
CIRCLE
  8
_1-0_
  6
CONTINUOUS
 62
    7
 10
130.30658618823904
 20
136.48444098395271
 40
0.2321758785763302
  0
CIRCLE
  8
_1-0_
  6
CONTINUOUS
 62
    7
 10
134.3697212837838
 20
138.22577399176521
 40
0.2321758785763302
  0
CIRCLE
  8
_1-0_
  6
CONTINUOUS
 62
    7
 10
143.82403811892948
 20
144.48950277792443
 40
0.2321758785763302
  0
CIRCLE
  8
_1-0_
  6
CONTINUOUS
 62
    7
 10
142.54706305426521
 20
144.48950277792443
 40
0.2321758785763302
  0
CIRCLE
  8
_1-0_
  6
CONTINUOUS
 62
    7
 10
145.21711194837417
 20
146.34693455051732
 40
0.2321758785763302
  0
CIRCLE
  8
_1-0_
  6
CONTINUOUS
 62
    7
 10
145.33319834116344
 20
144.37341638513513
 40
0.2321758785763302
  0
CIRCLE
  8
_1-0_
  6
CONTINUOUS
 62
    7
 10
149.39632106471706
 20
146.11474939294763
 40
0.2321758785763302
  0
CIRCLE
  8
_1-0_
  6
CONTINUOUS
 62
    7
 10
153.02783450564823
 20
146.36783084353885
 40
0.2321758785763302
  0
CIRCLE
  8
_1-0_
  6
CONTINUOUS
 62
    7
 10
151.75085944098396
 20
146.36783084353885
 40
0.2321758785763302
  0
CIRCLE
  8
_1-0_
  6
CONTINUOUS
 62
    7
 10
154.42090833509292
 20
148.22526261613177
 40
0.2321758785763302
  0
CIRCLE
  8
_1-0_
  6
CONTINUOUS
 62
    7
 10
154.53699472788219
 20
146.25174445074958
 40
0.2321758785763302
  0
CIRCLE
  8
_1-0_
  6
CONTINUOUS
 62
    7
 10
158.60011745143581
 20
147.99307745856208
 40
0.2321758785763302
  0
CIRCLE
  8
_1-0_
  6
CONTINUOUS
 62
    7
 10
164.48563446869721
 20
150.87581325221706
 40
0.2321758785763302
  0
CIRCLE
  8
_1-0_
  6
CONTINUOUS
 62
    7
 10
163.20865940403294
 20
150.87581325221706
 40
0.2321758785763302
  0
CIRCLE
  8
_1-0_
  6
CONTINUOUS
 62
    7
 10
165.8787082981419
 20
152.73324502480997
 40
0.2321758785763302
  0
CIRCLE
  8
_1-0_
  6
CONTINUOUS
 62
    7
 10
165.99479469093117
 20
150.75972685942779
 40
0.2321758785763302
  0
CIRCLE
  8
_1-0_
  6
CONTINUOUS
 62
    7
 10
170.05791741448482
 20
152.50105986724029
 40
0.2321758785763302
  0
CIRCLE
  8
_1-0_
  6
CONTINUOUS
 62
    7
 10
170.68410100163641
 20
154.82028858081716
 40
0.2321758785763302
  0
CIRCLE
  8
_1-0_
  6
CONTINUOUS
 62
    7
 10
169.40712593697214
 20
154.82028858081716
 40
0.2321758785763302
  0
CIRCLE
  8
_1-0_
  6
CONTINUOUS
 62
    7
 10
172.07717483108109
 20
156.67772035341005
 40
0.2321758785763302
  0
CIRCLE
  8
_1-0_
  6
CONTINUOUS
 62
    7
 10
172.19326122387037
 20
154.70420218802789
 40
0.2321758785763302
  0
CIRCLE
  8
_1-0_
  6
CONTINUOUS
 62
    7
 10
176.25638394742398
 20
156.44553519584039
 40
0.2321758785763302
  0
CIRCLE
  8
_1-0_
  6
CONTINUOUS
 62
    7
 10
190.49595188450169
 20
158.61394933752112
 40
0.2321758785763302
  0
CIRCLE
  8
_1-0_
  6
CONTINUOUS
 62
    7
 10
192.74994308884081
 20
157.62782741237331
 40
0.2321758785763302
  0
CIRCLE
  8
_1-0_
  6
CONTINUOUS
 62
    7
 10
190.9185791015625
 20
155.79646342509503
 40
0.2321758785763302
  0
CIRCLE
  8
_1-0_
  6
CONTINUOUS
 62
    7
 10
189.50982995935391
 20
159.03657655458193
 40
0.2321758785763302
  0
CIRCLE
  8
_1-0_
  6
CONTINUOUS
 62
    7
 10
190.07333703943203
 20
157.76870727539062
 40
0.2321758785763302
  0
CIRCLE
  8
_1-0_
  6
CONTINUOUS
 62
    7
 10
190.77771161053633
 20
157.06433270428633
 40
0.2321758785763302
  0
CIRCLE
  8
_1-0_
  6
CONTINUOUS
 62
    7
 10
192.1864483807538
 20
158.47308184649495
 40
0.2321758785763302
  0
CIRCLE
  8
_1-0_
  6
CONTINUOUS
 62
    7
 10
194.86306680215372
 20
156.21909064215583
 40
0.2321758785763302
  0
CIRCLE
  8
_1-0_
  6
CONTINUOUS
 62
    7
 10
193.17257030590162
 20
154.52859414590372
 40
0.2321758785763302
  0
CIRCLE
  8
_1-0_
  6
CONTINUOUS
 62
    7
 10
192.60907559781461
 20
155.65558356207771
 40
0.2321758785763302
  0
CIRCLE
  8
_1-0_
  6
CONTINUOUS
 62
    7
 10
195.14481415619721
 20
153.96509943781672
 40
0.2321758785763302
  0
CIRCLE
  8
_1-0_
  6
CONTINUOUS
 62
    7
 10
196.2718035723712
 20
154.10596692884292
 40
0.2321758785763302
  0
CIRCLE
  8
_1-0_
  6
CONTINUOUS
 62
    7
 10
196.41268343538852
 20
156.07821077913852
 40
0.2321758785763302
  0
CIRCLE
  8
_1-0_
  6
CONTINUOUS
 62
    7
 10
194.29957209406675
 20
157.76870727539062
 40
0.2321758785763302
  0
CIRCLE
  8
_1-0_
  6
CONTINUOUS
 62
    7
 10
199.93454391891893
 20
154.52859414590372
 40
0.2321758785763302
  0
CIRCLE
  8
_1-0_
  6
CONTINUOUS
 62
    7
 10
199.08930185678844
 20
152.83809764965162
 40
0.2321758785763302
  0
CIRCLE
  8
_1-0_
  6
CONTINUOUS
 62
    7
 10
197.39880536053633
 20
151.99285558752112
 40
0.2321758785763302
  0
CIRCLE
  8
_1-0_
  6
CONTINUOUS
 62
    7
 10
195.42656151024073
 20
152.55635029560813
 40
0.2321758785763302
  0
CIRCLE
  8
_1-0_
  6
CONTINUOUS
 62
    7
 10
198.38492728568414
 20
154.10596692884292
 40
0.2321758785763302
  0
CIRCLE
  8
_1-0_
  6
CONTINUOUS
 62
    7
 10
198.10317993164062
 20
155.51471607105154
 40
0.2321758785763302
  0
CIRCLE
  8
_1-0_
  6
CONTINUOUS
 62
    7
 10
202.04765526024073
 20
154.95122136296453
 40
0.2321758785763302
  0
CIRCLE
  8
_1-0_
  6
CONTINUOUS
 62
    7
 10
205.14688852671031
 20
153.40160472972974
 40
0.2321758785763302
  0
CIRCLE
  8
_1-0_
  6
CONTINUOUS
 62
    7
 10
202.18854749524917
 20
152.27460294156461
 40
0.2321758785763302
  0
CIRCLE
  8
_1-0_
  6
CONTINUOUS
 62
    7
 10
201.34329306112755
 20
153.1198450036951
 40
0.2321758785763302
  0
CIRCLE
  8
_1-0_
  6
CONTINUOUS
 62
    7
 10
200.63891849002323
 20
151.42936087943414
 40
0.2321758785763302
  0
CIRCLE
  8
_1-0_
  6
CONTINUOUS
 62
    7
 10
203.45640440244932
 20
151.42936087943414
 40
0.2321758785763302
  0
CIRCLE
  8
_1-0_
  6
CONTINUOUS
 62
    7
 10
206.41477017789273
 20
151.42936087943414
 40
0.2321758785763302
  0
CIRCLE
  8
_1-0_
  6
CONTINUOUS
 62
    7
 10
206.08604637352198
 20
152.60330200195312
 40
0.2321758785763302
  0
CIRCLE
  8
_1-0_
  6
CONTINUOUS
 62
    7
 10
208.34002520586995
 20
151.61718007680534
 40
0.2321758785763302
  0
CIRCLE
  8
_1-0_
  6
CONTINUOUS
 62
    7
 10
206.50867359058279
 20
149.78581608952703
 40
0.2321758785763302
  0
CIRCLE
  8
_1-0_
  6
CONTINUOUS
 62
    7
 10
205.09992444837417
 20
153.02592921901393
 40
0.2321758785763302
  0
CIRCLE
  8
_1-0_
  6
CONTINUOUS
 62
    7
 10
205.66343152845229
 20
151.75805993982263
 40
0.2321758785763302
  0
CIRCLE
  8
_1-0_
  6
CONTINUOUS
 62
    7
 10
206.36780609955659
 20
151.05368536871833
 40
0.2321758785763302
  0
CIRCLE
  8
_1-0_
  6
CONTINUOUS
 62
    7
 10
207.77655524176521
 20
152.46243451092695
 40
0.2321758785763302
  0
CIRCLE
  8
_1-0_
  6
CONTINUOUS
 62
    7
 10
210.45316129117398
 20
150.20844330658784
 40
0.2321758785763302
  0
CIRCLE
  8
_1-0_
  6
CONTINUOUS
 62
    7
 10
208.76265242293076
 20
148.51794681033573
 40
0.2321758785763302
  0
CIRCLE
  8
_1-0_
  6
CONTINUOUS
 62
    7
 10
208.19918245882602
 20
149.64493622650971
 40
0.2321758785763302
  0
CIRCLE
  8
_1-0_
  6
CONTINUOUS
 62
    7
 10
210.73489627322635
 20
147.95445210224875
 40
0.2321758785763302
  0
CIRCLE
  8
_1-0_
  6
CONTINUOUS
 62
    7
 10
211.86188568940034
 20
148.09531959327492
 40
0.2321758785763302
  0
CIRCLE
  8
_1-0_
  6
CONTINUOUS
 62
    7
 10
212.0027779244088
 20
150.06756344357052
 40
0.2321758785763302
  0
CIRCLE
  8
_1-0_
  6
CONTINUOUS
 62
    7
 10
209.88966658308701
 20
151.75805993982263
 40
0.2321758785763302
  0
CIRCLE
  8
_1-0_
  6
CONTINUOUS
 62
    7
 10
215.52463840793919
 20
148.51794681033573
 40
0.2321758785763302
  0
CIRCLE
  8
_1-0_
  6
CONTINUOUS
 62
    7
 10
214.67938397381758
 20
146.82745031408362
 40
0.2321758785763302
  0
CIRCLE
  8
_1-0_
  6
CONTINUOUS
 62
    7
 10
212.98889984955659
 20
145.98220825195312
 40
0.2321758785763302
  0
CIRCLE
  8
_1-0_
  6
CONTINUOUS
 62
    7
 10
211.01665599926099
 20
146.54570296004013
 40
0.2321758785763302
  0
CIRCLE
  8
_1-0_
  6
CONTINUOUS
 62
    7
 10
213.9750217747044
 20
148.09531959327492
 40
0.2321758785763302
  0
CIRCLE
  8
_1-0_
  6
CONTINUOUS
 62
    7
 10
213.69328679265203
 20
149.50406873548354
 40
0.2321758785763302
  0
CIRCLE
  8
_1-0_
  6
CONTINUOUS
 62
    7
 10
217.63774974926099
 20
148.94057402739654
 40
0.2321758785763302
  0
CIRCLE
  8
_1-0_
  6
CONTINUOUS
 62
    7
 10
220.73698301573057
 20
147.39095739416175
 40
0.2321758785763302
  0
CIRCLE
  8
_1-0_
  6
CONTINUOUS
 62
    7
 10
217.77864198426943
 20
146.26395560599664
 40
0.2321758785763302
  0
CIRCLE
  8
_1-0_
  6
CONTINUOUS
 62
    7
 10
216.93338755014781
 20
147.10919766812711
 40
0.2321758785763302
  0
CIRCLE
  8
_1-0_
  6
CONTINUOUS
 62
    7
 10
216.22900060705237
 20
145.41871354386615
 40
0.2321758785763302
  0
CIRCLE
  8
_1-0_
  6
CONTINUOUS
 62
    7
 10
219.04649889146961
 20
145.41871354386615
 40
0.2321758785763302
  0
CIRCLE
  8
_1-0_
  6
CONTINUOUS
 62
    7
 10
222.00486466691302
 20
145.41871354386615
 40
0.2321758785763302
  0
CIRCLE
  8
_1-0_
  6
CONTINUOUS
 62
    7
 10
215.66550589896539
 20
146.78048623574747
 40
0.2321758785763302
  0
CIRCLE
  8
_1-0_
  6
CONTINUOUS
 62
    7
 10
217.91950947529563
 20
145.79436431059966
 40
0.2321758785763302
  0
CIRCLE
  8
_1-0_
  6
CONTINUOUS
 62
    7
 10
216.0881331160262
 20
143.96300032332138
 40
0.2321758785763302
  0
CIRCLE
  8
_1-0_
  6
CONTINUOUS
 62
    7
 10
214.67938397381758
 20
147.20311345280828
 40
0.2321758785763302
  0
CIRCLE
  8
_1-0_
  6
CONTINUOUS
 62
    7
 10
215.24290342588682
 20
145.93524417361698
 40
0.2321758785763302
  0
CIRCLE
  8
_1-0_
  6
CONTINUOUS
 62
    7
 10
215.947265625
 20
145.23086960251268
 40
0.2321758785763302
  0
CIRCLE
  8
_1-0_
  6
CONTINUOUS
 62
    7
 10
217.35599002322635
 20
146.6396187447213
 40
0.2321758785763302
  0
CIRCLE
  8
_1-0_
  6
CONTINUOUS
 62
    7
 10
220.03262081661742
 20
144.38562754038219
 40
0.2321758785763302
  0
CIRCLE
  8
_1-0_
  6
CONTINUOUS
 62
    7
 10
218.34213669235643
 20
142.69513104413008
 40
0.2321758785763302
  0
CIRCLE
  8
_1-0_
  6
CONTINUOUS
 62
    7
 10
217.77861724028716
 20
143.82212046030406
 40
0.2321758785763302
  0
CIRCLE
  8
_1-0_
  6
CONTINUOUS
 62
    7
 10
220.31438054265203
 20
142.13163633604307
 40
0.2321758785763302
  0
CIRCLE
  8
_1-0_
  6
CONTINUOUS
 62
    7
 10
221.44136995882602
 20
142.27250382706927
 40
0.2321758785763302
  0
CIRCLE
  8
_1-0_
  6
CONTINUOUS
 62
    7
 10
221.58223744985222
 20
144.24474767736487
 40
0.2321758785763302
  0
CIRCLE
  8
_1-0_
  6
CONTINUOUS
 62
    7
 10
219.46912610853042
 20
145.93524417361698
 40
0.2321758785763302
  0
CIRCLE
  8
_1-0_
  6
CONTINUOUS
 62
    7
 10
225.1040979333826
 20
142.69513104413008
 40
0.2321758785763302
  0
CIRCLE
  8
_1-0_
  6
CONTINUOUS
 62
    7
 10
224.25886824324326
 20
141.00463454787797
 40
0.2321758785763302
  0
CIRCLE
  8
_1-0_
  6
CONTINUOUS
 62
    7
 10
222.568359375
 20
140.15939248574747
 40
0.2321758785763302
  0
CIRCLE
  8
_1-0_
  6
CONTINUOUS
 62
    7
 10
220.5961155247044
 20
140.72288719383448
 40
0.2321758785763302
  0
CIRCLE
  8
_1-0_
  6
CONTINUOUS
 62
    7
 10
223.55448130014781
 20
142.27250382706927
 40
0.2321758785763302
  0
CIRCLE
  8
_1-0_
  6
CONTINUOUS
 62
    7
 10
223.27272157411318
 20
143.68125296927789
 40
0.2321758785763302
  0
CIRCLE
  8
_1-0_
  6
CONTINUOUS
 62
    7
 10
227.2172092747044
 20
143.11775826119089
 40
0.2321758785763302
  0
CIRCLE
  8
_1-0_
  6
CONTINUOUS
 62
    7
 10
230.31644254117401
 20
141.56814162795609
 40
0.2321758785763302
  0
CIRCLE
  8
_1-0_
  6
CONTINUOUS
 62
    7
 10
227.35810150971284
 20
140.44113983979096
 40
0.2321758785763302
  0
CIRCLE
  8
_1-0_
  6
CONTINUOUS
 62
    7
 10
226.51284707559122
 20
141.28638190192146
 40
0.2321758785763302
  0
CIRCLE
  8
_1-0_
  6
CONTINUOUS
 62
    7
 10
225.80848487647805
 20
139.59589777766047
 40
0.2321758785763302
  0
CIRCLE
  8
_1-0_
  6
CONTINUOUS
 62
    7
 10
228.62595841691302
 20
139.59589777766047
 40
0.2321758785763302
  0
CIRCLE
  8
_1-0_
  6
CONTINUOUS
 62
    7
 10
231.58432419235643
 20
139.59589777766047
 40
0.2321758785763302
  0
CIRCLE
  8
_1-0_
  6
CONTINUOUS
 62
    7
 10
237.97064703864021
 20
139.07935477591852
 40
0.2321758785763302
  0
CIRCLE
  8
_1-0_
  6
CONTINUOUS
 62
    7
 10
236.28016291437925
 20
138.23411271378802
 40
0.2321758785763302
  0
CIRCLE
  8
_1-0_
  6
CONTINUOUS
 62
    7
 10
234.30791906408362
 20
138.797607421875
 40
0.2321758785763302
  0
CIRCLE
  8
_1-0_
  6
CONTINUOUS
 62
    7
 10
241.49253226615289
 20
135.98010913745779
 40
0.2321758785763302
  0
CIRCLE
  8
_1-0_
  6
CONTINUOUS
 62
    7
 10
242.19689446526607
 20
139.22022226694469
 40
0.2321758785763302
  0
CIRCLE
  8
_1-0_
  6
CONTINUOUS
 62
    7
 10
242.76038917335305
 20
137.95235298775339
 40
0.2321758785763302
  0
CIRCLE
  8
_1-0_
  6
CONTINUOUS
 62
    7
 10
239.20252619562925
 20
138.25680294552365
 40
0.2321758785763302
  0
CIRCLE
  8
_1-0_
  6
CONTINUOUS
 62
    7
 10
240.89303506387247
 20
138.11592308250636
 40
0.2321758785763302
  0
CIRCLE
  8
_1-0_
  6
CONTINUOUS
 62
    7
 10
233.18092964790964
 20
138.56281177417654
 40
0.2321758785763302
  0
CIRCLE
  8
_1-0_
  6
CONTINUOUS
 62
    7
 10
231.49044552364867
 20
136.87231527792443
 40
0.2321758785763302
  0
CIRCLE
  8
_1-0_
  6
CONTINUOUS
 62
    7
 10
230.9269260715794
 20
137.99930469409841
 40
0.2321758785763302
  0
CIRCLE
  8
_1-0_
  6
CONTINUOUS
 62
    7
 10
233.46268937394427
 20
136.30882056983742
 40
0.2321758785763302
  0
CIRCLE
  8
_1-0_
  6
CONTINUOUS
 62
    7
 10
234.58967879011826
 20
136.44968806086359
 40
0.2321758785763302
  0
CIRCLE
  8
_1-0_
  6
CONTINUOUS
 62
    7
 10
234.73054628114443
 20
138.42193191115922
 40
0.2321758785763302
  0
CIRCLE
  8
_1-0_
  6
CONTINUOUS
 62
    7
 10
238.25240676467484
 20
136.87231527792443
 40
0.2321758785763302
  0
CIRCLE
  8
_1-0_
  6
CONTINUOUS
 62
    7
 10
237.4071770745355
 20
135.18181878167229
 40
0.2321758785763302
  0
CIRCLE
  8
_1-0_
  6
CONTINUOUS
 62
    7
 10
235.71666820629224
 20
134.33657671954182
 40
0.2321758785763302
  0
CIRCLE
  8
_1-0_
  6
CONTINUOUS
 62
    7
 10
233.74442435599664
 20
134.9000714276288
 40
0.2321758785763302
  0
CIRCLE
  8
_1-0_
  6
CONTINUOUS
 62
    7
 10
236.70279013144005
 20
136.44968806086359
 40
0.2321758785763302
  0
CIRCLE
  8
_1-0_
  6
CONTINUOUS
 62
    7
 10
236.42103040540542
 20
137.85843720307221
 40
0.2321758785763302
  0
CIRCLE
  8
_1-0_
  6
CONTINUOUS
 62
    7
 10
240.36551810599664
 20
137.29494249498524
 40
0.2321758785763302
  0
CIRCLE
  8
_1-0_
  6
CONTINUOUS
 62
    7
 10
240.50641034100508
 20
134.61832407358531
 40
0.2321758785763302
  0
CIRCLE
  8
_1-0_
  6
CONTINUOUS
 62
    7
 10
239.66115590688347
 20
135.46356613571581
 40
0.2321758785763302
  0
CIRCLE
  8
_1-0_
  6
CONTINUOUS
 62
    7
 10
238.95679370777029
 20
133.77308201145482
 40
0.2321758785763302
  0
CIRCLE
  8
_1-0_
  6
CONTINUOUS
 62
    7
 10
241.77426724820526
 20
133.77308201145482
 40
0.2321758785763302
  0
CIRCLE
  8
_1-0_
  6
CONTINUOUS
 62
    7
 10
249.05275911898227
 20
133.82004608979096
 40
0.2321758785763302
  0
CIRCLE
  8
_1-0_
  6
CONTINUOUS
 62
    7
 10
247.3622749947213
 20
132.97480402766047
 40
0.2321758785763302
  0
CIRCLE
  8
_1-0_
  6
CONTINUOUS
 62
    7
 10
245.39003114442568
 20
133.53829873574747
 40
0.2321758785763302
  0
CIRCLE
  8
_1-0_
  6
CONTINUOUS
 62
    7
 10
252.57464434649495
 20
130.72080045133023
 40
0.2321758785763302
  0
CIRCLE
  8
_1-0_
  6
CONTINUOUS
 62
    7
 10
253.27900654560813
 20
133.96091358081716
 40
0.2321758785763302
  0
CIRCLE
  8
_1-0_
  6
CONTINUOUS
 62
    7
 10
253.8425012536951
 20
132.69304430162586
 40
0.2321758785763302
  0
CIRCLE
  8
_1-0_
  6
CONTINUOUS
 62
    7
 10
250.2846382759713
 20
132.99749425939612
 40
0.2321758785763302
  0
CIRCLE
  8
_1-0_
  6
CONTINUOUS
 62
    7
 10
251.97514714421453
 20
132.8566143963788
 40
0.2321758785763302
  0
CIRCLE
  8
_1-0_
  6
CONTINUOUS
 62
    7
 10
244.26304172825169
 20
133.30350308804898
 40
0.2321758785763302
  0
CIRCLE
  8
_1-0_
  6
CONTINUOUS
 62
    7
 10
242.57255760399073
 20
131.61300659179687
 40
0.2321758785763302
  0
CIRCLE
  8
_1-0_
  6
CONTINUOUS
 62
    7
 10
242.00903815192146
 20
132.73999600797086
 40
0.2321758785763302
  0
CIRCLE
  8
_1-0_
  6
CONTINUOUS
 62
    7
 10
244.54480145428633
 20
131.0495118837099
 40
0.2321758785763302
  0
CIRCLE
  8
_1-0_
  6
CONTINUOUS
 62
    7
 10
245.67179087046031
 20
131.19037937473607
 40
0.2321758785763302
  0
CIRCLE
  8
_1-0_
  6
CONTINUOUS
 62
    7
 10
245.81265836148651
 20
133.16262322503167
 40
0.2321758785763302
  0
CIRCLE
  8
_1-0_
  6
CONTINUOUS
 62
    7
 10
249.3345188450169
 20
131.61300659179687
 40
0.2321758785763302
  0
CIRCLE
  8
_1-0_
  6
CONTINUOUS
 62
    7
 10
248.48928915487755
 20
129.92251009554477
 40
0.2321758785763302
  0
CIRCLE
  8
_1-0_
  6
CONTINUOUS
 62
    7
 10
246.7987802866343
 20
129.07726803341427
 40
0.2321758785763302
  0
CIRCLE
  8
_1-0_
  6
CONTINUOUS
 62
    7
 10
244.8265364363387
 20
129.64076274150128
 40
0.2321758785763302
  0
CIRCLE
  8
_1-0_
  6
CONTINUOUS
 62
    7
 10
247.78490221178211
 20
131.19037937473607
 40
0.2321758785763302
  0
CIRCLE
  8
_1-0_
  6
CONTINUOUS
 62
    7
 10
247.50314248574747
 20
132.59912851694469
 40
0.2321758785763302
  0
CIRCLE
  8
_1-0_
  6
CONTINUOUS
 62
    7
 10
251.4476301863387
 20
132.03563380885768
 40
0.2321758785763302
  0
CIRCLE
  8
_1-0_
  6
CONTINUOUS
 62
    7
 10
251.58852242134714
 20
129.35901538745779
 40
0.2321758785763302
  0
CIRCLE
  8
_1-0_
  6
CONTINUOUS
 62
    7
 10
250.74326798722552
 20
130.20425744958825
 40
0.2321758785763302
  0
CIRCLE
  8
_1-0_
  6
CONTINUOUS
 62
    7
 10
250.03890578811234
 20
128.51377332532729
 40
0.2321758785763302
  0
CIRCLE
  8
_1-0_
  6
CONTINUOUS
 62
    7
 10
252.85637932854732
 20
128.51377332532729
 40
0.2321758785763302
  0
CIRCLE
  8
_1-0_
  6
CONTINUOUS
 62
    7
 10
264.07935889991558
 20
126.682409338049
 40
0.2321758785763302
  0
CIRCLE
  8
_1-0_
  6
CONTINUOUS
 62
    7
 10
262.38887477565459
 20
125.8371672759185
 40
0.2321758785763302
  0
CIRCLE
  8
_1-0_
  6
CONTINUOUS
 62
    7
 10
260.41663092535896
 20
126.4006619840055
 40
0.2321758785763302
  0
CIRCLE
  8
_1-0_
  6
CONTINUOUS
 62
    7
 10
267.60124412742823
 20
123.58316369958827
 40
0.2321758785763302
  0
CIRCLE
  8
_1-0_
  6
CONTINUOUS
 62
    7
 10
268.30560632654141
 20
126.82327682907517
 40
0.2321758785763302
  0
CIRCLE
  8
_1-0_
  6
CONTINUOUS
 62
    7
 10
268.86910103462839
 20
125.55540754988388
 40
0.2321758785763302
  0
CIRCLE
  8
_1-0_
  6
CONTINUOUS
 62
    7
 10
265.31123805690459
 20
125.85985750765414
 40
0.2321758785763302
  0
CIRCLE
  8
_1-0_
  6
CONTINUOUS
 62
    7
 10
267.00174692514781
 20
125.71897764463684
 40
0.2321758785763302
  0
CIRCLE
  8
_1-0_
  6
CONTINUOUS
 62
    7
 10
259.289641509185
 20
126.16586633630702
 40
0.2321758785763302
  0
CIRCLE
  8
_1-0_
  6
CONTINUOUS
 62
    7
 10
257.59915738492401
 20
124.47536984005491
 40
0.2321758785763302
  0
CIRCLE
  8
_1-0_
  6
CONTINUOUS
 62
    7
 10
257.03563793285474
 20
125.60235925622889
 40
0.2321758785763302
  0
CIRCLE
  8
_1-0_
  6
CONTINUOUS
 62
    7
 10
259.57140123521958
 20
123.91187513196792
 40
0.2321758785763302
  0
CIRCLE
  8
_1-0_
  6
CONTINUOUS
 62
    7
 10
260.69839065139359
 20
124.05274262299409
 40
0.2321758785763302
  0
CIRCLE
  8
_1-0_
  6
CONTINUOUS
 62
    7
 10
260.83925814241979
 20
126.0249864732897
 40
0.2321758785763302
  0
CIRCLE
  8
_1-0_
  6
CONTINUOUS
 62
    7
 10
264.36111862595021
 20
124.47536984005491
 40
0.2321758785763302
  0
CIRCLE
  8
_1-0_
  6
CONTINUOUS
 62
    7
 10
263.51588893581084
 20
122.7848733438028
 40
0.2321758785763302
  0
CIRCLE
  8
_1-0_
  6
CONTINUOUS
 62
    7
 10
261.82538006756761
 20
121.93963128167231
 40
0.2321758785763302
  0
CIRCLE
  8
_1-0_
  6
CONTINUOUS
 62
    7
 10
259.85313621727198
 20
122.5031259897593
 40
0.2321758785763302
  0
CIRCLE
  8
_1-0_
  6
CONTINUOUS
 62
    7
 10
262.81150199271536
 20
124.05274262299409
 40
0.2321758785763302
  0
CIRCLE
  8
_1-0_
  6
CONTINUOUS
 62
    7
 10
262.52974226668078
 20
125.46149176520271
 40
0.2321758785763302
  0
CIRCLE
  8
_1-0_
  6
CONTINUOUS
 62
    7
 10
266.47422996727198
 20
124.89799705711572
 40
0.2321758785763302
  0
CIRCLE
  8
_1-0_
  6
CONTINUOUS
 62
    7
 10
266.61512220228042
 20
122.22137863571579
 40
0.2321758785763302
  0
CIRCLE
  8
_1-0_
  6
CONTINUOUS
 62
    7
 10
265.7698677681588
 20
123.06662069784629
 40
0.2321758785763302
  0
CIRCLE
  8
_1-0_
  6
CONTINUOUS
 62
    7
 10
265.06550556904563
 20
121.37613657358531
 40
0.2321758785763302
  0
CIRCLE
  8
_1-0_
  6
CONTINUOUS
 62
    7
 10
267.88297910948057
 20
121.37613657358531
 40
0.2321758785763302
  0
CIRCLE
  8
_1-0_
  6
CONTINUOUS
 62
    7
 10
287.18276565139359
 20
117.29076900997678
 40
0.2321758785763302
  0
CIRCLE
  8
_1-0_
  6
CONTINUOUS
 62
    7
 10
285.4922815271326
 20
116.44552694784629
 40
0.2321758785763302
  0
CIRCLE
  8
_1-0_
  6
CONTINUOUS
 62
    7
 10
283.52003767683703
 20
117.00902165593328
 40
0.2321758785763302
  0
CIRCLE
  8
_1-0_
  6
CONTINUOUS
 62
    7
 10
290.70465087890625
 20
114.19152337151606
 40
0.2321758785763302
  0
CIRCLE
  8
_1-0_
  6
CONTINUOUS
 62
    7
 10
291.40901307801943
 20
117.43163650100296
 40
0.2321758785763302
  0
CIRCLE
  8
_1-0_
  6
CONTINUOUS
 62
    7
 10
291.97250778610646
 20
116.16376722181167
 40
0.2321758785763302
  0
CIRCLE
  8
_1-0_
  6
CONTINUOUS
 62
    7
 10
288.4146448083826
 20
116.46821717958193
 40
0.2321758785763302
  0
CIRCLE
  8
_1-0_
  6
CONTINUOUS
 62
    7
 10
290.10515367662583
 20
116.32733731656462
 40
0.2321758785763302
  0
CIRCLE
  8
_1-0_
  6
CONTINUOUS
 62
    7
 10
282.39304826066302
 20
116.77422600823481
 40
0.2321758785763302
  0
CIRCLE
  8
_1-0_
  6
CONTINUOUS
 62
    7
 10
280.70256413640203
 20
115.0837295119827
 40
0.2321758785763302
  0
CIRCLE
  8
_1-0_
  6
CONTINUOUS
 62
    7
 10
280.13904468433276
 20
116.21071892815668
 40
0.2321758785763302
  0
CIRCLE
  8
_1-0_
  6
CONTINUOUS
 62
    7
 10
282.67480798669766
 20
114.5202348038957
 40
0.2321758785763302
  0
CIRCLE
  8
_1-0_
  6
CONTINUOUS
 62
    7
 10
283.80179740287161
 20
114.66110229492187
 40
0.2321758785763302
  0
CIRCLE
  8
_1-0_
  6
CONTINUOUS
 62
    7
 10
283.94266489389781
 20
116.63334614521749
 40
0.2321758785763302
  0
CIRCLE
  8
_1-0_
  6
CONTINUOUS
 62
    7
 10
287.46452537742823
 20
115.0837295119827
 40
0.2321758785763302
  0
CIRCLE
  8
_1-0_
  6
CONTINUOUS
 62
    7
 10
286.61929568728885
 20
113.39323301573059
 40
0.2321758785763302
  0
CIRCLE
  8
_1-0_
  6
CONTINUOUS
 62
    7
 10
284.92878681904563
 20
112.54799095360009
 40
0.2321758785763302
  0
CIRCLE
  8
_1-0_
  6
CONTINUOUS
 62
    7
 10
282.95654296875
 20
113.11148566168708
 40
0.2321758785763302
  0
CIRCLE
  8
_1-0_
  6
CONTINUOUS
 62
    7
 10
285.91490874419344
 20
114.66110229492187
 40
0.2321758785763302
  0
CIRCLE
  8
_1-0_
  6
CONTINUOUS
 62
    7
 10
285.6331490181588
 20
116.0698514371305
 40
0.2321758785763302
  0
CIRCLE
  8
_1-0_
  6
CONTINUOUS
 62
    7
 10
289.57763671875
 20
115.5063567290435
 40
0.2321758785763302
  0
CIRCLE
  8
_1-0_
  6
CONTINUOUS
 62
    7
 10
289.71852895375844
 20
112.82973830764358
 40
0.2321758785763302
  0
CIRCLE
  8
_1-0_
  6
CONTINUOUS
 62
    7
 10
288.87327451963682
 20
113.67498036977408
 40
0.2321758785763302
  0
CIRCLE
  8
_1-0_
  6
CONTINUOUS
 62
    7
 10
288.16891232052365
 20
111.9844962455131
 40
0.2321758785763302
  0
CIRCLE
  8
_1-0_
  6
CONTINUOUS
 62
    7
 10
290.98638586095865
 20
111.9844962455131
 40
0.2321758785763302
  0
CIRCLE
  8
_1-0_
  6
CONTINUOUS
 62
    7
 10
275.34932729360219
 20
122.55009006809544
 40
0.2321758785763302
  0
CIRCLE
  8
_1-0_
  6
CONTINUOUS
 62
    7
 10
273.65884316934125
 20
121.70484800596496
 40
0.2321758785763302
  0
CIRCLE
  8
_1-0_
  6
CONTINUOUS
 62
    7
 10
271.68659931904563
 20
122.26834271405195
 40
0.2321758785763302
  0
CIRCLE
  8
_1-0_
  6
CONTINUOUS
 62
    7
 10
278.8712125211149
 20
119.45084442963471
 40
0.2321758785763302
  0
CIRCLE
  8
_1-0_
  6
CONTINUOUS
 62
    7
 10
279.57557472022808
 20
122.69095755912163
 40
0.2321758785763302
  0
CIRCLE
  8
_1-0_
  6
CONTINUOUS
 62
    7
 10
280.13906942831505
 20
121.42308827993033
 40
0.2321758785763302
  0
CIRCLE
  8
_1-0_
  6
CONTINUOUS
 62
    7
 10
276.58120645059125
 20
121.7275382377006
 40
0.2321758785763302
  0
CIRCLE
  8
_1-0_
  6
CONTINUOUS
 62
    7
 10
278.27171531883448
 20
121.58665837468328
 40
0.2321758785763302
  0
CIRCLE
  8
_1-0_
  6
CONTINUOUS
 62
    7
 10
270.55960990287161
 20
122.03354706635346
 40
0.2321758785763302
  0
CIRCLE
  8
_1-0_
  6
CONTINUOUS
 62
    7
 10
268.86912577861068
 20
120.34305057010135
 40
0.2321758785763302
  0
CIRCLE
  8
_1-0_
  6
CONTINUOUS
 62
    7
 10
268.30560632654141
 20
121.47003998627534
 40
0.2321758785763302
  0
CIRCLE
  8
_1-0_
  6
CONTINUOUS
 62
    7
 10
270.84136962890625
 20
119.77955586201436
 40
0.2321758785763302
  0
CIRCLE
  8
_1-0_
  6
CONTINUOUS
 62
    7
 10
271.96835904508026
 20
119.92042335304055
 40
0.2321758785763302
  0
CIRCLE
  8
_1-0_
  6
CONTINUOUS
 62
    7
 10
272.10922653610646
 20
121.89266720333616
 40
0.2321758785763302
  0
CIRCLE
  8
_1-0_
  6
CONTINUOUS
 62
    7
 10
275.63108701963682
 20
120.34305057010135
 40
0.2321758785763302
  0
CIRCLE
  8
_1-0_
  6
CONTINUOUS
 62
    7
 10
274.7858573294975
 20
118.65255407384925
 40
0.2321758785763302
  0
CIRCLE
  8
_1-0_
  6
CONTINUOUS
 62
    7
 10
273.09534846125422
 20
117.80731201171875
 40
0.2321758785763302
  0
CIRCLE
  8
_1-0_
  6
CONTINUOUS
 62
    7
 10
271.12310461095865
 20
118.37080671980576
 40
0.2321758785763302
  0
CIRCLE
  8
_1-0_
  6
CONTINUOUS
 62
    7
 10
274.08147038640203
 20
119.92042335304055
 40
0.2321758785763302
  0
CIRCLE
  8
_1-0_
  6
CONTINUOUS
 62
    7
 10
273.7997106603674
 20
121.32917249524917
 40
0.2321758785763302
  0
CIRCLE
  8
_1-0_
  6
CONTINUOUS
 62
    7
 10
277.74419836095865
 20
120.76567778716218
 40
0.2321758785763302
  0
CIRCLE
  8
_1-0_
  6
CONTINUOUS
 62
    7
 10
277.88509059596709
 20
118.08905936576225
 40
0.2321758785763302
  0
CIRCLE
  8
_1-0_
  6
CONTINUOUS
 62
    7
 10
277.03983616184547
 20
118.93430142789275
 40
0.2321758785763302
  0
CIRCLE
  8
_1-0_
  6
CONTINUOUS
 62
    7
 10
276.33547396273229
 20
117.24381730363176
 40
0.2321758785763302
  0
CIRCLE
  8
_1-0_
  6
CONTINUOUS
 62
    7
 10
279.15294750316724
 20
117.24381730363176
 40
0.2321758785763302
  0
CIRCLE
  8
_1-0_
  6
CONTINUOUS
 62
    7
 10
299.20406032252959
 20
112.9706181706609
 40
0.2321758785763302
  0
CIRCLE
  8
_1-0_
  6
CONTINUOUS
 62
    7
 10
297.51357619826859
 20
112.12537610853042
 40
0.2321758785763302
  0
CIRCLE
  8
_1-0_
  6
CONTINUOUS
 62
    7
 10
295.54133234797297
 20
112.68887081661741
 40
0.2321758785763302
  0
CIRCLE
  8
_1-0_
  6
CONTINUOUS
 62
    7
 10
302.72594555004224
 20
109.87137253220017
 40
0.2321758785763302
  0
CIRCLE
  8
_1-0_
  6
CONTINUOUS
 62
    7
 10
303.43030774915542
 20
113.11148566168708
 40
0.2321758785763302
  0
CIRCLE
  8
_1-0_
  6
CONTINUOUS
 62
    7
 10
303.9938024572424
 20
111.84361638249578
 40
0.2321758785763302
  0
CIRCLE
  8
_1-0_
  6
CONTINUOUS
 62
    7
 10
300.43593947951859
 20
112.14806634026606
 40
0.2321758785763302
  0
CIRCLE
  8
_1-0_
  6
CONTINUOUS
 62
    7
 10
302.12644834776182
 20
112.00718647724874
 40
0.2321758785763302
  0
CIRCLE
  8
_1-0_
  6
CONTINUOUS
 62
    7
 10
294.41434293179901
 20
112.45407516891892
 40
0.2321758785763302
  0
CIRCLE
  8
_1-0_
  6
CONTINUOUS
 62
    7
 10
292.72385880753802
 20
110.76357867266681
 40
0.2321758785763302
  0
CIRCLE
  8
_1-0_
  6
CONTINUOUS
 62
    7
 10
292.16033935546875
 20
111.89056808884079
 40
0.2321758785763302
  0
CIRCLE
  8
_1-0_
  6
CONTINUOUS
 62
    7
 10
294.69610265783365
 20
110.20008396457982
 40
0.2321758785763302
  0
CIRCLE
  8
_1-0_
  6
CONTINUOUS
 62
    7
 10
295.8230920740076
 20
110.340951455606
 40
0.2321758785763302
  0
CIRCLE
  8
_1-0_
  6
CONTINUOUS
 62
    7
 10
295.9639595650338
 20
112.31319530590162
 40
0.2321758785763302
  0
CIRCLE
  8
_1-0_
  6
CONTINUOUS
 62
    7
 10
299.48582004856422
 20
110.76357867266681
 40
0.2321758785763302
  0
CIRCLE
  8
_1-0_
  6
CONTINUOUS
 62
    7
 10
298.64059035842484
 20
109.0730821764147
 40
0.2321758785763302
  0
CIRCLE
  8
_1-0_
  6
CONTINUOUS
 62
    7
 10
296.95008149018162
 20
108.22784011428421
 40
0.2321758785763302
  0
CIRCLE
  8
_1-0_
  6
CONTINUOUS
 62
    7
 10
294.97783763988599
 20
108.79133482237121
 40
0.2321758785763302
  0
CIRCLE
  8
_1-0_
  6
CONTINUOUS
 62
    7
 10
297.93620341532943
 20
110.340951455606
 40
0.2321758785763302
  0
CIRCLE
  8
_1-0_
  6
CONTINUOUS
 62
    7
 10
297.65444368929479
 20
111.74970059781462
 40
0.2321758785763302
  0
CIRCLE
  8
_1-0_
  6
CONTINUOUS
 62
    7
 10
301.59893138988599
 20
111.18620588972763
 40
0.2321758785763302
  0
CIRCLE
  8
_1-0_
  6
CONTINUOUS
 62
    7
 10
301.73982362489443
 20
108.50958746832771
 40
0.2321758785763302
  0
CIRCLE
  8
_1-0_
  6
CONTINUOUS
 62
    7
 10
300.89456919077281
 20
109.3548295304582
 40
0.2321758785763302
  0
CIRCLE
  8
_1-0_
  6
CONTINUOUS
 62
    7
 10
300.19020699165964
 20
107.66434540619721
 40
0.2321758785763302
  0
CIRCLE
  8
_1-0_
  6
CONTINUOUS
 62
    7
 10
303.00768053209464
 20
107.66434540619721
 40
0.2321758785763302
  0
CIRCLE
  8
_1-0_
  6
CONTINUOUS
 62
    7
 10
311.03749868032094
 20
104.14248492266681
 40
0.2321758785763302
  0
CIRCLE
  8
_1-0_
  6
CONTINUOUS
 62
    7
 10
309.34701455606
 20
103.29724286053633
 40
0.2321758785763302
  0
CIRCLE
  8
_1-0_
  6
CONTINUOUS
 62
    7
 10
307.37477070576438
 20
103.86073756862332
 40
0.2321758785763302
  0
CIRCLE
  8
_1-0_
  6
CONTINUOUS
 62
    7
 10
314.55938390783365
 20
101.04323928420608
 40
0.2321758785763302
  0
CIRCLE
  8
_1-0_
  6
CONTINUOUS
 62
    7
 10
315.26374610694683
 20
104.283352413693
 40
0.2321758785763302
  0
CIRCLE
  8
_1-0_
  6
CONTINUOUS
 62
    7
 10
315.8272408150338
 20
103.01548313450169
 40
0.2321758785763302
  0
CIRCLE
  8
_1-0_
  6
CONTINUOUS
 62
    7
 10
312.26937783731
 20
103.31993309227197
 40
0.2321758785763302
  0
CIRCLE
  8
_1-0_
  6
CONTINUOUS
 62
    7
 10
313.95988670555323
 20
103.17905322925465
 40
0.2321758785763302
  0
CIRCLE
  8
_1-0_
  6
CONTINUOUS
 62
    7
 10
306.24778128959036
 20
103.62594192092483
 40
0.2321758785763302
  0
CIRCLE
  8
_1-0_
  6
CONTINUOUS
 62
    7
 10
303.99377771326016
 20
103.06243484084671
 40
0.2321758785763302
  0
CIRCLE
  8
_1-0_
  6
CONTINUOUS
 62
    7
 10
306.529541015625
 20
101.37195071658573
 40
0.2321758785763302
  0
CIRCLE
  8
_1-0_
  6
CONTINUOUS
 62
    7
 10
307.65653043179901
 20
101.51281820761191
 40
0.2321758785763302
  0
CIRCLE
  8
_1-0_
  6
CONTINUOUS
 62
    7
 10
307.79739792282521
 20
103.48506205790753
 40
0.2321758785763302
  0
CIRCLE
  8
_1-0_
  6
CONTINUOUS
 62
    7
 10
311.31925840635557
 20
101.93544542467272
 40
0.2321758785763302
  0
CIRCLE
  8
_1-0_
  6
CONTINUOUS
 62
    7
 10
310.47402871621625
 20
100.24494892842061
 40
0.2321758785763302
  0
CIRCLE
  8
_1-0_
  6
CONTINUOUS
 62
    7
 10
309.76964177312078
 20
101.51281820761191
 40
0.2321758785763302
  0
CIRCLE
  8
_1-0_
  6
CONTINUOUS
 62
    7
 10
309.48788204708615
 20
102.92156734982053
 40
0.2321758785763302
  0
CIRCLE
  8
_1-0_
  6
CONTINUOUS
 62
    7
 10
313.4323697476774
 20
102.35807264173354
 40
0.2321758785763302
  0
CIRCLE
  8
_1-0_
  6
CONTINUOUS
 62
    7
 10
313.57326198268584
 20
99.68145422033362
 40
0.2321758785763302
  0
CIRCLE
  8
_1-0_
  6
CONTINUOUS
 62
    7
 10
312.72800754856422
 20
100.52669628246412
 40
0.2321758785763302
  0
CIRCLE
  8
_1-0_
  6
CONTINUOUS
 62
    7
 10
312.02364534945104
 20
98.836212158203125
 40
0.2321758785763302
  0
CIRCLE
  8
_1-0_
  6
CONTINUOUS
 62
    7
 10
314.84111888988599
 20
98.836212158203125
 40
0.2321758785763302
  0
CIRCLE
  8
_1-0_
  6
CONTINUOUS
 62
    7
 10
304.08770586993245
 20
108.4626357619827
 40
0.2321758785763302
  0
CIRCLE
  8
_1-0_
  6
CONTINUOUS
 62
    7
 10
302.39722174567146
 20
107.6173936998522
 40
0.2321758785763302
  0
CIRCLE
  8
_1-0_
  6
CONTINUOUS
 62
    7
 10
300.42497789537589
 20
108.18088840793919
 40
0.2321758785763302
  0
CIRCLE
  8
_1-0_
  6
CONTINUOUS
 62
    7
 10
307.6095910974451
 20
105.36339012352197
 40
0.2321758785763302
  0
CIRCLE
  8
_1-0_
  6
CONTINUOUS
 62
    7
 10
308.31395329655828
 20
108.60350325300888
 40
0.2321758785763302
  0
CIRCLE
  8
_1-0_
  6
CONTINUOUS
 62
    7
 10
308.87744800464526
 20
107.33563397381758
 40
0.2321758785763302
  0
CIRCLE
  8
_1-0_
  6
CONTINUOUS
 62
    7
 10
305.31958502692146
 20
107.64008393158784
 40
0.2321758785763302
  0
CIRCLE
  8
_1-0_
  6
CONTINUOUS
 62
    7
 10
307.01009389516469
 20
107.49920406857053
 40
0.2321758785763302
  0
CIRCLE
  8
_1-0_
  6
CONTINUOUS
 62
    7
 10
299.29798847920188
 20
107.94609276024072
 40
0.2321758785763302
  0
CIRCLE
  8
_1-0_
  6
CONTINUOUS
 62
    7
 10
297.60750435494089
 20
106.25559626398861
 40
0.2321758785763302
  0
CIRCLE
  8
_1-0_
  6
CONTINUOUS
 62
    7
 10
297.04398490287161
 20
107.38258568016259
 40
0.2321758785763302
  0
CIRCLE
  8
_1-0_
  6
CONTINUOUS
 62
    7
 10
299.57974820523651
 20
105.69210155590162
 40
0.2321758785763302
  0
CIRCLE
  8
_1-0_
  6
CONTINUOUS
 62
    7
 10
300.70673762141047
 20
105.83296904692779
 40
0.2321758785763302
  0
CIRCLE
  8
_1-0_
  6
CONTINUOUS
 62
    7
 10
300.84760511243667
 20
107.8052128972234
 40
0.2321758785763302
  0
CIRCLE
  8
_1-0_
  6
CONTINUOUS
 62
    7
 10
304.36946559596709
 20
106.25559626398861
 40
0.2321758785763302
  0
CIRCLE
  8
_1-0_
  6
CONTINUOUS
 62
    7
 10
303.52423590582771
 20
104.5650997677365
 40
0.2321758785763302
  0
CIRCLE
  8
_1-0_
  6
CONTINUOUS
 62
    7
 10
301.83372703758448
 20
103.719857705606
 40
0.2321758785763302
  0
CIRCLE
  8
_1-0_
  6
CONTINUOUS
 62
    7
 10
299.86148318728885
 20
104.283352413693
 40
0.2321758785763302
  0
CIRCLE
  8
_1-0_
  6
CONTINUOUS
 62
    7
 10
302.81984896273229
 20
105.83296904692779
 40
0.2321758785763302
  0
CIRCLE
  8
_1-0_
  6
CONTINUOUS
 62
    7
 10
302.53808923669766
 20
107.24171818913641
 40
0.2321758785763302
  0
CIRCLE
  8
_1-0_
  6
CONTINUOUS
 62
    7
 10
306.48257693728885
 20
106.67822348104941
 40
0.2321758785763302
  0
CIRCLE
  8
_1-0_
  6
CONTINUOUS
 62
    7
 10
306.62346917229729
 20
104.00160505964949
 40
0.2321758785763302
  0
CIRCLE
  8
_1-0_
  6
CONTINUOUS
 62
    7
 10
305.77821473817568
 20
104.84684712177999
 40
0.2321758785763302
  0
CIRCLE
  8
_1-0_
  6
CONTINUOUS
 62
    7
 10
305.0738525390625
 20
103.15636299751901
 40
0.2321758785763302
  0
CIRCLE
  8
_1-0_
  6
CONTINUOUS
 62
    7
 10
307.8913260794975
 20
103.15636299751901
 40
0.2321758785763302
  0
ARC
  8
_1-2_
  6
CONTINUOUS
 62
    3
 10
175.52991300015836
 20
124.23588520771749
 40
60.167986895586999
 50
86.259262084960938
 51
126.09986877441405
  0
ARC
  8
_1-2_
  6
CONTINUOUS
 62
    3
 10
171.36244490339951
 20
138.59951947186445
 40
41.611992088524076
 50
76.664901733398438
 51
135.69422912597656
  0
ARC
  8
_1-2_
  6
CONTINUOUS
 62
    3
 10
175.75577607025971
 20
130.63558217641472
 40
60.167986895586999
 50
86.259262084960938
 51
126.09986877441405
  0
ARC
  8
_1-2_
  6
CONTINUOUS
 62
    3
 10
171.58830797350086
 20
144.99921644056167
 40
41.611992088524076
 50
76.664901733398438
 51
135.69422912597656
  0
ARC
  8
_1-2_
  6
CONTINUOUS
 62
    3
 10
173.38482006176099
 20
161.82991234031886
 40
41.612016832506335
 50
95
 51
124.5146484375
  0
ARC
  8
_1-2_
  6
CONTINUOUS
 62
    3
 10
174.68832067541175
 20
146.93081829998945
 40
60.168024011560391
 50
95
 51
114.92028808593749
  0
ARC
  8
_1-2_
  6
CONTINUOUS
 62
    3
 10
172.45221937024917
 20
155.71490725955448
 40
41.612016832506335
 50
95
 51
124.5146484375
  0
ARC
  8
_1-2_
  6
CONTINUOUS
 62
    3
 10
173.75571998389992
 20
140.81581321922511
 40
60.168024011560391
 50
95
 51
114.92028808593749
  0
ARC
  8
_1-2_
  6
CONTINUOUS
 62
    3
 10
172.77000633445948
 20
134.71717628272805
 40
60.168024011560391
 50
95
 51
114.92028808593749
  0
ARC
  8
_1-2_
  6
CONTINUOUS
 62
    3
 10
190.60099008921031
 20
161.82991234031886
 40
41.612016832506335
 50
55.485351562500036
 51
85.000000000000028
  0
ARC
  8
_1-2_
  6
CONTINUOUS
 62
    3
 10
189.29748947555956
 20
146.93081829998945
 40
60.168024011560391
 50
65.079711914062472
 51
84.999999999999972
  0
ARC
  8
_1-2_
  6
CONTINUOUS
 62
    3
 10
191.53359078072214
 20
155.71490725955448
 40
41.612016832506335
 50
55.485351562500036
 51
85.000000000000028
  0
ARC
  8
_1-2_
  6
CONTINUOUS
 62
    3
 10
190.23009016707138
 20
140.81581321922511
 40
60.168024011560391
 50
65.079711914062472
 51
84.999999999999972
  0
ARC
  8
_1-2_
  6
CONTINUOUS
 62
    3
 10
192.51930443016261
 20
149.61627032305745
 40
41.612016832506335
 50
55.485351562500036
 51
85.000000000000028
  0
ARC
  8
_1-2_
  6
CONTINUOUS
 62
    3
 10
191.21580381651182
 20
134.71717628272805
 40
60.168024011560391
 50
65.079711914062472
 51
84.999999999999972
  0
ARC
  8
_1-2_
  6
CONTINUOUS
 62
    3
 10
188.45589715081294
 20
124.23588520771749
 40
60.167986895586999
 50
53.900100708007813
 51
93.740707397460938
  0
ARC
  8
_1-2_
  6
CONTINUOUS
 62
    3
 10
192.6233652475718
 20
138.59951947186445
 40
41.611992088524076
 50
44.305740356445327
 51
103.33506774902347
  0
ARC
  8
_1-2_
  6
CONTINUOUS
 62
    3
 10
188.23003408071159
 20
130.63558217641472
 40
60.167986895586999
 50
53.900100708007813
 51
93.740707397460938
  0
ARC
  8
_1-2_
  6
CONTINUOUS
 62
    3
 10
192.39750217747044
 20
144.99921644056167
 40
41.611992088524076
 50
44.305740356445327
 51
103.33506774902347
  0
ARC
  8
_1-2_
  6
CONTINUOUS
 62
    3
 10
171.4665057208087
 20
149.61627032305745
 40
41.612016832506335
 50
97.612503051757798
 51
124.51464843749997
  0
ARC
  8
_1-2_
  6
CONTINUOUS
 62
    3
 10
171.4665057208087
 20
149.61627032305745
 40
41.612016832506335
 50
95.711288452148438
 51
97.612503051757813
  0
ARC
  8
_1-2_
  6
CONTINUOUS
 62
    3
 10
171.4665057208087
 20
149.61627032305745
 40
41.612016832506335
 50
95
 51
95.593093872070312
  0
ARC
  8
_1-2_
  6
CONTINUOUS
 62
    3
 10
171.4665057208087
 20
149.61627032305745
 40
41.612016832506335
 50
95.593093872070327
 51
95.711288452148452
  0
ARC
  8
_1-2_
  6
CONTINUOUS
 62
    3
 10
185.48528310414909
 20
-490.06476324957771
 40
681.22791187183282
 50
89.115051269531264
 51
91.625228881835952
  0
ARC
  8
_1-2_
  6
CONTINUOUS
 62
    3
 10
181.92244658599029
 20
122.70318108635981
 40
73.529384716137045
 50
77.716110229492188
 51
102.39448547363281
  0
ARC
  8
_1-2_
  6
CONTINUOUS
 62
    3
 10
181.96546399915542
 20
135.02384082691091
 40
67.238722105283998
 50
77.391983032226563
 51
102.65264892578125
  0
ARC
  8
_1-2_
  6
CONTINUOUS
 62
    3
 10
180.75187064505914
 20
-151.09764305320948
 40
354.27100104254646
 50
87.178451538085938
 51
92.282211303710937
  0
ARC
  8
_1-2_
  6
CONTINUOUS
 62
    3
 10
181.87840229756125
 20
145.19554756783151
 40
63.097111469990502
 50
79.006515502929688
 51
102.88236999511719
  0
ARC
  8
_1-2_
  6
CONTINUOUS
 62
    3
 10
181.87840229756125
 20
145.19554756783151
 40
63.097111469990502
 50
77.067977905273452
 51
79.006515502929702
  0
ARC
  8
_1-2_
  6
CONTINUOUS
 62
    3
 10
180.86747453019427
 20
391.64426236539276
 40
195.18900690851987
 50
265.89761352539062
 51
268.15902709960937
  0
ARC
  8
_1-2_
  6
CONTINUOUS
 62
    3
 10
180.86747453019427
 20
391.64426236539276
 40
195.18900690851987
 50
268.20100402832031
 51
274.51461791992187
  0
TEXT
  8
_0-0_
 62
    7
 10
141.89189395389042
 20
14.594594594594582
 40
2.5
 41
1
 50
0
  1
縮尺
  0
TEXT
  8
_0-0_
 62
    7
 10
377.10214563318203
 20
22.865493362014362
 40
2.5
 41
1
 50
0
  1
ＮＯ
  0
TEXT
  8
_0-0_
 62
    7
 10
14.594594336844779
 20
24.324324324324323
 40
2.5
 41
1
 50
0
  1
和形
  0
TEXT
  8
_0-0_
 62
    7
 10
383.23801896378802
 20
18.523427086907475
 40
3
 41
1
 50
0
  1
Ｊ
  0
TEXT
  8
_1-0_
 62
    7
 10
169.90681828679266
 20
13.3181144095756
 40
2.5
 41
1
 50
0
  1
1/5
  0
TEXT
  8
_1-5_
 62
    7
 10
77.173497999036641
 20
174.37339164115289
 40
2.5
 41
1
 50
0
  1
桟瓦
  0
TEXT
  8
_1-5_
 62
    7
 10
269.76520435230151
 20
182.18276565139359
 40
2.5
 41
1
 50
0
  1
瓦桟　
  0
TEXT
  8
_1-5_
 62
    7
 10
269.09446510108739
 20
188.60953253668708
 40
2.5
 41
1
 50
0
  1
桟瓦
  0
TEXT
  8
_1-3_
 62
    7
 10
25.556194717819636
 20
20.211577544341225
 40
2.5
 41
1
 50
0
  1
ＲＣ
  0
TEXT
  8
_1-0_
 62
    7
 10
269.22362868850297
 20
161.65736018000422
 40
2.5
 41
1
 50
0
  1
パーライト系モルタル　ｔ＝50
  0
TEXT
  8
_1-a_
 62
    7
 10
181.87278472052304
 20
112.26294058980301
 40
2.5
 41
1
 50
-24.227719460851628
  1
250
  0
TEXT
  8
_1-a_
 62
    7
 10
176.89095505149857
 20
114.51195762994996
 40
2.5
 41
1
 50
24.227719460851628
  1
250
  0
TEXT
  8
_1-3_
 62
    7
 10
39.721903414339636
 20
15.395235628695104
 40
2.5
 41
1
 50
0
  1
棟　　2　-　1
  0
TEXT
  8
_1-3_
 62
    7
 10
394.99009828309761
 20
15.120526391106694
 40
2.5
 41
1
 50
0
  1
29
  0
TEXT
  8
_1-2_
 62
    7
 10
219.25642683699326
 20
243.09695682010135
 40
2.5
 41
1
 50
0
  1
棟金具
  0
TEXT
  8
_1-2_
 62
    7
 10
233.86448628193625
 20
196.73450366870779
 40
2.5
 41
1
 50
0
  1
台のし瓦
  0
TEXT
  8
_1-3_
 62
    7
 10
221.44612080342063
 20
216.36343466269005
 40
2.5
 41
1
 50
0
  1
のし瓦
  0
TEXT
  8
_1-0_
 62
    7
 10
279.58722913587417
 20
178.99754704655828
 40
2.5
 41
1
 50
0
  1
※　地域により瓦桟木の大きさは、異なります
  0
POINT
  8
_1-a_
 62
    7
 10
206.17548349741344
 20
100.77842918602197
  0
POINT
  8
_1-a_
 62
    7
 10
160.57941333667654
 20
121.29667127454604
  0
POINT
  8
_1-a_
 62
    7
 10
156.09075597814612
 20
104.60356428816512
  0
POINT
  8
_1-a_
 62
    7
 10
201.52122703758448
 20
125.04728987410263
  0
LINE
  8
ADD_LINE
  6
DOT
 62
    7
 10
165.27454242928451
 20
205.44751675659813
 11
199.16805324459236
 21
205.44751675659813
  0
LINE
  8
_1-2_
  6
CONTINUOUS
 62
    3
 10
203.49290177628802
 20
216.60989831540303
 11
203.49290177628802
 21
205.60991151219355
  0
LINE
  8
_1-2_
  6
CONTINUOUS
 62
    3
 10
160.49290837468328
 20
210.60990326419949
 11
160.49290837468328
 21
216.60989831540303
  0
LINE
  8
_1-2_
  6
CONTINUOUS
 62
    3
 10
160.49290837468328
 20
210.60990326419949
 11
160.49290837468328
 21
205.60991151219355
  0
ARC
  8
_1-2_
  6
CONTINUOUS
 62
    3
 10
181.99290507548565
 20
161.88510501013485
 40
48.724841556033574
 50
63.816116333007827
 51
116.1838836669922
  0
ARC
  8
_1-2_
  6
CONTINUOUS
 62
    3
 10
181.99290507548565
 20
175.08906305753777
 40
41.520850722854213
 50
58.814392089843743
 51
121.18560791015624
  0
ARC
  8
_1-2_
  6
CONTINUOUS
 62
    3
 10
181.99290507548565
 20
160.82868543137641
 40
59.781219894821589
 50
68.921615600585909
 51
111.07835388183591
  0
LINE
  8
_1-2_
  6
DASHED1
 62
    7
 10
180.99288940429687
 20
216.60690945074808
 11
180.99288940429687
 21
217.05504771352258
  0
LINE
  8
_1-2_
  6
DASHED1
 62
    7
 10
180.99288940429687
 20
217.05504771352258
 11
182.99289600269216
 21
217.05504771352258
  0
ARC
  8
_1-2_
  6
DASHED1
 62
    7
 10
181.99289270349453
 20
216.40175709380131
 40
1.1944762113932017
 50
33.155624389648445
 51
146.84437561035156
  0
LINE
  8
_1-2_
  6
DASHED1
 62
    7
 10
181.86605505041175
 20
217.58805783546092
 11
182.13254773938979
 21
217.58805783546092
  0
LINE
  8
_1-2_
  6
DASHED1
 62
    7
 10
182.99289600269216
 20
216.60690945074808
 11
182.99289600269216
 21
217.05504771352258
  0
TEXT
  8
_1-0_
 62
    7
 10
215.38069853911531
 20
230.44605152027029
 40
2.5
 41
1
 50
0
  1
紐伏間
  0
TEXT
  8
_1-2_
 62
    7
 10
135.4938109252189
 20
247.47821434602895
 40
2.5
 41
1
 50
0
  1
パッキン付きステンレスネジ
  0
TEXT
  8
_1-0_
 62
    7
 10
131.47754297468722
 20
226.94048050808277
 40
2.5
 41
1
 50
0
  1
のし瓦全数相互銅線緊結
  0
TEXT
  8
_1-2_
 62
    7
 10
111.48748203908626
 20
193.25859701385102
 40
2.5
 41
1
 50
0
  1
葺き土
  0
TEXT
  8
_1-a_
 62
    7
 10
126.49105381321264
 20
70.189602826092695
 40
2.5
 41
1
 50
0
  1
棟部分のルーフィングは、両方向へそれぞれ250ｍｍ以上重ね合わせること。
  0
TEXT
  8
_1-a_
 62
    7
 10
126.57884546228357
 20
66.07827882508974
 40
2.5
 41
1
 50
0
  1
隅棟部分のルーフィングは、重ね貼りの上に両方向へそれぞれ250ｍｍ以上増し貼りをすること。
  0
TEXT
  8
_1-0_
 62
    7
 10
279.17301899678
 20
182.18162742820948
 40
2.5
 41
1
 50
0
  1
15×21　（樹脂桟木）
  0
TEXT
  8
_1-5_
 62
    7
 10
269.76676322318411
 20
175.1827673009924
 40
2.5
 41
1
 50
0
  1
縦桟
  0
TEXT
  8
_1-5_
 62
    7
 10
269.76676734718114
 20
168.18276895059122
 40
2.5
 41
1
 50
0
  1
ルーフィング
  0
LINE
  8
_1-0_
  6
CONTINUOUS
 62
    7
 10
85.201560355521536
 20
113.48294232342695
 11
181.99290507548565
 21
157.03905672640414
  0
LINE
  8
_1-0_
  6
CONTINUOUS
 62
    7
 10
326.63890116923568
 20
91.94833497743349
 11
181.99290507548565
 21
157.03905672640414
  0
LINE
  8
_1-b_
  6
CONTINUOUS
 62
    3
 10
118.64170383762669
 20
152.04346940324115
 11
150.79241944551913
 21
163.87721979271794
  0
LINE
  8
_1-b_
  6
CONTINUOUS
 62
    3
 10
150.79241944551913
 20
163.87721979271794
 11
151.04934345165543
 21
163.97178610330218
  0
LINE
  8
_1-b_
  6
CONTINUOUS
 62
    3
 10
151.04934345165543
 20
163.97178610330218
 11
172.84008129222974
 21
171.99232771589951
  0
ARC
  8
_1-6_
  6
CONTINUOUS
 62
    3
 10
138.41760198775853
 20
170.27967083320954
 40
15.338623339986732
 50
338.11013101003556
 51
21.114407766105224
  0
ARC
  8
_1-6_
  6
CONTINUOUS
 62
    3
 10
84.268343712162746
 20
211.76114179428532
 40
76.753248523828489
 50
336.0230905893564
 51
338.32678801435151
  0
ARC
  8
_1-6_
  6
CONTINUOUS
 62
    3
 10
84.268343712162746
 20
211.76114179428532
 40
76.753248523828489
 50
341.86722978843369
 51
342.60792116909346
  0
ARC
  8
_1-6_
  6
CONTINUOUS
 62
    3
 10
84.268343712162746
 20
211.76114179428532
 40
76.753248523828489
 50
346.02792555243337
 51
347.51019987891834
  0
ARC
  8
_1-6_
  6
CONTINUOUS
 62
    3
 10
84.268343712162746
 20
211.76114179428532
 40
76.753248523828489
 50
350.72813580886611
 51
352.19242995697408
  0
LINE
  8
_1-6_
  6
CONTINUOUS
 62
    3
 10
169.12884002852471
 20
208.88112627926077
 11
168.61715799144329
 21
206.79175796117835
  0
LINE
  8
_1-b_
  6
CONTINUOUS
 62
    3
 10
213.19336596146991
 20
163.87721979271794
 11
212.93644195533361
 21
163.97178610330218
  0
ARC
  8
_1-6_
  6
CONTINUOUS
 62
    3
 10
225.56818341923051
 20
170.27967083320954
 40
15.338623339986732
 50
158.88559223389476
 51
201.88986898996444
  0
ARC
  8
_1-6_
  6
CONTINUOUS
 62
    3
 10
279.71744169482628
 20
211.76114179428532
 40
76.753248523828489
 50
201.67321198564846
 51
203.9769094106436
  0
ARC
  8
_1-6_
  6
CONTINUOUS
 62
    3
 10
279.71744169482628
 20
211.76114179428532
 40
76.753248523828489
 50
197.39207883090654
 51
198.13277021156631
  0
ARC
  8
_1-6_
  6
CONTINUOUS
 62
    3
 10
279.71744169482628
 20
211.76114179428532
 40
76.753248523828489
 50
192.48980012108163
 51
193.97207444756663
  0
ARC
  8
_1-6_
  6
CONTINUOUS
 62
    3
 10
279.71744169482628
 20
211.76114179428532
 40
76.753248523828489
 50
187.80757004302589
 51
189.27186419113386
  0
LINE
  8
_1-6_
  6
CONTINUOUS
 62
    3
 10
194.85694537846433
 20
208.88112627926077
 11
195.36862741554575
 21
206.79175796117835
  0
LINE
  8
_1-2_
  6
CONTINUOUS
 62
    7
 10
178.99289517789273
 20
195.01967130669698
 11
178.99289517789273
 21
201.01967872989167
  0
LINE
  8
_1-2_
  6
CONTINUOUS
 62
    7
 10
178.99289517789273
 20
201.01967872989167
 11
184.9928902290963
 21
201.01967872989167
  0
LINE
  8
_1-2_
  6
CONTINUOUS
 62
    7
 10
184.9928902290963
 20
201.01967872989167
 11
184.9928902290963
 21
195.01967130669698
  0
LINE
  8
_1-2_
  6
CONTINUOUS
 62
    7
 10
184.9928902290963
 20
195.01967130669698
 11
178.99289517789273
 21
195.01967130669698
  0
LINE
  8
_1-2_
  6
CONTINUOUS
 62
    7
 10
178.39289072397594
 20
194.61211317483469
 11
185.5928946830131
 21
194.61211317483469
  0
LINE
  8
_1-2_
  6
CONTINUOUS
 62
    7
 10
178.39289072397594
 20
194.61211317483469
 11
178.39289072397594
 21
199.60387755273797
  0
LINE
  8
_1-2_
  6
CONTINUOUS
 62
    7
 10
185.5928946830131
 20
199.60387755273797
 11
185.5928946830131
 21
194.61211317483469
  0
LINE
  8
_1-2_
  6
CONTINUOUS
 62
    7
 10
184.9928902290963
 20
199.60387755273797
 11
185.5928946830131
 21
199.60387755273797
  0
LINE
  8
_1-2_
  6
CONTINUOUS
 62
    7
 10
178.99289517789273
 20
201.01967872989167
 11
184.9928902290963
 21
195.01967130669698
  0
LINE
  8
_1-2_
  6
CONTINUOUS
 62
    7
 10
184.9928902290963
 20
201.01967872989167
 11
178.99289517789273
 21
195.01967130669698
  0
LINE
  8
_1-2_
  6
CONTINUOUS
 62
    7
 10
181.29289781725086
 20
194.61211317483469
 11
181.29289781725086
 21
177.04925537109375
  0
LINE
  8
_1-2_
  6
CONTINUOUS
 62
    7
 10
182.69288758973818
 20
194.61211317483469
 11
182.69288758973818
 21
177.04925537109375
  0
LINE
  8
_1-2_
  6
DASHED1
 62
    7
 10
178.39289072397594
 20
197.61966998701797
 11
185.5928946830131
 21
197.61966998701797
  0
LINE
  8
_1-2_
  6
DASHED1
 62
    7
 10
178.39289072397594
 20
198.41966767757958
 11
185.5928946830131
 21
198.41966767757958
  0
LINE
  8
_1-2_
  6
CONTINUOUS
 62
    7
 10
178.39289072397594
 20
199.60387755273797
 11
179.01152739653716
 21
199.60387755273797
  0
LINE
  8
ADD_LINE
  6
DOT
 62
    7
 10
181.99289270349453
 20
198.01967501829432
 11
181.99289270349453
 21
263.8078202995008
  0
LINE
  8
ADD_LINE
  6
DOT
 62
    4
 10
179.2550329259924
 20
196.49602222582681
 11
186.03466137035474
 21
196.49602222582681
  0
LINE
  8
_1-2_
  6
DASHED1
 62
    7
 10
181.48455233187289
 20
197.83058890920941
 11
181.99289270349453
 21
196.42226041469928
  0
LINE
  8
_1-2_
  6
DASHED1
 62
    7
 10
181.99289270349453
 20
196.42226041469928
 11
182.49289435309333
 21
197.8222501871866
  0
LINE
  8
_1-2_
  6
DASHED1
 62
    7
 10
181.4928910538957
 20
197.83058890920941
 11
182.50123307511615
 21
197.83058890920941
  0
LINE
  8
_1-2_
  6
DASHED1
 62
    7
 10
182.49289435309333
 20
216.63976945919404
 11
182.49289435309333
 21
197.8222501871866
  0
LINE
  8
_1-2_
  6
DASHED1
 62
    7
 10
181.4928910538957
 20
216.63976945919404
 11
181.4928910538957
 21
197.83058890920941
  0
LINE
  8
ADD_LINE
  6
DOT
 62
    4
 10
181.99289270349453
 20
196.42226041469928
 11
181.99289270349453
 21
121.01260919301166
  0
LINE
  8
_1-2_
  6
CONTINUOUS
 62
    7
 10
166.21877111251911
 20
242.30277396537164
 11
165.2742622994088
 21
242.30277396537164
  0
LINE
  8
_1-1_
  6
CONTINUOUS
 62
    7
 10
180.67075707154743
 20
199.13279950083194
 11
166.21877111251911
 21
242.30277396537164
  0
LINE
  8
_1-1_
  6
CONTINUOUS
 62
    7
 10
165.2742622994088
 20
242.30277396537164
 11
161.9987520798669
 21
242.30277396537164
  0
TEXT
  8
_1-2_
 62
    7
 10
141.3558132279534
 20
240.83361064891847
 40
2.5
 41
1
 50
0
  1
棟補強芯材40ｘ40
  0
ARC
  8
_1-6_
  6
CONTINUOUS
 62
    1
 10
138.41760198775853
 20
170.27967083320954
 40
15.338623339986732
 50
338.11013101003556
 51
21.114407766105224
  0
ARC
  8
_1-6_
  6
CONTINUOUS
 62
    1
 10
84.268343712162746
 20
211.76114179428532
 40
76.753248523828489
 50
336.0230905893564
 51
338.32678801435151
  0
ARC
  8
_1-6_
  6
CONTINUOUS
 62
    1
 10
84.268343712162746
 20
211.76114179428532
 40
76.753248523828489
 50
341.86722978843369
 51
342.60792116909346
  0
ARC
  8
_1-6_
  6
CONTINUOUS
 62
    1
 10
84.268343712162746
 20
211.76114179428532
 40
76.753248523828489
 50
346.02792555243337
 51
347.51019987891834
  0
ARC
  8
_1-6_
  6
CONTINUOUS
 62
    1
 10
84.268343712162746
 20
211.76114179428532
 40
76.753248523828489
 50
350.72813580886611
 51
352.19242995697408
  0
SOLID
  8
_1-6_
  6
CONTINUOUS
 62
    8
 10
154.90320819728115
 20
170.16810813500496
 11
152.6503441903298
 21
164.56106826255183
 12
172.84008129222974
 22
171.99232771589951
 13
172.84008129222974
 23
171.99232771589951
  0
SOLID
  8
_1-6_
  6
CONTINUOUS
 62
    8
 10
154.90320819728115
 20
170.16810813500496
 11
172.84008129222974
 21
171.99232771589951
 12
172.42555772936024
 22
173.11846346468539
 13
172.42555772936024
 23
173.11846346468539
  0
SOLID
  8
_1-6_
  6
CONTINUOUS
 62
    8
 10
154.90320819728115
 20
170.16810813500496
 11
172.42555772936024
 21
173.11846346468539
 12
173.88061039558582
 22
173.65402249812939
 13
173.88061039558582
 23
173.65402249812939
  0
SOLID
  8
_1-6_
  6
CONTINUOUS
 62
    8
 10
175.99961564347552
 20
168.04044156461148
 11
176.99288857949747
 21
167.50943574682327
 12
176.99288857949747
 22
177.04925537109375
 13
176.99288857949747
 23
177.04925537109375
  0
SOLID
  8
_1-6_
  6
CONTINUOUS
 62
    8
 10
181.29289781725086
 20
177.04925537109375
 11
180.96006511941869
 21
179.08956234371692
 12
176.62550508581094
 22
179.83329936102058
 13
176.62550508581094
 23
179.83329936102058
  0
SOLID
  8
_1-6_
  6
CONTINUOUS
 62
    8
 10
181.29289781725086
 20
177.04925537109375
 11
176.62550508581094
 21
179.83329936102058
 12
173.24482248111161
 22
180.07827636136113
 13
173.24482248111161
 23
180.07827636136113
  0
SOLID
  8
_1-6_
  6
CONTINUOUS
 62
    8
 10
181.29289781725086
 20
177.04925537109375
 11
173.24482248111161
 21
180.07827636136113
 12
170.55007547736579
 22
180.07827636136113
 13
170.55007547736579
 23
180.07827636136113
  0
SOLID
  8
_1-6_
  6
CONTINUOUS
 62
    8
 10
181.29289781725086
 20
177.04925537109375
 11
170.55007547736579
 21
180.07827636136113
 12
168.59025947464153
 22
180.02928096129301
 13
168.59025947464153
 23
180.02928096129301
  0
SOLID
  8
_1-6_
  6
CONTINUOUS
 62
    8
 10
181.29289781725086
 20
177.04925537109375
 11
168.59025947464153
 21
180.02928096129301
 12
166.23848027137245
 22
179.83329936102058
 13
166.23848027137245
 23
179.83329936102058
  0
SOLID
  8
_1-6_
  6
CONTINUOUS
 62
    8
 10
181.29289781725086
 20
177.04925537109375
 11
166.23848027137245
 21
179.83329936102058
 12
164.03368726830769
 22
179.58832236068005
 13
164.03368726830769
 23
179.58832236068005
  0
SOLID
  8
_1-6_
  6
CONTINUOUS
 62
    8
 10
181.29289781725086
 20
177.04925537109375
 11
164.03368726830769
 21
179.58832236068005
 12
161.63291266497049
 22
179.00037755986278
 13
161.63291266497049
 23
179.00037755986278
  0
SOLID
  8
_1-6_
  6
CONTINUOUS
 62
    8
 10
181.29289781725086
 20
177.04925537109375
 11
161.63291266497049
 21
179.00037755986278
 12
158.5951978607479
 22
178.11846035863687
 13
158.5951978607479
 23
178.11846035863687
  0
SOLID
  8
_1-6_
  6
CONTINUOUS
 62
    8
 10
181.29289781725086
 20
177.04925537109375
 11
158.5951978607479
 21
178.11846035863687
 12
156.14542785734258
 22
177.33453395754719
 13
156.14542785734258
 23
177.33453395754719
  0
SOLID
  8
_1-6_
  6
CONTINUOUS
 62
    8
 10
156.14542785734258
 20
177.33453395754719
 11
154.28360265475456
 21
176.55060755645749
 12
152.7264358576324
 22
175.80512459288724
 13
152.7264358576324
 23
175.80512459288724
  0
SOLID
  8
_1-6_
  6
CONTINUOUS
 62
    8
 10
156.14542785734258
 20
177.33453395754719
 11
152.7264358576324
 21
175.80512459288724
 12
154.90320819728115
 22
170.16810813500496
 13
154.90320819728115
 23
170.16810813500496
  0
SOLID
  8
_1-6_
  6
CONTINUOUS
 62
    8
 10
156.14542785734258
 20
177.33453395754719
 11
154.90320819728115
 21
170.16810813500496
 12
173.88061039558582
 22
173.65402249812939
 13
173.88061039558582
 23
173.65402249812939
  0
SOLID
  8
_1-6_
  6
CONTINUOUS
 62
    8
 10
173.88061039558582
 20
173.65402249812939
 11
175.99961564347552
 21
168.04044156461148
 12
176.99288857949747
 22
177.04925537109375
 13
176.99288857949747
 23
177.04925537109375
  0
SOLID
  8
_1-6_
  6
CONTINUOUS
 62
    8
 10
176.99288857949747
 20
177.04925537109375
 11
181.29289781725086
 21
177.04925537109375
 12
156.14542785734258
 22
177.33453395754719
 13
156.14542785734258
 23
177.33453395754719
  0
SOLID
  8
_1-6_
  6
CONTINUOUS
 62
    8
 10
176.99288857949747
 20
177.04925537109375
 11
156.14542785734258
 21
177.33453395754719
 12
173.88061039558582
 22
173.65402249812939
 13
173.88061039558582
 23
173.65402249812939
  0
SOLID
  8
_1-6_
  6
CONTINUOUS
 62
    8
 10
181.29289781725086
 20
191.15024819604787
 11
179.68123627256577
 21
190.67538072094385
 12
181.18594101787733
 22
185.48925627162239
 13
181.18594101787733
 23
185.48925627162239
  0
SOLID
  8
_1-6_
  6
CONTINUOUS
 62
    8
 10
180.24244994909344
 20
185.70880381958384
 11
179.16676803566435
 21
185.89587893496281
 12
178.05990693633876
 22
186.08295405034178
 13
178.05990693633876
 23
186.08295405034178
  0
SOLID
  8
_1-6_
  6
CONTINUOUS
 62
    8
 10
178.05990693633876
 20
186.08295405034178
 11
176.8906874652202
 21
186.28561875866899
 12
175.2849593915507
 22
186.45710428109973
 13
175.2849593915507
 23
186.45710428109973
  0
SOLID
  8
_1-6_
  6
CONTINUOUS
 62
    8
 10
178.05990693633876
 20
186.08295405034178
 11
175.2849593915507
 21
186.45710428109973
 12
173.8195376544154
 22
186.5506418387892
 13
173.8195376544154
 23
186.5506418387892
  0
SOLID
  8
_1-6_
  6
CONTINUOUS
 62
    8
 10
178.05990693633876
 20
186.08295405034178
 11
173.8195376544154
 21
186.5506418387892
 12
172.44765347496963
 22
186.59741061763395
 13
172.44765347496963
 23
186.59741061763395
  0
SOLID
  8
_1-6_
  6
CONTINUOUS
 62
    8
 10
178.05990693633876
 20
186.08295405034178
 11
172.44765347496963
 21
186.59741061763395
 12
171.1693068532133
 22
186.59741061763395
 13
171.1693068532133
 23
186.59741061763395
  0
SOLID
  8
_1-6_
  6
CONTINUOUS
 62
    8
 10
178.05990693633876
 20
186.08295405034178
 11
171.1693068532133
 21
186.59741061763395
 12
169.79742267376753
 22
186.56623143173746
 13
169.79742267376753
 23
186.56623143173746
  0
SOLID
  8
_1-6_
  6
CONTINUOUS
 62
    8
 10
178.05990693633876
 20
186.08295405034178
 11
169.79742267376753
 21
186.56623143173746
 12
168.77882045964395
 22
186.5181527120543
 13
168.77882045964395
 23
186.5181527120543
  0
SOLID
  8
_1-6_
  6
CONTINUOUS
 62
    8
 10
178.05990693633876
 20
186.08295405034178
 11
168.77882045964395
 21
186.5181527120543
 12
167.6938133238107
 22
186.43017916050024
 13
167.6938133238107
 23
186.43017916050024
  0
SOLID
  8
_1-6_
  6
CONTINUOUS
 62
    8
 10
178.05990693633876
 20
186.08295405034178
 11
167.6938133238107
 21
186.43017916050024
 12
166.60880618797748
 22
186.31288109176154
 13
166.60880618797748
 23
186.31288109176154
  0
SOLID
  8
_1-6_
  6
CONTINUOUS
 62
    8
 10
178.05990693633876
 20
186.08295405034178
 11
166.60880618797748
 21
186.31288109176154
 12
165.79609814028771
 22
186.2081506732448
 13
165.79609814028771
 23
186.2081506732448
  0
SOLID
  8
_1-6_
  6
CONTINUOUS
 62
    8
 10
178.05990693633876
 20
186.08295405034178
 11
165.79609814028771
 21
186.2081506732448
 12
165.07555286089266
 22
186.09504182124675
 13
165.07555286089266
 23
186.09504182124675
  0
SOLID
  8
_1-6_
  6
CONTINUOUS
 62
    8
 10
178.05990693633876
 20
186.08295405034178
 11
165.07555286089266
 21
186.09504182124675
 12
164.29216933038759
 22
185.96936531902668
 13
164.29216933038759
 23
185.96936531902668
  0
SOLID
  8
_1-6_
  6
CONTINUOUS
 62
    8
 10
178.05990693633876
 20
186.08295405034178
 11
164.29216933038759
 21
185.96936531902668
 12
163.59675935143656
 22
185.83949960006595
 13
163.59675935143656
 23
185.83949960006595
  0
SOLID
  8
_1-6_
  6
CONTINUOUS
 62
    8
 10
178.05990693633876
 20
186.08295405034178
 11
163.59675935143656
 21
185.83949960006595
 12
162.96837684033622
 22
185.71801231458653
 13
162.96837684033622
 23
185.71801231458653
  0
SOLID
  8
_1-6_
  6
CONTINUOUS
 62
    8
 10
178.05990693633876
 20
186.08295405034178
 11
162.96837684033622
 21
185.71801231458653
 12
161.85404518731832
 22
185.44990244318373
 13
161.85404518731832
 23
185.44990244318373
  0
SOLID
  8
_1-6_
  6
CONTINUOUS
 62
    8
 10
178.05990693633876
 20
186.08295405034178
 11
161.85404518731832
 21
185.44990244318373
 12
161.02458027266587
 22
185.24463082289097
 13
161.02458027266587
 23
185.24463082289097
  0
SOLID
  8
_1-6_
  6
CONTINUOUS
 62
    8
 10
178.05990693633876
 20
186.08295405034178
 11
161.02458027266587
 21
185.24463082289097
 12
160.39619776156553
 22
185.07287293652354
 13
160.39619776156553
 23
185.07287293652354
  0
SOLID
  8
_1-6_
  6
CONTINUOUS
 62
    8
 10
178.05990693633876
 20
186.08295405034178
 11
160.39619776156553
 21
185.07287293652354
 12
159.0263238873668
 22
184.66651891267867
 13
159.0263238873668
 23
184.66651891267867
  0
SOLID
  8
_1-6_
  6
CONTINUOUS
 62
    8
 10
178.05990693633876
 20
186.08295405034178
 11
159.0263238873668
 21
184.66651891267867
 12
158.17591288901104
 22
184.39003060779453
 13
158.17591288901104
 23
184.39003060779453
  0
SOLID
  8
_1-6_
  6
CONTINUOUS
 62
    8
 10
178.05990693633876
 20
186.08295405034178
 11
158.17591288901104
 21
184.39003060779453
 12
156.94428316725438
 22
183.95016285002427
 13
156.94428316725438
 23
183.95016285002427
  0
SOLID
  8
_1-6_
  6
CONTINUOUS
 62
    8
 10
178.05990693633876
 20
186.08295405034178
 11
156.94428316725438
 21
183.95016285002427
 12
156.18603493719331
 22
183.64435002795545
 13
156.18603493719331
 23
183.64435002795545
  0
SOLID
  8
_1-6_
  6
CONTINUOUS
 62
    8
 10
178.05990693633876
 20
186.08295405034178
 11
156.18603493719331
 21
183.64435002795545
 12
155.59554750635695
 22
183.41522219618324
 13
155.59554750635695
 23
183.41522219618324
  0
SOLID
  8
_1-6_
  6
CONTINUOUS
 62
    8
 10
155.59554750635695
 20
183.41522219618324
 11
154.39850077717216
 21
180.57104354183207
 12
155.17893277935352
 22
180.85460995645599
 13
155.17893277935352
 23
180.85460995645599
  0
SOLID
  8
_1-6_
  6
CONTINUOUS
 62
    8
 10
155.59554750635695
 20
183.41522219618324
 11
155.17893277935352
 21
180.85460995645599
 12
155.97496335033631
 22
181.14282792181183
 13
155.97496335033631
 23
181.14282792181183
  0
SOLID
  8
_1-6_
  6
CONTINUOUS
 62
    8
 10
155.59554750635695
 20
183.41522219618324
 11
155.97496335033631
 21
181.14282792181183
 12
156.78471858633603
 22
181.40359655713377
 13
156.78471858633603
 23
181.40359655713377
  0
SOLID
  8
_1-6_
  6
CONTINUOUS
 62
    8
 10
155.59554750635695
 20
183.41522219618324
 11
156.78471858633603
 21
181.40359655713377
 12
157.57388682481033
 22
181.65750285994724
 13
157.57388682481033
 23
181.65750285994724
  0
SOLID
  8
_1-6_
  6
CONTINUOUS
 62
    8
 10
155.59554750635695
 20
183.41522219618324
 11
157.57388682481033
 21
181.65750285994724
 12
158.50030171345409
 22
181.93885849279462
 13
158.50030171345409
 23
181.93885849279462
  0
SOLID
  8
_1-6_
  6
CONTINUOUS
 62
    8
 10
155.59554750635695
 20
183.41522219618324
 11
158.50030171345409
 21
181.93885849279462
 12
159.47475292965714
 22
182.22021412564197
 13
159.47475292965714
 23
182.22021412564197
  0
SOLID
  8
_1-6_
  6
CONTINUOUS
 62
    8
 10
155.59554750635695
 20
183.41522219618324
 11
159.47475292965714
 21
182.22021412564197
 12
160.46979114338561
 22
182.4878450934724
 13
160.46979114338561
 23
182.4878450934724
  0
SOLID
  8
_1-6_
  6
CONTINUOUS
 62
    8
 10
155.59554750635695
 20
183.41522219618324
 11
160.46979114338561
 21
182.4878450934724
 12
161.73932265745299
 22
182.79665005635366
 13
161.73932265745299
 23
182.79665005635366
  0
SOLID
  8
_1-6_
  6
CONTINUOUS
 62
    8
 10
155.59554750635695
 20
183.41522219618324
 11
161.73932265745299
 21
182.79665005635366
 12
162.94023084643561
 22
183.08486802170947
 13
162.94023084643561
 23
183.08486802170947
  0
SOLID
  8
_1-6_
  6
CONTINUOUS
 62
    8
 10
155.59554750635695
 20
183.41522219618324
 11
162.94023084643561
 21
183.08486802170947
 12
164.2029000279945
 22
183.32504965950602
 13
164.2029000279945
 23
183.32504965950602
  0
SOLID
  8
_1-6_
  6
CONTINUOUS
 62
    8
 10
155.59554750635695
 20
183.41522219618324
 11
164.2029000279945
 21
183.32504965950602
 12
165.41753288199408
 22
183.54464429977713
 13
165.41753288199408
 23
183.54464429977713
  0
SOLID
  8
_1-6_
  6
CONTINUOUS
 62
    8
 10
155.59554750635695
 20
183.41522219618324
 11
165.41753288199408
 21
183.54464429977713
 12
166.68706439606146
 22
183.75737660753975
 13
166.68706439606146
 23
183.75737660753975
  0
SOLID
  8
_1-6_
  6
CONTINUOUS
 62
    8
 10
155.59554750635695
 20
183.41522219618324
 11
166.68706439606146
 21
183.75737660753975
 12
167.64779094724756
 22
183.88776092520072
 13
167.64779094724756
 23
183.88776092520072
  0
SOLID
  8
_1-6_
  6
CONTINUOUS
 62
    8
 10
155.59554750635695
 20
183.41522219618324
 11
167.64779094724756
 21
183.88776092520072
 12
168.9241847938234
 22
184.05245690540406
 13
168.9241847938234
 23
184.05245690540406
  0
SOLID
  8
_1-6_
  6
CONTINUOUS
 62
    8
 10
155.59554750635695
 20
183.41522219618324
 11
168.9241847938234
 21
184.05245690540406
 12
169.93294767256882
 22
184.14852956052266
 13
169.93294767256882
 23
184.14852956052266
  0
SOLID
  8
_1-6_
  6
CONTINUOUS
 62
    8
 10
155.59554750635695
 20
183.41522219618324
 11
169.93294767256882
 21
184.14852956052266
 12
170.96229754883964
 22
184.23087755062434
 13
170.96229754883964
 23
184.23087755062434
  0
SOLID
  8
_1-6_
  6
CONTINUOUS
 62
    8
 10
155.59554750635695
 20
183.41522219618324
 11
170.96229754883964
 21
184.23087755062434
 12
171.98478509260201
 22
184.29950087570907
 13
171.98478509260201
 23
184.29950087570907
  0
SOLID
  8
_1-6_
  6
CONTINUOUS
 62
    8
 10
181.29289781725086
 20
177.04925537109375
 11
181.29289781725086
 21
191.15024819604787
 12
181.18594101787733
 22
185.48925627162239
 13
181.18594101787733
 23
185.48925627162239
  0
SOLID
  8
_1-6_
  6
CONTINUOUS
 62
    8
 10
181.29289781725086
 20
177.04925537109375
 11
181.18594101787733
 21
185.48925627162239
 12
180.24244994909344
 22
185.70880381958384
 13
180.24244994909344
 23
185.70880381958384
  0
SOLID
  8
_1-6_
  6
CONTINUOUS
 62
    8
 10
180.24244994909344
 20
185.70880381958384
 11
178.05990693633876
 21
186.08295405034178
 12
155.59554750635695
 22
183.41522219618324
 13
155.59554750635695
 23
183.41522219618324
  0
SOLID
  8
_1-6_
  6
CONTINUOUS
 62
    8
 10
180.24244994909344
 20
185.70880381958384
 11
155.59554750635695
 21
183.41522219618324
 12
171.98478509260201
 22
184.29950087570907
 13
171.98478509260201
 23
184.29950087570907
  0
SOLID
  8
_1-6_
  6
CONTINUOUS
 62
    8
 10
180.24244994909344
 20
185.70880381958384
 11
171.98478509260201
 21
184.29950087570907
 12
173.47391124694047
 22
184.36812420079377
 13
173.47391124694047
 23
184.36812420079377
  0
SOLID
  8
_1-6_
  6
CONTINUOUS
 62
    8
 10
180.24244994909344
 20
185.70880381958384
 11
173.47391124694047
 21
184.36812420079377
 12
174.55129745077062
 22
184.40243586333614
 13
174.55129745077062
 23
184.40243586333614
  0
SOLID
  8
_1-6_
  6
CONTINUOUS
 62
    8
 10
180.24244994909344
 20
185.70880381958384
 11
174.55129745077062
 21
184.40243586333614
 12
175.86200295988883
 22
184.40929819584463
 13
175.86200295988883
 23
184.40929819584463
  0
SOLID
  8
_1-6_
  6
CONTINUOUS
 62
    8
 10
180.24244994909344
 20
185.70880381958384
 11
175.86200295988883
 21
184.40929819584463
 12
177.32832730644242
 22
184.38409753427464
 13
177.32832730644242
 23
184.38409753427464
  0
SOLID
  8
_1-6_
  6
CONTINUOUS
 62
    8
 10
180.24244994909344
 20
185.70880381958384
 11
177.32832730644242
 21
184.38409753427464
 12
179.45537320245921
 22
184.27568375224695
 13
179.45537320245921
 23
184.27568375224695
  0
SOLID
  8
_1-6_
  6
CONTINUOUS
 62
    8
 10
180.24244994909344
 20
185.70880381958384
 11
179.45537320245921
 21
184.27568375224695
 12
180.96007794777597
 22
179.08955930292518
 13
180.96007794777597
 23
179.08955930292518
  0
SOLID
  8
_1-6_
  6
CONTINUOUS
 62
    8
 10
180.24244994909344
 20
185.70880381958384
 11
180.96007794777597
 21
179.08955930292518
 12
181.29289781725086
 22
177.04925537109375
 13
181.29289781725086
 23
177.04925537109375
  0
SOLID
  8
_1-6_
  6
CONTINUOUS
 62
    8
 10
178.39289072397594
 20
196.47094233183844
 11
167.526017512073
 21
194.65624279770134
 12
167.83978024044552
 22
191.06993804106841
 13
167.83978024044552
 23
191.06993804106841
  0
SOLID
  8
_1-6_
  6
CONTINUOUS
 62
    8
 10
166.8926741101215
 20
190.97730206830823
 11
165.90924140921538
 21
190.84790302871531
 12
164.70583034100127
 22
190.67321432526489
 13
164.70583034100127
 23
190.67321432526489
  0
SOLID
  8
_1-6_
  6
CONTINUOUS
 62
    8
 10
166.8926741101215
 20
190.97730206830823
 11
164.70583034100127
 21
190.67321432526489
 12
163.76121735197302
 22
190.51146552577373
 13
163.76121735197302
 23
190.51146552577373
  0
SOLID
  8
_1-6_
  6
CONTINUOUS
 62
    8
 10
166.8926741101215
 20
190.97730206830823
 11
163.76121735197302
 21
190.51146552577373
 12
162.80366445898545
 22
190.31089701440473
 13
162.80366445898545
 23
190.31089701440473
  0
SOLID
  8
_1-6_
  6
CONTINUOUS
 62
    8
 10
166.8926741101215
 20
190.97730206830823
 11
162.80366445898545
 21
190.31089701440473
 12
161.93022094173327
 22
190.12326840699501
 13
161.93022094173327
 23
190.12326840699501
  0
SOLID
  8
_1-6_
  6
CONTINUOUS
 62
    8
 10
166.8926741101215
 20
190.97730206830823
 11
161.93022094173327
 21
190.12326840699501
 12
160.93384833686784
 22
189.86447032780916
 13
160.93384833686784
 23
189.86447032780916
  0
SOLID
  8
_1-6_
  6
CONTINUOUS
 62
    8
 10
166.8926741101215
 20
190.97730206830823
 11
160.93384833686784
 21
189.86447032780916
 12
160.05393486763603
 22
189.6250821045623
 13
160.05393486763603
 23
189.6250821045623
  0
SOLID
  8
_1-6_
  6
CONTINUOUS
 62
    8
 10
166.8926741101215
 20
190.97730206830823
 11
160.05393486763603
 21
189.6250821045623
 12
159.21284111028208
 22
189.39216383329503
 13
159.21284111028208
 23
189.39216383329503
  0
SOLID
  8
_1-6_
  6
CONTINUOUS
 62
    8
 10
166.8926741101215
 20
190.97730206830823
 11
159.21284111028208
 21
189.39216383329503
 12
158.45585672866355
 22
189.13983570608886
 13
158.45585672866355
 23
189.13983570608886
  0
SOLID
  8
_1-6_
  6
CONTINUOUS
 62
    8
 10
166.8926741101215
 20
190.97730206830823
 11
158.45585672866355
 21
189.13983570608886
 12
157.73769205892287
 22
188.90044748284197
 13
157.73769205892287
 23
188.90044748284197
  0
SOLID
  8
_1-6_
  6
CONTINUOUS
 62
    8
 10
166.8926741101215
 20
190.97730206830823
 11
157.73769205892287
 21
188.90044748284197
 12
157.5125612720318
 22
188.81891537653868
 13
157.5125612720318
 23
188.81891537653868
  0
SOLID
  8
_1-6_
  6
CONTINUOUS
 62
    8
 10
157.5125612720318
 20
188.81891537653868
 11
157.20986361025822
 21
187.87399391270844
 12
157.76357186684146
 22
188.05288377350837
 13
157.76357186684146
 23
188.05288377350837
  0
SOLID
  8
_1-6_
  6
CONTINUOUS
 62
    8
 10
157.5125612720318
 20
188.81891537653868
 11
157.76357186684146
 21
188.05288377350837
 12
158.30057788115204
 22
188.21463257299951
 13
158.30057788115204
 23
188.21463257299951
  0
SOLID
  8
_1-6_
  6
CONTINUOUS
 62
    8
 10
157.5125612720318
 20
188.81891537653868
 11
158.30057788115204
 21
188.21463257299951
 12
159.09638197464847
 22
188.45402079624643
 13
159.09638197464847
 23
188.45402079624643
  0
SOLID
  8
_1-6_
  6
CONTINUOUS
 62
    8
 10
157.5125612720318
 20
188.81891537653868
 11
159.09638197464847
 21
188.45402079624643
 12
159.82101659636879
 22
188.66752921157473
 13
159.82101659636879
 23
188.66752921157473
  0
SOLID
  8
_1-6_
  6
CONTINUOUS
 62
    8
 10
157.5125612720318
 20
188.81891537653868
 11
159.82101659636879
 21
188.66752921157473
 12
160.7591596334174
 22
188.91338738680125
 13
160.7591596334174
 23
188.91338738680125
  0
SOLID
  8
_1-6_
  6
CONTINUOUS
 62
    8
 10
157.5125612720318
 20
188.81891537653868
 11
160.7591596334174
 21
188.91338738680125
 12
161.4255646873209
 22
189.08160613827204
 13
161.4255646873209
 23
189.08160613827204
  0
SOLID
  8
_1-6_
  6
CONTINUOUS
 62
    8
 10
157.5125612720318
 20
188.81891537653868
 11
161.4255646873209
 21
189.08160613827204
 12
162.09196974122443
 22
189.23041503380389
 13
162.09196974122443
 23
189.23041503380389
  0
SOLID
  8
_1-6_
  6
CONTINUOUS
 62
    8
 10
157.5125612720318
 20
188.81891537653868
 11
162.09196974122443
 21
189.23041503380389
 12
162.6872053233518
 22
189.3727539773561
 13
162.6872053233518
 23
189.3727539773561
  0
SOLID
  8
_1-6_
  6
CONTINUOUS
 62
    8
 10
157.5125612720318
 20
188.81891537653868
 11
162.6872053233518
 21
189.3727539773561
 12
163.250091145581
 22
189.48274316101009
 13
163.250091145581
 23
189.48274316101009
  0
SOLID
  8
_1-6_
  6
CONTINUOUS
 62
    8
 10
157.5125612720318
 20
188.81891537653868
 11
163.250091145581
 21
189.48274316101009
 12
163.94237600740308
 22
189.6250821045623
 13
163.94237600740308
 23
189.6250821045623
  0
SOLID
  8
_1-6_
  6
CONTINUOUS
 62
    8
 10
157.5125612720318
 20
188.81891537653868
 11
163.94237600740308
 21
189.6250821045623
 12
165.45634477064016
 22
189.9097599916667
 13
165.45634477064016
 23
189.9097599916667
  0
SOLID
  8
_1-6_
  6
CONTINUOUS
 62
    8
 10
157.5125612720318
 20
188.81891537653868
 11
165.45634477064016
 21
189.9097599916667
 12
166.43330751956665
 22
190.07797874313746
 13
166.43330751956665
 23
190.07797874313746
  0
SOLID
  8
_1-6_
  6
CONTINUOUS
 62
    8
 10
178.98637857256398
 20
190.70313960127868
 11
179.68124507785569
 21
190.67538014524479
 12
181.29289781725086
 22
191.15024819604798
 13
181.29289781725086
 23
191.15024819604798
  0
SOLID
  8
_1-6_
  6
CONTINUOUS
 62
    8
 10
178.98637857256398
 20
190.70313960127868
 11
181.29289781725086
 21
191.15024819604798
 12
181.29289781725086
 22
194.61211317483469
 13
181.29289781725086
 23
194.61211317483469
  0
SOLID
  8
_1-6_
  6
CONTINUOUS
 62
    8
 10
178.98637857256398
 20
190.70313960127868
 11
181.29289781725086
 21
194.61211317483469
 12
178.39289072397594
 22
194.61211317483469
 13
178.39289072397594
 23
194.61211317483469
  0
SOLID
  8
_1-6_
  6
CONTINUOUS
 62
    8
 10
178.39289072397594
 20
194.61211317483469
 11
178.39289072397594
 21
196.47094233183844
 12
167.83978024044552
 22
191.06993804106841
 13
167.83978024044552
 23
191.06993804106841
  0
SOLID
  8
_1-6_
  6
CONTINUOUS
 62
    8
 10
166.8926741101215
 20
190.97730206830823
 11
157.5125612720318
 21
188.81891537653868
 12
166.43330751956665
 22
190.07797874313746
 13
166.43330751956665
 23
190.07797874313746
  0
SOLID
  8
_1-6_
  6
CONTINUOUS
 62
    8
 10
166.8926741101215
 20
190.97730206830823
 11
166.43330751956665
 21
190.07797874313746
 12
167.19676185316484
 22
190.1814979748118
 13
167.19676185316484
 23
190.1814979748118
  0
SOLID
  8
_1-6_
  6
CONTINUOUS
 62
    8
 10
166.8926741101215
 20
190.97730206830823
 11
167.19676185316484
 21
190.1814979748118
 12
168.06373541843737
 22
190.29795711044542
 13
168.06373541843737
 23
190.29795711044542
  0
SOLID
  8
_1-6_
  6
CONTINUOUS
 62
    8
 10
166.8926741101215
 20
190.97730206830823
 11
168.06373541843737
 21
190.29795711044542
 12
169.28655634259042
 22
190.45970590993659
 13
169.28655634259042
 23
190.45970590993659
  0
SOLID
  8
_1-6_
  6
CONTINUOUS
 62
    8
 10
166.8926741101215
 20
190.97730206830823
 11
169.28655634259042
 21
190.45970590993659
 12
170.73582558603104
 22
190.59557490150914
 13
170.73582558603104
 23
190.59557490150914
  0
SOLID
  8
_1-6_
  6
CONTINUOUS
 62
    8
 10
166.8926741101215
 20
190.97730206830823
 11
170.73582558603104
 21
190.59557490150914
 12
171.89394699038763
 22
190.68615422922417
 13
171.89394699038763
 23
190.68615422922417
  0
SOLID
  8
_1-6_
  6
CONTINUOUS
 62
    8
 10
166.8926741101215
 20
190.97730206830823
 11
171.89394699038763
 21
190.68615422922417
 12
173.14264772245923
 22
190.744383797041
 13
173.14264772245923
 23
190.744383797041
  0
SOLID
  8
_1-6_
  6
CONTINUOUS
 62
    8
 10
166.8926741101215
 20
190.97730206830823
 11
173.14264772245923
 21
190.744383797041
 12
174.3137090307751
 22
190.78967346089851
 13
174.3137090307751
 23
190.78967346089851
  0
SOLID
  8
_1-6_
  6
CONTINUOUS
 62
    8
 10
166.8926741101215
 20
190.97730206830823
 11
174.3137090307751
 21
190.78967346089851
 12
175.24538211584408
 22
190.80908331683744
 13
175.24538211584408
 23
190.80908331683744
  0
SOLID
  8
_1-6_
  6
CONTINUOUS
 62
    8
 10
166.8926741101215
 20
190.97730206830823
 11
175.24538211584408
 21
190.80908331683744
 12
176.52021975577767
 22
190.80032812607817
 13
176.52021975577767
 23
190.80032812607817
  0
SOLID
  8
_1-6_
  6
CONTINUOUS
 62
    8
 10
178.05093902136917
 20
190.76388242927837
 11
178.98637857256398
 21
190.70313960127868
 12
178.39289072397594
 22
194.61211317483469
 13
178.39289072397594
 23
194.61211317483469
  0
SOLID
  8
_1-6_
  6
CONTINUOUS
 62
    8
 10
178.05093902136917
 20
190.76388242927837
 11
178.39289072397594
 21
194.61211317483469
 12
167.83978024044552
 22
191.06993804106841
 13
167.83978024044552
 23
191.06993804106841
  0
SOLID
  8
_1-6_
  6
CONTINUOUS
 62
    8
 10
167.83978024044552
 20
191.06993804106841
 11
166.8926741101215
 21
190.97730206830823
 12
176.52021975577767
 22
190.80032812607817
 13
176.52021975577767
 23
190.80032812607817
  0
SOLID
  8
_1-6_
  6
CONTINUOUS
 62
    8
 10
167.83978024044552
 20
191.06993804106841
 11
176.52021975577767
 21
190.80032812607817
 12
178.05093902136917
 22
190.76388242927837
 13
178.05093902136917
 23
190.76388242927837
  0
SOLID
  8
_1-6_
  6
CONTINUOUS
 62
    8
 10
159.2051899636713
 20
195.16203841975488
 11
158.75073393881911
 21
193.22915039873737
 12
159.74279981735
 22
193.47265156979063
 13
159.74279981735
 23
193.47265156979063
  0
SOLID
  8
_1-6_
  6
CONTINUOUS
 62
    8
 10
159.2051899636713
 20
195.16203841975488
 11
159.74279981735
 21
193.47265156979063
 12
161.54259803640076
 22
193.82186614960645
 13
161.54259803640076
 23
193.82186614960645
  0
SOLID
  8
_1-6_
  6
CONTINUOUS
 62
    8
 10
159.2051899636713
 20
195.16203841975488
 11
161.54259803640076
 21
193.82186614960645
 12
162.95288768565692
 22
194.07706141947185
 13
162.95288768565692
 23
194.07706141947185
  0
SOLID
  8
_1-6_
  6
CONTINUOUS
 62
    8
 10
159.2051899636713
 20
195.16203841975488
 11
162.95288768565692
 21
194.07706141947185
 12
164.1348447250335
 22
194.26510003937267
 13
164.1348447250335
 23
194.26510003937267
  0
SOLID
  8
_1-6_
  6
CONTINUOUS
 62
    8
 10
159.2051899636713
 20
195.16203841975488
 11
164.1348447250335
 21
194.26510003937267
 12
165.26307644443844
 22
194.41284466929474
 13
165.26307644443844
 23
194.41284466929474
  0
SOLID
  8
_1-6_
  6
CONTINUOUS
 62
    8
 10
159.2051899636713
 20
195.16203841975488
 11
165.26307644443844
 21
194.41284466929474
 12
166.2435635339213
 22
194.52029530923807
 13
166.2435635339213
 23
194.52029530923807
  0
SOLID
  8
_1-6_
  6
CONTINUOUS
 62
    8
 10
159.2051899636713
 20
195.16203841975488
 11
166.2435635339213
 21
194.52029530923807
 12
167.52601432276253
 22
194.65624251867274
 13
167.52601432276253
 23
194.65624251867274
  0
SOLID
  8
_1-6_
  6
CONTINUOUS
 62
    8
 10
159.2051899636713
 20
195.16203841975488
 11
167.52601432276253
 21
194.65624251867274
 12
178.39289072397594
 22
196.47094233183844
 13
178.39289072397594
 23
196.47094233183844
  0
SOLID
  8
_1-6_
  6
CONTINUOUS
 62
    8
 10
181.4928910538957
 20
210.60738092822791
 11
168.51173116151347
 21
200.7548797341984
 12
168.82549388988599
 22
197.16858734955659
 13
168.82549388988599
 23
197.16858734955659
  0
SOLID
  8
_1-6_
  6
CONTINUOUS
 62
    8
 10
168.040243087904
 20
197.08359633979637
 11
167.38750430765037
 21
197.01974145911936
 12
166.62124573952656
 22
196.91331665799106
 13
166.62124573952656
 23
196.91331665799106
  0
SOLID
  8
_1-6_
  6
CONTINUOUS
 62
    8
 10
168.040243087904
 20
197.08359633979637
 11
166.62124573952656
 21
196.91331665799106
 12
166.05364680017556
 22
196.8352718038303
 13
166.05364680017556
 23
196.8352718038303
  0
SOLID
  8
_1-6_
  6
CONTINUOUS
 62
    8
 10
168.040243087904
 20
197.08359633979637
 11
166.05364680017556
 21
196.8352718038303
 12
165.36543308621251
 22
196.71465702921822
 13
165.36543308621251
 23
196.71465702921822
  0
SOLID
  8
_1-6_
  6
CONTINUOUS
 62
    8
 10
168.040243087904
 20
197.08359633979637
 11
165.36543308621251
 21
196.71465702921822
 12
164.54950961089548
 22
196.5656623076386
 13
164.54950961089548
 23
196.5656623076386
  0
SOLID
  8
_1-6_
  6
CONTINUOUS
 62
    8
 10
168.040243087904
 20
197.08359633979637
 11
164.54950961089548
 21
196.5656623076386
 12
163.85420091019051
 22
196.42376257280085
 13
163.85420091019051
 23
196.42376257280085
  0
SOLID
  8
_1-6_
  6
CONTINUOUS
 62
    8
 10
168.040243087904
 20
197.08359633979637
 11
163.85420091019051
 21
196.42376257280085
 12
162.6977180712629
 22
196.17543803683481
 13
162.6977180712629
 23
196.17543803683481
  0
SOLID
  8
_1-6_
  6
CONTINUOUS
 62
    8
 10
168.040243087904
 20
197.08359633979637
 11
162.6977180712629
 21
196.17543803683481
 12
161.83212968875267
 22
195.95549344783629
 13
161.83212968875267
 23
195.95549344783629
  0
SOLID
  8
_1-6_
  6
CONTINUOUS
 62
    8
 10
168.040243087904
 20
197.08359633979637
 11
161.83212968875267
 21
195.95549344783629
 12
160.78916663769525
 22
195.66459899141893
 13
160.78916663769525
 23
195.66459899141893
  0
SOLID
  8
_1-6_
  6
CONTINUOUS
 62
    8
 10
168.040243087904
 20
197.08359633979637
 11
160.78916663769525
 21
195.66459899141893
 12
159.87391334799179
 22
195.38789450848532
 13
159.87391334799179
 23
195.38789450848532
  0
SOLID
  8
_1-6_
  6
CONTINUOUS
 62
    8
 10
168.040243087904
 20
197.08359633979637
 11
159.87391334799179
 21
195.38789450848532
 12
159.2051899636713
 22
195.16203841975488
 13
159.2051899636713
 23
195.16203841975488
  0
SOLID
  8
_1-6_
  6
CONTINUOUS
 62
    8
 10
168.040243087904
 20
197.08359633979637
 11
159.2051899636713
 21
195.16203841975488
 12
178.39289072397594
 22
196.47094233183844
 13
178.39289072397594
 23
196.47094233183844
  0
SOLID
  8
_1-6_
  6
CONTINUOUS
 62
    8
 10
168.82549388988599
 20
197.16858734955659
 11
168.040243087904
 21
197.08359633979637
 12
178.39289072397594
 22
196.47094233183844
 13
178.39289072397594
 23
196.47094233183844
  0
SOLID
  8
_1-6_
  6
CONTINUOUS
 62
    8
 10
168.82549388988599
 20
197.16858734955659
 11
178.39289072397594
 21
196.47094233183844
 12
178.39289072397594
 22
199.60387755273797
 13
178.39289072397594
 23
199.60387755273797
  0
SOLID
  8
_1-6_
  6
CONTINUOUS
 62
    8
 10
178.39289072397594
 20
199.60387755273797
 11
178.99289517789273
 21
199.60387755273797
 12
178.99289517789273
 22
201.01967872989167
 13
178.99289517789273
 23
201.01967872989167
  0
SOLID
  8
_1-6_
  6
CONTINUOUS
 62
    8
 10
178.99289517789273
 20
201.01967872989167
 11
181.4928910538957
 21
201.01967872989167
 12
181.4928910538957
 22
210.60738092822791
 13
181.4928910538957
 23
210.60738092822791
  0
SOLID
  8
_1-6_
  6
CONTINUOUS
 62
    8
 10
178.99289517789273
 20
201.01967872989167
 11
181.4928910538957
 21
210.60738092822791
 12
168.82549388988599
 22
197.16858734955659
 13
168.82549388988599
 23
197.16858734955659
  0
SOLID
  8
_1-6_
  6
CONTINUOUS
 62
    8
 10
178.99289517789273
 20
201.01967872989167
 11
168.82549388988599
 21
197.16858734955659
 12
178.39289072397594
 22
199.60387755273797
 13
178.39289072397594
 23
199.60387755273797
  0
SOLID
  8
_1-6_
  6
CONTINUOUS
 62
    8
 10
160.31008200729065
 20
201.33448384382686
 11
160.01880758967411
 21
199.39472027056121
 12
161.95624878752503
 22
199.82756510989145
 13
161.95624878752503
 23
199.82756510989145
  0
SOLID
  8
_1-6_
  6
CONTINUOUS
 62
    8
 10
160.31008200729065
 20
201.33448384382686
 11
161.95624878752503
 21
199.82756510989145
 12
164.06908200471398
 22
200.20904888521724
 13
164.06908200471398
 23
200.20904888521724
  0
SOLID
  8
_1-6_
  6
CONTINUOUS
 62
    8
 10
160.31008200729065
 20
201.33448384382686
 11
164.06908200471398
 21
200.20904888521724
 12
165.88846616396
 22
200.50249794316017
 13
165.88846616396
 23
200.50249794316017
  0
SOLID
  8
_1-6_
  6
CONTINUOUS
 62
    8
 10
160.31008200729065
 20
201.33448384382686
 11
165.88846616396
 21
200.50249794316017
 12
167.1502971131145
 22
200.6785673779259
 13
167.1502971131145
 23
200.6785673779259
  0
SOLID
  8
_1-6_
  6
CONTINUOUS
 62
    8
 10
160.31008200729065
 20
201.33448384382686
 11
167.1502971131145
 21
200.6785673779259
 12
168.51172782279352
 22
200.75489353489232
 13
168.51172782279352
 23
200.75489353489232
  0
SOLID
  8
_1-6_
  6
CONTINUOUS
 62
    8
 10
168.51172782279352
 20
200.75489353489232
 11
181.4928910538957
 21
210.60738092822791
 12
179.74058002242012
 22
210.55434884766294
 13
179.74058002242012
 23
210.55434884766294
  0
SOLID
  8
_1-6_
  6
CONTINUOUS
 62
    8
 10
168.51172782279352
 20
200.75489353489232
 11
179.74058002242012
 21
210.55434884766294
 12
178.62989242748563
 22
210.48853032351866
 13
178.62989242748563
 23
210.48853032351866
  0
SOLID
  8
_1-6_
  6
CONTINUOUS
 62
    8
 10
168.51172782279352
 20
200.75489353489232
 11
178.62989242748563
 21
210.48853032351866
 12
177.42870436185277
 22
210.39802985282031
 13
177.42870436185277
 23
210.39802985282031
  0
SOLID
  8
_1-6_
  6
CONTINUOUS
 62
    8
 10
168.51172782279352
 20
200.75489353489232
 11
177.42870436185277
 21
210.39802985282031
 12
176.46610844624286
 22
210.2993020666039
 13
176.46610844624286
 23
210.2993020666039
  0
SOLID
  8
_1-6_
  6
CONTINUOUS
 62
    8
 10
168.51172782279352
 20
200.75489353489232
 11
176.46610844624286
 21
210.2993020666039
 12
175.22378380301984
 22
210.14298307176128
 13
175.22378380301984
 23
210.14298307176128
  0
SOLID
  8
_1-6_
  6
CONTINUOUS
 62
    8
 10
168.51172782279352
 20
200.75489353489232
 11
175.22378380301984
 21
210.14298307176128
 12
174.13777815463942
 22
209.97020944588257
 13
174.13777815463942
 23
209.97020944588257
  0
SOLID
  8
_1-6_
  6
CONTINUOUS
 62
    8
 10
174.13777815463942
 20
209.97020944588257
 11
172.82963498727213
 21
209.73984461137763
 12
171.86703907166225
 22
209.54238903894483
 13
171.86703907166225
 23
209.54238903894483
  0
SOLID
  8
_1-6_
  6
CONTINUOUS
 62
    8
 10
174.13777815463942
 20
209.97020944588257
 11
171.86703907166225
 21
209.54238903894483
 12
170.92912510260646
 22
209.34493346651203
 13
170.92912510260646
 23
209.34493346651203
  0
SOLID
  8
_1-6_
  6
CONTINUOUS
 62
    8
 10
174.13777815463942
 20
209.97020944588257
 11
170.92912510260646
 21
209.34493346651203
 12
169.91716529388836
 22
209.089886685453
 13
169.91716529388836
 23
209.089886685453
  0
SOLID
  8
_1-6_
  6
CONTINUOUS
 62
    8
 10
174.13777815463942
 20
209.97020944588257
 11
169.91716529388836
 21
209.089886685453
 12
169.12884002852471
 22
208.88112627926077
 13
169.12884002852471
 23
208.88112627926077
  0
SOLID
  8
_1-6_
  6
CONTINUOUS
 62
    8
 10
174.13777815463942
 20
209.97020944588257
 11
169.12884002852471
 21
208.88112627926077
 12
168.61715799144329
 22
206.79175796117835
 13
168.61715799144329
 23
206.79175796117835
  0
SOLID
  8
_1-6_
  6
CONTINUOUS
 62
    8
 10
174.13777815463942
 20
209.97020944588257
 11
168.61715799144329
 21
206.79175796117835
 12
169.44432866371483
 22
206.86988453593415
 13
169.44432866371483
 23
206.86988453593415
  0
SOLID
  8
_1-6_
  6
CONTINUOUS
 62
    8
 10
174.13777815463942
 20
209.97020944588257
 11
169.44432866371483
 21
206.86988453593415
 12
169.75809382749586
 22
203.28358288576612
 13
169.75809382749586
 23
203.28358288576612
  0
SOLID
  8
_1-6_
  6
CONTINUOUS
 62
    8
 10
168.6532790520375
 20
203.17695683116881
 11
167.58328227392781
 21
203.03825354511753
 12
166.64424339039732
 22
202.89235261465041
 13
166.64424339039732
 23
202.89235261465041
  0
SOLID
  8
_1-6_
  6
CONTINUOUS
 62
    8
 10
168.6532790520375
 20
203.17695683116881
 11
166.64424339039732
 21
202.89235261465041
 12
165.66125102436041
 22
202.72121746271466
 13
165.66125102436041
 23
202.72121746271466
  0
SOLID
  8
_1-6_
  6
CONTINUOUS
 62
    8
 10
168.6532790520375
 20
203.17695683116881
 11
165.66125102436041
 21
202.72121746271466
 12
164.6771181852348
 22
202.51646499282947
 13
164.6771181852348
 23
202.51646499282947
  0
SOLID
  8
_1-6_
  6
CONTINUOUS
 62
    8
 10
168.6532790520375
 20
203.17695683116881
 11
164.6771181852348
 21
202.51646499282947
 12
163.1512924936531
 22
202.1600258581787
 13
163.1512924936531
 23
202.1600258581787
  0
SOLID
  8
_1-6_
  6
CONTINUOUS
 62
    8
 10
168.6532790520375
 20
203.17695683116881
 11
163.1512924936531
 21
202.1600258581787
 12
162.04344672356942
 22
201.85886390126274
 13
162.04344672356942
 23
201.85886390126274
  0
SOLID
  8
_1-6_
  6
CONTINUOUS
 62
    8
 10
168.6532790520375
 20
203.17695683116881
 11
162.04344672356942
 21
201.85886390126274
 12
160.89257781678344
 22
201.53619037599563
 13
160.89257781678344
 23
201.53619037599563
  0
SOLID
  8
_1-6_
  6
CONTINUOUS
 62
    8
 10
168.6532790520375
 20
203.17695683116881
 11
160.89257781678344
 21
201.53619037599563
 12
160.31008200729065
 22
201.33448384382686
 13
160.31008200729065
 23
201.33448384382686
  0
SOLID
  8
_1-6_
  6
CONTINUOUS
 62
    8
 10
168.6532790520375
 20
203.17695683116881
 11
160.31008200729065
 21
201.33448384382686
 12
168.51172782279352
 22
200.75489353489232
 13
168.51172782279352
 23
200.75489353489232
  0
SOLID
  8
_1-6_
  6
CONTINUOUS
 62
    8
 10
168.51172782279352
 20
200.75489353489232
 11
174.13777815463942
 21
209.97020944588257
 12
169.75809382749586
 22
203.28358288576612
 13
169.75809382749586
 23
203.28358288576612
  0
SOLID
  8
_1-6_
  6
CONTINUOUS
 62
    8
 10
168.51172782279352
 20
200.75489353489232
 11
169.75809382749586
 21
203.28358288576612
 12
168.6532790520375
 22
203.17695683116881
 13
168.6532790520375
 23
203.17695683116881
  0
SOLID
  8
_1-6_
  6
CONTINUOUS
 62
    8
 10
177.39288742477831
 20
176.64925652581294
 11
177.39288742477831
 21
167.68943580421242
 12
181.29289781725086
 22
176.64925652581294
 13
181.29289781725086
 23
169.44443986222552
  0
ARC
  8
_1-6_
  6
CONTINUOUS
 62
    3
 10
225.56818341923054
 20
170.27967083320954
 40
15.338623339986732
 50
158.88559223389476
 51
201.88986898996444
  0
ARC
  8
_1-6_
  6
CONTINUOUS
 62
    3
 10
279.71744169482633
 20
211.76114179428532
 40
76.753248523828489
 50
201.67321198564846
 51
203.9769094106436
  0
ARC
  8
_1-6_
  6
CONTINUOUS
 62
    3
 10
279.71744169482633
 20
211.76114179428532
 40
76.753248523828489
 50
197.39207883090654
 51
198.13277021156631
  0
ARC
  8
_1-6_
  6
CONTINUOUS
 62
    3
 10
279.71744169482633
 20
211.76114179428532
 40
76.753248523828489
 50
192.48980012108163
 51
193.97207444756663
  0
ARC
  8
_1-6_
  6
CONTINUOUS
 62
    3
 10
279.71744169482633
 20
211.76114179428532
 40
76.753248523828489
 50
187.80757004302589
 51
189.27186419113386
  0
LINE
  8
_1-6_
  6
CONTINUOUS
 62
    3
 10
194.85694537846433
 20
208.88112627926077
 11
195.36862741554575
 21
206.79175796117835
  0
ARC
  8
_1-6_
  6
CONTINUOUS
 62
    1
 10
225.56818341923054
 20
170.27967083320954
 40
15.338623339986732
 50
158.88559223389476
 51
201.88986898996444
  0
ARC
  8
_1-6_
  6
CONTINUOUS
 62
    1
 10
279.71744169482633
 20
211.76114179428532
 40
76.753248523828489
 50
201.67321198564846
 51
203.9769094106436
  0
ARC
  8
_1-6_
  6
CONTINUOUS
 62
    1
 10
279.71744169482633
 20
211.76114179428532
 40
76.753248523828489
 50
197.39207883090654
 51
198.13277021156631
  0
ARC
  8
_1-6_
  6
CONTINUOUS
 62
    1
 10
279.71744169482633
 20
211.76114179428532
 40
76.753248523828489
 50
192.48980012108163
 51
193.97207444756663
  0
ARC
  8
_1-6_
  6
CONTINUOUS
 62
    1
 10
279.71744169482633
 20
211.76114179428532
 40
76.753248523828489
 50
187.80757004302589
 51
189.27186419113386
  0
SOLID
  8
_1-6_
  6
CONTINUOUS
 62
    8
 10
209.08257720970789
 20
170.16810813500496
 11
211.33544121665926
 21
164.56106826255183
 12
191.14570411475933
 22
171.99232771589951
 13
191.14570411475933
 23
171.99232771589951
  0
SOLID
  8
_1-6_
  6
CONTINUOUS
 62
    8
 10
209.08257720970789
 20
170.16810813500496
 11
191.14570411475933
 21
171.99232771589951
 12
191.5602276776288
 22
173.11846346468539
 13
191.5602276776288
 23
173.11846346468539
  0
SOLID
  8
_1-6_
  6
CONTINUOUS
 62
    8
 10
209.08257720970789
 20
170.16810813500496
 11
191.5602276776288
 21
173.11846346468539
 12
190.10517501140322
 22
173.65402249812939
 13
190.10517501140322
 23
173.65402249812939
  0
SOLID
  8
_1-6_
  6
CONTINUOUS
 62
    8
 10
187.98616976351354
 20
168.04044156461148
 11
186.99289682749156
 21
167.50943574682327
 12
186.99289682749156
 22
177.04925537109375
 13
186.99289682749156
 23
177.04925537109375
  0
SOLID
  8
_1-6_
  6
CONTINUOUS
 62
    8
 10
182.69288758973818
 20
177.04925537109375
 11
183.02572028757038
 21
179.08956234371692
 12
187.3602803211781
 22
179.83329936102058
 13
187.3602803211781
 23
179.83329936102058
  0
SOLID
  8
_1-6_
  6
CONTINUOUS
 62
    8
 10
182.69288758973818
 20
177.04925537109375
 11
187.3602803211781
 21
179.83329936102058
 12
190.74096292587743
 22
180.07827636136113
 13
190.74096292587743
 23
180.07827636136113
  0
SOLID
  8
_1-6_
  6
CONTINUOUS
 62
    8
 10
182.69288758973818
 20
177.04925537109375
 11
190.74096292587743
 21
180.07827636136113
 12
193.43570992962327
 22
180.07827636136113
 13
193.43570992962327
 23
180.07827636136113
  0
SOLID
  8
_1-6_
  6
CONTINUOUS
 62
    8
 10
182.69288758973818
 20
177.04925537109375
 11
193.43570992962327
 21
180.07827636136113
 12
195.39552593234751
 22
180.02928096129301
 13
195.39552593234751
 23
180.02928096129301
  0
SOLID
  8
_1-6_
  6
CONTINUOUS
 62
    8
 10
182.69288758973818
 20
177.04925537109375
 11
195.39552593234751
 21
180.02928096129301
 12
197.74730513561661
 22
179.83329936102058
 13
197.74730513561661
 23
179.83329936102058
  0
SOLID
  8
_1-6_
  6
CONTINUOUS
 62
    8
 10
182.69288758973818
 20
177.04925537109375
 11
197.74730513561661
 21
179.83329936102058
 12
199.95209813868138
 22
179.58832236068005
 13
199.95209813868138
 23
179.58832236068005
  0
SOLID
  8
_1-6_
  6
CONTINUOUS
 62
    8
 10
182.69288758973818
 20
177.04925537109375
 11
199.95209813868138
 21
179.58832236068005
 12
202.35287274201858
 22
179.00037755986278
 13
202.35287274201858
 23
179.00037755986278
  0
SOLID
  8
_1-6_
  6
CONTINUOUS
 62
    8
 10
182.69288758973818
 20
177.04925537109375
 11
202.35287274201858
 21
179.00037755986278
 12
205.39058754624116
 22
178.11846035863687
 13
205.39058754624116
 23
178.11846035863687
  0
SOLID
  8
_1-6_
  6
CONTINUOUS
 62
    8
 10
182.69288758973818
 20
177.04925537109375
 11
205.39058754624116
 21
178.11846035863687
 12
207.84035754964646
 22
177.33453395754719
 13
207.84035754964646
 23
177.33453395754719
  0
SOLID
  8
_1-6_
  6
CONTINUOUS
 62
    8
 10
207.84035754964646
 20
177.33453395754719
 11
209.70218275223448
 21
176.55060755645749
 12
211.25934954935667
 22
175.80512459288724
 13
211.25934954935667
 23
175.80512459288724
  0
SOLID
  8
_1-6_
  6
CONTINUOUS
 62
    8
 10
207.84035754964646
 20
177.33453395754719
 11
211.25934954935667
 21
175.80512459288724
 12
209.08257720970789
 22
170.16810813500496
 13
209.08257720970789
 23
170.16810813500496
  0
SOLID
  8
_1-6_
  6
CONTINUOUS
 62
    8
 10
207.84035754964646
 20
177.33453395754719
 11
209.08257720970789
 21
170.16810813500496
 12
190.10517501140322
 22
173.65402249812939
 13
190.10517501140322
 23
173.65402249812939
  0
SOLID
  8
_1-6_
  6
CONTINUOUS
 62
    8
 10
190.10517501140322
 20
173.65402249812939
 11
187.98616976351354
 21
168.04044156461148
 12
186.99289682749156
 22
177.04925537109375
 13
186.99289682749156
 23
177.04925537109375
  0
SOLID
  8
_1-6_
  6
CONTINUOUS
 62
    8
 10
186.99289682749156
 20
177.04925537109375
 11
182.69288758973818
 21
177.04925537109375
 12
207.84035754964646
 22
177.33453395754719
 13
207.84035754964646
 23
177.33453395754719
  0
SOLID
  8
_1-6_
  6
CONTINUOUS
 62
    8
 10
186.99289682749156
 20
177.04925537109375
 11
207.84035754964646
 21
177.33453395754719
 12
190.10517501140322
 22
173.65402249812939
 13
190.10517501140322
 23
173.65402249812939
  0
SOLID
  8
_1-6_
  6
CONTINUOUS
 62
    8
 10
182.69288758973818
 20
191.15024819604787
 11
184.30454913442327
 21
190.67538072094385
 12
182.79984438911174
 22
185.48925627162239
 13
182.79984438911174
 23
185.48925627162239
  0
SOLID
  8
_1-6_
  6
CONTINUOUS
 62
    8
 10
183.74333545789563
 20
185.70880381958384
 11
184.81901737132469
 21
185.89587893496281
 12
185.92587847065028
 22
186.08295405034178
 13
185.92587847065028
 23
186.08295405034178
  0
SOLID
  8
_1-6_
  6
CONTINUOUS
 62
    8
 10
185.92587847065028
 20
186.08295405034178
 11
187.09509794176887
 21
186.28561875866899
 12
188.70082601543837
 22
186.45710428109973
 13
188.70082601543837
 23
186.45710428109973
  0
SOLID
  8
_1-6_
  6
CONTINUOUS
 62
    8
 10
185.92587847065028
 20
186.08295405034178
 11
188.70082601543837
 21
186.45710428109973
 12
190.16624775257364
 22
186.5506418387892
 13
190.16624775257364
 23
186.5506418387892
  0
SOLID
  8
_1-6_
  6
CONTINUOUS
 62
    8
 10
185.92587847065028
 20
186.08295405034178
 11
190.16624775257364
 21
186.5506418387892
 12
191.53813193201944
 22
186.59741061763395
 13
191.53813193201944
 23
186.59741061763395
  0
SOLID
  8
_1-6_
  6
CONTINUOUS
 62
    8
 10
185.92587847065028
 20
186.08295405034178
 11
191.53813193201944
 21
186.59741061763395
 12
192.81647855377574
 22
186.59741061763395
 13
192.81647855377574
 23
186.59741061763395
  0
SOLID
  8
_1-6_
  6
CONTINUOUS
 62
    8
 10
185.92587847065028
 20
186.08295405034178
 11
192.81647855377574
 21
186.59741061763395
 12
194.18836273322154
 22
186.56623143173746
 13
194.18836273322154
 23
186.56623143173746
  0
SOLID
  8
_1-6_
  6
CONTINUOUS
 62
    8
 10
185.92587847065028
 20
186.08295405034178
 11
194.18836273322154
 21
186.56623143173746
 12
195.20696494734511
 22
186.5181527120543
 13
195.20696494734511
 23
186.5181527120543
  0
SOLID
  8
_1-6_
  6
CONTINUOUS
 62
    8
 10
185.92587847065028
 20
186.08295405034178
 11
195.20696494734511
 21
186.5181527120543
 12
196.29197208317834
 22
186.43017916050024
 13
196.29197208317834
 23
186.43017916050024
  0
SOLID
  8
_1-6_
  6
CONTINUOUS
 62
    8
 10
185.92587847065028
 20
186.08295405034178
 11
196.29197208317834
 21
186.43017916050024
 12
197.37697921901159
 22
186.31288109176154
 13
197.37697921901159
 23
186.31288109176154
  0
SOLID
  8
_1-6_
  6
CONTINUOUS
 62
    8
 10
185.92587847065028
 20
186.08295405034178
 11
197.37697921901159
 21
186.31288109176154
 12
198.18968726670136
 22
186.2081506732448
 13
198.18968726670136
 23
186.2081506732448
  0
SOLID
  8
_1-6_
  6
CONTINUOUS
 62
    8
 10
185.92587847065028
 20
186.08295405034178
 11
198.18968726670136
 21
186.2081506732448
 12
198.91023254609638
 22
186.09504182124675
 13
198.91023254609638
 23
186.09504182124675
  0
SOLID
  8
_1-6_
  6
CONTINUOUS
 62
    8
 10
185.92587847065028
 20
186.08295405034178
 11
198.91023254609638
 21
186.09504182124675
 12
199.69361607660147
 22
185.96936531902668
 13
199.69361607660147
 23
185.96936531902668
  0
SOLID
  8
_1-6_
  6
CONTINUOUS
 62
    8
 10
185.92587847065028
 20
186.08295405034178
 11
199.69361607660147
 21
185.96936531902668
 12
200.38902605555251
 22
185.83949960006595
 13
200.38902605555251
 23
185.83949960006595
  0
SOLID
  8
_1-6_
  6
CONTINUOUS
 62
    8
 10
185.92587847065028
 20
186.08295405034178
 11
200.38902605555251
 21
185.83949960006595
 12
201.01740856665282
 22
185.71801231458653
 13
201.01740856665282
 23
185.71801231458653
  0
SOLID
  8
_1-6_
  6
CONTINUOUS
 62
    8
 10
185.92587847065028
 20
186.08295405034178
 11
201.01740856665282
 21
185.71801231458653
 12
202.13174021967075
 22
185.44990244318373
 13
202.13174021967075
 23
185.44990244318373
  0
SOLID
  8
_1-6_
  6
CONTINUOUS
 62
    8
 10
185.92587847065028
 20
186.08295405034178
 11
202.13174021967075
 21
185.44990244318373
 12
202.96120513432319
 22
185.24463082289097
 13
202.96120513432319
 23
185.24463082289097
  0
SOLID
  8
_1-6_
  6
CONTINUOUS
 62
    8
 10
185.92587847065028
 20
186.08295405034178
 11
202.96120513432319
 21
185.24463082289097
 12
203.58958764542353
 22
185.07287293652354
 13
203.58958764542353
 23
185.07287293652354
  0
SOLID
  8
_1-6_
  6
CONTINUOUS
 62
    8
 10
185.92587847065028
 20
186.08295405034178
 11
203.58958764542353
 21
185.07287293652354
 12
204.95946151962224
 22
184.66651891267867
 13
204.95946151962224
 23
184.66651891267867
  0
SOLID
  8
_1-6_
  6
CONTINUOUS
 62
    8
 10
185.92587847065028
 20
186.08295405034178
 11
204.95946151962224
 21
184.66651891267867
 12
205.80987251797802
 22
184.39003060779453
 13
205.80987251797802
 23
184.39003060779453
  0
SOLID
  8
_1-6_
  6
CONTINUOUS
 62
    8
 10
185.92587847065028
 20
186.08295405034178
 11
205.80987251797802
 21
184.39003060779453
 12
207.04150223973465
 22
183.95016285002427
 13
207.04150223973465
 23
183.95016285002427
  0
SOLID
  8
_1-6_
  6
CONTINUOUS
 62
    8
 10
185.92587847065028
 20
186.08295405034178
 11
207.04150223973465
 21
183.95016285002427
 12
207.79975046979575
 22
183.64435002795545
 13
207.79975046979575
 23
183.64435002795545
  0
SOLID
  8
_1-6_
  6
CONTINUOUS
 62
    8
 10
185.92587847065028
 20
186.08295405034178
 11
207.79975046979575
 21
183.64435002795545
 12
208.39023790063209
 22
183.41522219618324
 13
208.39023790063209
 23
183.41522219618324
  0
SOLID
  8
_1-6_
  6
CONTINUOUS
 62
    8
 10
208.39023790063209
 20
183.41522219618324
 11
209.58728462981688
 21
180.57104354183207
 12
208.80685262763552
 22
180.85460995645599
 13
208.80685262763552
 23
180.85460995645599
  0
SOLID
  8
_1-6_
  6
CONTINUOUS
 62
    8
 10
208.39023790063209
 20
183.41522219618324
 11
208.80685262763552
 21
180.85460995645599
 12
208.01082205665276
 22
181.14282792181183
 13
208.01082205665276
 23
181.14282792181183
  0
SOLID
  8
_1-6_
  6
CONTINUOUS
 62
    8
 10
208.39023790063209
 20
183.41522219618324
 11
208.01082205665276
 21
181.14282792181183
 12
207.20106682065301
 22
181.40359655713377
 13
207.20106682065301
 23
181.40359655713377
  0
SOLID
  8
_1-6_
  6
CONTINUOUS
 62
    8
 10
208.39023790063209
 20
183.41522219618324
 11
207.20106682065301
 21
181.40359655713377
 12
206.41189858217871
 22
181.65750285994724
 13
206.41189858217871
 23
181.65750285994724
  0
SOLID
  8
_1-6_
  6
CONTINUOUS
 62
    8
 10
208.39023790063209
 20
183.41522219618324
 11
206.41189858217871
 21
181.65750285994724
 12
205.48548369353497
 22
181.93885849279462
 13
205.48548369353497
 23
181.93885849279462
  0
SOLID
  8
_1-6_
  6
CONTINUOUS
 62
    8
 10
208.39023790063209
 20
183.41522219618324
 11
205.48548369353497
 21
181.93885849279462
 12
204.51103247733192
 22
182.22021412564197
 13
204.51103247733192
 23
182.22021412564197
  0
SOLID
  8
_1-6_
  6
CONTINUOUS
 62
    8
 10
208.39023790063209
 20
183.41522219618324
 11
204.51103247733192
 21
182.22021412564197
 12
203.51599426360343
 22
182.4878450934724
 13
203.51599426360343
 23
182.4878450934724
  0
SOLID
  8
_1-6_
  6
CONTINUOUS
 62
    8
 10
208.39023790063209
 20
183.41522219618324
 11
203.51599426360343
 21
182.4878450934724
 12
202.24646274953608
 22
182.79665005635366
 13
202.24646274953608
 23
182.79665005635366
  0
SOLID
  8
_1-6_
  6
CONTINUOUS
 62
    8
 10
208.39023790063209
 20
183.41522219618324
 11
202.24646274953608
 21
182.79665005635366
 12
201.04555456055343
 22
183.08486802170947
 13
201.04555456055343
 23
183.08486802170947
  0
SOLID
  8
_1-6_
  6
CONTINUOUS
 62
    8
 10
208.39023790063209
 20
183.41522219618324
 11
201.04555456055343
 21
183.08486802170947
 12
199.78288537899454
 22
183.32504965950602
 13
199.78288537899454
 23
183.32504965950602
  0
SOLID
  8
_1-6_
  6
CONTINUOUS
 62
    8
 10
208.39023790063209
 20
183.41522219618324
 11
199.78288537899454
 21
183.32504965950602
 12
198.56825252499496
 22
183.54464429977713
 13
198.56825252499496
 23
183.54464429977713
  0
SOLID
  8
_1-6_
  6
CONTINUOUS
 62
    8
 10
208.39023790063209
 20
183.41522219618324
 11
198.56825252499496
 21
183.54464429977713
 12
197.29872101092761
 22
183.75737660753975
 13
197.29872101092761
 23
183.75737660753975
  0
SOLID
  8
_1-6_
  6
CONTINUOUS
 62
    8
 10
208.39023790063209
 20
183.41522219618324
 11
197.29872101092761
 21
183.75737660753975
 12
196.33799445974148
 22
183.88776092520072
 13
196.33799445974148
 23
183.88776092520072
  0
SOLID
  8
_1-6_
  6
CONTINUOUS
 62
    8
 10
208.39023790063209
 20
183.41522219618324
 11
196.33799445974148
 21
183.88776092520072
 12
195.06160061316564
 22
184.05245690540406
 13
195.06160061316564
 23
184.05245690540406
  0
SOLID
  8
_1-6_
  6
CONTINUOUS
 62
    8
 10
208.39023790063209
 20
183.41522219618324
 11
195.06160061316564
 21
184.05245690540406
 12
194.05283773442022
 22
184.14852956052266
 13
194.05283773442022
 23
184.14852956052266
  0
SOLID
  8
_1-6_
  6
CONTINUOUS
 62
    8
 10
208.39023790063209
 20
183.41522219618324
 11
194.05283773442022
 21
184.14852956052266
 12
193.02348785814939
 22
184.23087755062434
 13
193.02348785814939
 23
184.23087755062434
  0
SOLID
  8
_1-6_
  6
CONTINUOUS
 62
    8
 10
208.39023790063209
 20
183.41522219618324
 11
193.02348785814939
 21
184.23087755062434
 12
192.00100031438703
 22
184.29950087570907
 13
192.00100031438703
 23
184.29950087570907
  0
SOLID
  8
_1-6_
  6
CONTINUOUS
 62
    8
 10
182.69288758973818
 20
177.04925537109375
 11
182.69288758973818
 21
191.15024819604787
 12
182.79984438911174
 22
185.48925627162239
 13
182.79984438911174
 23
185.48925627162239
  0
SOLID
  8
_1-6_
  6
CONTINUOUS
 62
    8
 10
182.69288758973818
 20
177.04925537109375
 11
182.79984438911174
 21
185.48925627162239
 12
183.74333545789563
 22
185.70880381958384
 13
183.74333545789563
 23
185.70880381958384
  0
SOLID
  8
_1-6_
  6
CONTINUOUS
 62
    8
 10
183.74333545789563
 20
185.70880381958384
 11
185.92587847065028
 21
186.08295405034178
 12
208.39023790063209
 22
183.41522219618324
 13
208.39023790063209
 23
183.41522219618324
  0
SOLID
  8
_1-6_
  6
CONTINUOUS
 62
    8
 10
183.74333545789563
 20
185.70880381958384
 11
208.39023790063209
 21
183.41522219618324
 12
192.00100031438703
 22
184.29950087570907
 13
192.00100031438703
 23
184.29950087570907
  0
SOLID
  8
_1-6_
  6
CONTINUOUS
 62
    8
 10
183.74333545789563
 20
185.70880381958384
 11
192.00100031438703
 21
184.29950087570907
 12
190.51187416004856
 22
184.36812420079377
 13
190.51187416004856
 23
184.36812420079377
  0
SOLID
  8
_1-6_
  6
CONTINUOUS
 62
    8
 10
183.74333545789563
 20
185.70880381958384
 11
190.51187416004856
 21
184.36812420079377
 12
189.43448795621842
 22
184.40243586333614
 13
189.43448795621842
 23
184.40243586333614
  0
SOLID
  8
_1-6_
  6
CONTINUOUS
 62
    8
 10
183.74333545789563
 20
185.70880381958384
 11
189.43448795621842
 21
184.40243586333614
 12
188.12378244710021
 22
184.40929819584463
 13
188.12378244710021
 23
184.40929819584463
  0
SOLID
  8
_1-6_
  6
CONTINUOUS
 62
    8
 10
183.74333545789563
 20
185.70880381958384
 11
188.12378244710021
 21
184.40929819584463
 12
186.65745810054665
 22
184.38409753427464
 13
186.65745810054665
 23
184.38409753427464
  0
SOLID
  8
_1-6_
  6
CONTINUOUS
 62
    8
 10
183.74333545789563
 20
185.70880381958384
 11
186.65745810054665
 21
184.38409753427464
 12
184.53041220452985
 22
184.27568375224695
 13
184.53041220452985
 23
184.27568375224695
  0
SOLID
  8
_1-6_
  6
CONTINUOUS
 62
    8
 10
183.74333545789563
 20
185.70880381958384
 11
184.53041220452985
 21
184.27568375224695
 12
183.02570745921309
 22
179.08955930292518
 13
183.02570745921309
 23
179.08955930292518
  0
SOLID
  8
_1-6_
  6
CONTINUOUS
 62
    8
 10
183.74333545789563
 20
185.70880381958384
 11
183.02570745921309
 21
179.08955930292518
 12
182.69288758973818
 22
177.04925537109375
 13
182.69288758973818
 23
177.04925537109375
  0
SOLID
  8
_1-6_
  6
CONTINUOUS
 62
    8
 10
185.59289468301313
 20
196.47094233183844
 11
196.45976789491604
 21
194.65624279770134
 12
196.14600516654355
 22
191.06993804106841
 13
196.14600516654355
 23
191.06993804106841
  0
SOLID
  8
_1-6_
  6
CONTINUOUS
 62
    8
 10
197.09311129686753
 20
190.97730206830823
 11
198.07654399777368
 21
190.84790302871531
 12
199.27995506598779
 22
190.67321432526489
 13
199.27995506598779
 23
190.67321432526489
  0
SOLID
  8
_1-6_
  6
CONTINUOUS
 62
    8
 10
197.09311129686753
 20
190.97730206830823
 11
199.27995506598779
 21
190.67321432526489
 12
200.22456805501605
 22
190.51146552577373
 13
200.22456805501605
 23
190.51146552577373
  0
SOLID
  8
_1-6_
  6
CONTINUOUS
 62
    8
 10
197.09311129686753
 20
190.97730206830823
 11
200.22456805501605
 21
190.51146552577373
 12
201.18212094800361
 22
190.31089701440473
 13
201.18212094800361
 23
190.31089701440473
  0
SOLID
  8
_1-6_
  6
CONTINUOUS
 62
    8
 10
197.09311129686753
 20
190.97730206830823
 11
201.18212094800361
 21
190.31089701440473
 12
202.05556446525577
 22
190.12326840699501
 13
202.05556446525577
 23
190.12326840699501
  0
SOLID
  8
_1-6_
  6
CONTINUOUS
 62
    8
 10
197.09311129686753
 20
190.97730206830823
 11
202.05556446525577
 21
190.12326840699501
 12
203.0519370701212
 22
189.86447032780916
 13
203.0519370701212
 23
189.86447032780916
  0
SOLID
  8
_1-6_
  6
CONTINUOUS
 62
    8
 10
197.09311129686753
 20
190.97730206830823
 11
203.0519370701212
 21
189.86447032780916
 12
203.93185053935304
 22
189.6250821045623
 13
203.93185053935304
 23
189.6250821045623
  0
SOLID
  8
_1-6_
  6
CONTINUOUS
 62
    8
 10
197.09311129686753
 20
190.97730206830823
 11
203.93185053935304
 21
189.6250821045623
 12
204.77294429670695
 22
189.39216383329503
 13
204.77294429670695
 23
189.39216383329503
  0
SOLID
  8
_1-6_
  6
CONTINUOUS
 62
    8
 10
197.09311129686753
 20
190.97730206830823
 11
204.77294429670695
 21
189.39216383329503
 12
205.52992867832552
 22
189.13983570608886
 13
205.52992867832552
 23
189.13983570608886
  0
SOLID
  8
_1-6_
  6
CONTINUOUS
 62
    8
 10
197.09311129686753
 20
190.97730206830823
 11
205.52992867832552
 21
189.13983570608886
 12
206.24809334806616
 22
188.90044748284197
 13
206.24809334806616
 23
188.90044748284197
  0
SOLID
  8
_1-6_
  6
CONTINUOUS
 62
    8
 10
197.09311129686753
 20
190.97730206830823
 11
206.24809334806616
 21
188.90044748284197
 12
206.47322413495726
 22
188.81891537653868
 13
206.47322413495726
 23
188.81891537653868
  0
SOLID
  8
_1-6_
  6
CONTINUOUS
 62
    8
 10
206.47322413495726
 20
188.81891537653868
 11
206.77592179673081
 21
187.87399391270844
 12
206.22221354014761
 22
188.05288377350837
 13
206.22221354014761
 23
188.05288377350837
  0
SOLID
  8
_1-6_
  6
CONTINUOUS
 62
    8
 10
206.47322413495726
 20
188.81891537653868
 11
206.22221354014761
 21
188.05288377350837
 12
205.685207525837
 22
188.21463257299951
 13
205.685207525837
 23
188.21463257299951
  0
SOLID
  8
_1-6_
  6
CONTINUOUS
 62
    8
 10
206.47322413495726
 20
188.81891537653868
 11
205.685207525837
 21
188.21463257299951
 12
204.8894034323406
 22
188.45402079624643
 13
204.8894034323406
 23
188.45402079624643
  0
SOLID
  8
_1-6_
  6
CONTINUOUS
 62
    8
 10
206.47322413495726
 20
188.81891537653868
 11
204.8894034323406
 21
188.45402079624643
 12
204.16476881062027
 22
188.66752921157473
 13
204.16476881062027
 23
188.66752921157473
  0
SOLID
  8
_1-6_
  6
CONTINUOUS
 62
    8
 10
206.47322413495726
 20
188.81891537653868
 11
204.16476881062027
 21
188.66752921157473
 12
203.22662577357164
 22
188.91338738680125
 13
203.22662577357164
 23
188.91338738680125
  0
SOLID
  8
_1-6_
  6
CONTINUOUS
 62
    8
 10
206.47322413495726
 20
188.81891537653868
 11
203.22662577357164
 21
188.91338738680125
 12
202.56022071966814
 22
189.08160613827204
 13
202.56022071966814
 23
189.08160613827204
  0
SOLID
  8
_1-6_
  6
CONTINUOUS
 62
    8
 10
206.47322413495726
 20
188.81891537653868
 11
202.56022071966814
 21
189.08160613827204
 12
201.89381566576463
 22
189.23041503380389
 13
201.89381566576463
 23
189.23041503380389
  0
SOLID
  8
_1-6_
  6
CONTINUOUS
 62
    8
 10
206.47322413495726
 20
188.81891537653868
 11
201.89381566576463
 21
189.23041503380389
 12
201.29858008363723
 22
189.3727539773561
 13
201.29858008363723
 23
189.3727539773561
  0
SOLID
  8
_1-6_
  6
CONTINUOUS
 62
    8
 10
206.47322413495726
 20
188.81891537653868
 11
201.29858008363723
 21
189.3727539773561
 12
200.73569426140807
 22
189.48274316101009
 13
200.73569426140807
 23
189.48274316101009
  0
SOLID
  8
_1-6_
  6
CONTINUOUS
 62
    8
 10
206.47322413495726
 20
188.81891537653868
 11
200.73569426140807
 21
189.48274316101009
 12
200.04340939958598
 22
189.6250821045623
 13
200.04340939958598
 23
189.6250821045623
  0
SOLID
  8
_1-6_
  6
CONTINUOUS
 62
    8
 10
206.47322413495726
 20
188.81891537653868
 11
200.04340939958598
 21
189.6250821045623
 12
198.52944063634888
 22
189.9097599916667
 13
198.52944063634888
 23
189.9097599916667
  0
SOLID
  8
_1-6_
  6
CONTINUOUS
 62
    8
 10
206.47322413495726
 20
188.81891537653868
 11
198.52944063634888
 21
189.9097599916667
 12
197.55247788742238
 22
190.07797874313746
 13
197.55247788742238
 23
190.07797874313746
  0
SOLID
  8
_1-6_
  6
CONTINUOUS
 62
    8
 10
184.99940683442506
 20
190.70313960127868
 11
184.30454032913337
 21
190.67538014524479
 12
182.69288758973818
 22
191.15024819604798
 13
182.69288758973818
 23
191.15024819604798
  0
SOLID
  8
_1-6_
  6
CONTINUOUS
 62
    8
 10
184.99940683442506
 20
190.70313960127868
 11
182.69288758973818
 21
191.15024819604798
 12
182.69288758973818
 22
194.61211317483469
 13
182.69288758973818
 23
194.61211317483469
  0
SOLID
  8
_1-6_
  6
CONTINUOUS
 62
    8
 10
184.99940683442506
 20
190.70313960127868
 11
182.69288758973818
 21
194.61211317483469
 12
185.59289468301313
 22
194.61211317483469
 13
185.59289468301313
 23
194.61211317483469
  0
SOLID
  8
_1-6_
  6
CONTINUOUS
 62
    8
 10
185.59289468301313
 20
194.61211317483469
 11
185.59289468301313
 21
196.47094233183844
 12
196.14600516654355
 22
191.06993804106841
 13
196.14600516654355
 23
191.06993804106841
  0
SOLID
  8
_1-6_
  6
CONTINUOUS
 62
    8
 10
197.09311129686753
 20
190.97730206830823
 11
206.47322413495726
 21
188.81891537653868
 12
197.55247788742238
 22
190.07797874313746
 13
197.55247788742238
 23
190.07797874313746
  0
SOLID
  8
_1-6_
  6
CONTINUOUS
 62
    8
 10
197.09311129686753
 20
190.97730206830823
 11
197.55247788742238
 21
190.07797874313746
 12
196.78902355382419
 22
190.1814979748118
 13
196.78902355382419
 23
190.1814979748118
  0
SOLID
  8
_1-6_
  6
CONTINUOUS
 62
    8
 10
197.09311129686753
 20
190.97730206830823
 11
196.78902355382419
 21
190.1814979748118
 12
195.92204998855166
 22
190.29795711044542
 13
195.92204998855166
 23
190.29795711044542
  0
SOLID
  8
_1-6_
  6
CONTINUOUS
 62
    8
 10
197.09311129686753
 20
190.97730206830823
 11
195.92204998855166
 21
190.29795711044542
 12
194.69922906439865
 22
190.45970590993659
 13
194.69922906439865
 23
190.45970590993659
  0
SOLID
  8
_1-6_
  6
CONTINUOUS
 62
    8
 10
197.09311129686753
 20
190.97730206830823
 11
194.69922906439865
 21
190.45970590993659
 12
193.249959820958
 22
190.59557490150914
 13
193.249959820958
 23
190.59557490150914
  0
SOLID
  8
_1-6_
  6
CONTINUOUS
 62
    8
 10
197.09311129686753
 20
190.97730206830823
 11
193.249959820958
 21
190.59557490150914
 12
192.09183841660143
 22
190.68615422922417
 13
192.09183841660143
 23
190.68615422922417
  0
SOLID
  8
_1-6_
  6
CONTINUOUS
 62
    8
 10
197.09311129686753
 20
190.97730206830823
 11
192.09183841660143
 21
190.68615422922417
 12
190.84313768452981
 22
190.744383797041
 13
190.84313768452981
 23
190.744383797041
  0
SOLID
  8
_1-6_
  6
CONTINUOUS
 62
    8
 10
197.09311129686753
 20
190.97730206830823
 11
190.84313768452981
 21
190.744383797041
 12
189.67207637621394
 22
190.78967346089851
 13
189.67207637621394
 23
190.78967346089851
  0
SOLID
  8
_1-6_
  6
CONTINUOUS
 62
    8
 10
197.09311129686753
 20
190.97730206830823
 11
189.67207637621394
 21
190.78967346089851
 12
188.74040329114496
 22
190.80908331683744
 13
188.74040329114496
 23
190.80908331683744
  0
SOLID
  8
_1-6_
  6
CONTINUOUS
 62
    8
 10
197.09311129686753
 20
190.97730206830823
 11
188.74040329114496
 21
190.80908331683744
 12
187.46556565121136
 22
190.80032812607817
 13
187.46556565121136
 23
190.80032812607817
  0
SOLID
  8
_1-6_
  6
CONTINUOUS
 62
    8
 10
185.93484638561986
 20
190.76388242927837
 11
184.99940683442506
 21
190.70313960127868
 12
185.59289468301313
 22
194.61211317483469
 13
185.59289468301313
 23
194.61211317483469
  0
SOLID
  8
_1-6_
  6
CONTINUOUS
 62
    8
 10
185.93484638561986
 20
190.76388242927837
 11
185.59289468301313
 21
194.61211317483469
 12
196.14600516654355
 22
191.06993804106841
 13
196.14600516654355
 23
191.06993804106841
  0
SOLID
  8
_1-6_
  6
CONTINUOUS
 62
    8
 10
196.14600516654355
 20
191.06993804106841
 11
197.09311129686753
 21
190.97730206830823
 12
187.46556565121136
 22
190.80032812607817
 13
187.46556565121136
 23
190.80032812607817
  0
SOLID
  8
_1-6_
  6
CONTINUOUS
 62
    8
 10
196.14600516654355
 20
191.06993804106841
 11
187.46556565121136
 21
190.80032812607817
 12
185.93484638561986
 22
190.76388242927837
 13
185.93484638561986
 23
190.76388242927837
  0
SOLID
  8
_1-6_
  6
CONTINUOUS
 62
    8
 10
204.78059544331774
 20
195.16203841975488
 11
205.23505146816996
 21
193.22915039873737
 12
204.24298558963903
 22
193.47265156979063
 13
204.24298558963903
 23
193.47265156979063
  0
SOLID
  8
_1-6_
  6
CONTINUOUS
 62
    8
 10
204.78059544331774
 20
195.16203841975488
 11
204.24298558963903
 21
193.47265156979063
 12
202.4431873705883
 22
193.82186614960645
 13
202.4431873705883
 23
193.82186614960645
  0
SOLID
  8
_1-6_
  6
CONTINUOUS
 62
    8
 10
204.78059544331774
 20
195.16203841975488
 11
202.4431873705883
 21
193.82186614960645
 12
201.03289772133215
 22
194.07706141947185
 13
201.03289772133215
 23
194.07706141947185
  0
SOLID
  8
_1-6_
  6
CONTINUOUS
 62
    8
 10
204.78059544331774
 20
195.16203841975488
 11
201.03289772133215
 21
194.07706141947185
 12
199.85094068195554
 22
194.26510003937267
 13
199.85094068195554
 23
194.26510003937267
  0
SOLID
  8
_1-6_
  6
CONTINUOUS
 62
    8
 10
204.78059544331774
 20
195.16203841975488
 11
199.85094068195554
 21
194.26510003937267
 12
198.7227089625506
 22
194.41284466929474
 13
198.7227089625506
 23
194.41284466929474
  0
SOLID
  8
_1-6_
  6
CONTINUOUS
 62
    8
 10
204.78059544331774
 20
195.16203841975488
 11
198.7227089625506
 21
194.41284466929474
 12
197.74222187306773
 22
194.52029530923807
 13
197.74222187306773
 23
194.52029530923807
  0
SOLID
  8
_1-6_
  6
CONTINUOUS
 62
    8
 10
204.78059544331774
 20
195.16203841975488
 11
197.74222187306773
 21
194.52029530923807
 12
196.45977108422653
 22
194.65624251867274
 13
196.45977108422653
 23
194.65624251867274
  0
SOLID
  8
_1-6_
  6
CONTINUOUS
 62
    8
 10
204.78059544331774
 20
195.16203841975488
 11
196.45977108422653
 21
194.65624251867274
 12
185.59289468301313
 22
196.47094233183844
 13
185.59289468301313
 23
196.47094233183844
  0
SOLID
  8
_1-6_
  6
CONTINUOUS
 62
    8
 10
182.49289435309336
 20
210.60738092822791
 11
195.4740542454756
 21
200.7548797341984
 12
195.16029151710308
 22
197.16858734955659
 13
195.16029151710308
 23
197.16858734955659
  0
SOLID
  8
_1-6_
  6
CONTINUOUS
 62
    8
 10
195.94554231908506
 20
197.08359633979637
 11
196.59828109933869
 21
197.01974145911936
 12
197.36453966746251
 22
196.91331665799106
 13
197.36453966746251
 23
196.91331665799106
  0
SOLID
  8
_1-6_
  6
CONTINUOUS
 62
    8
 10
195.94554231908506
 20
197.08359633979637
 11
197.36453966746251
 21
196.91331665799106
 12
197.93213860681348
 22
196.8352718038303
 13
197.93213860681348
 23
196.8352718038303
  0
SOLID
  8
_1-6_
  6
CONTINUOUS
 62
    8
 10
195.94554231908506
 20
197.08359633979637
 11
197.93213860681348
 21
196.8352718038303
 12
198.62035232077653
 22
196.71465702921822
 13
198.62035232077653
 23
196.71465702921822
  0
SOLID
  8
_1-6_
  6
CONTINUOUS
 62
    8
 10
195.94554231908506
 20
197.08359633979637
 11
198.62035232077653
 21
196.71465702921822
 12
199.43627579609358
 22
196.5656623076386
 13
199.43627579609358
 23
196.5656623076386
  0
SOLID
  8
_1-6_
  6
CONTINUOUS
 62
    8
 10
195.94554231908506
 20
197.08359633979637
 11
199.43627579609358
 21
196.5656623076386
 12
200.13158449679852
 22
196.42376257280085
 13
200.13158449679852
 23
196.42376257280085
  0
SOLID
  8
_1-6_
  6
CONTINUOUS
 62
    8
 10
195.94554231908506
 20
197.08359633979637
 11
200.13158449679852
 21
196.42376257280085
 12
201.28806733572614
 22
196.17543803683481
 13
201.28806733572614
 23
196.17543803683481
  0
SOLID
  8
_1-6_
  6
CONTINUOUS
 62
    8
 10
195.94554231908506
 20
197.08359633979637
 11
201.28806733572614
 21
196.17543803683481
 12
202.15365571823639
 22
195.95549344783629
 13
202.15365571823639
 23
195.95549344783629
  0
SOLID
  8
_1-6_
  6
CONTINUOUS
 62
    8
 10
195.94554231908506
 20
197.08359633979637
 11
202.15365571823639
 21
195.95549344783629
 12
203.19661876929382
 22
195.66459899141893
 13
203.19661876929382
 23
195.66459899141893
  0
SOLID
  8
_1-6_
  6
CONTINUOUS
 62
    8
 10
195.94554231908506
 20
197.08359633979637
 11
203.19661876929382
 21
195.66459899141893
 12
204.11187205899725
 22
195.38789450848532
 13
204.11187205899725
 23
195.38789450848532
  0
SOLID
  8
_1-6_
  6
CONTINUOUS
 62
    8
 10
195.94554231908506
 20
197.08359633979637
 11
204.11187205899725
 21
195.38789450848532
 12
204.78059544331774
 22
195.16203841975488
 13
204.78059544331774
 23
195.16203841975488
  0
SOLID
  8
_1-6_
  6
CONTINUOUS
 62
    8
 10
195.94554231908506
 20
197.08359633979637
 11
204.78059544331774
 21
195.16203841975488
 12
185.59289468301313
 22
196.47094233183844
 13
185.59289468301313
 23
196.47094233183844
  0
SOLID
  8
_1-6_
  6
CONTINUOUS
 62
    8
 10
195.16029151710308
 20
197.16858734955659
 11
195.94554231908506
 21
197.08359633979637
 12
185.59289468301313
 22
196.47094233183844
 13
185.59289468301313
 23
196.47094233183844
  0
SOLID
  8
_1-6_
  6
CONTINUOUS
 62
    8
 10
195.16029151710308
 20
197.16858734955659
 11
185.59289468301313
 21
196.47094233183844
 12
185.59289468301313
 22
199.60387755273797
 13
185.59289468301313
 23
199.60387755273797
  0
SOLID
  8
_1-6_
  6
CONTINUOUS
 62
    8
 10
185.59289468301313
 20
199.60387755273797
 11
184.9928902290963
 21
199.60387755273797
 12
184.9928902290963
 22
201.01967872989167
 13
184.9928902290963
 23
201.01967872989167
  0
SOLID
  8
_1-6_
  6
CONTINUOUS
 62
    8
 10
184.9928902290963
 20
201.01967872989167
 11
182.49289435309336
 21
201.01967872989167
 12
182.49289435309336
 22
210.60738092822791
 13
182.49289435309336
 23
210.60738092822791
  0
SOLID
  8
_1-6_
  6
CONTINUOUS
 62
    8
 10
184.9928902290963
 20
201.01967872989167
 11
182.49289435309336
 21
210.60738092822791
 12
195.16029151710308
 22
197.16858734955659
 13
195.16029151710308
 23
197.16858734955659
  0
SOLID
  8
_1-6_
  6
CONTINUOUS
 62
    8
 10
184.9928902290963
 20
201.01967872989167
 11
195.16029151710308
 21
197.16858734955659
 12
185.59289468301313
 22
199.60387755273797
 13
185.59289468301313
 23
199.60387755273797
  0
SOLID
  8
_1-6_
  6
CONTINUOUS
 62
    8
 10
203.67570339969839
 20
201.33448384382686
 11
203.96697781731496
 21
199.39472027056121
 12
202.02953661946401
 22
199.82756510989145
 13
202.02953661946401
 23
199.82756510989145
  0
SOLID
  8
_1-6_
  6
CONTINUOUS
 62
    8
 10
203.67570339969839
 20
201.33448384382686
 11
202.02953661946401
 21
199.82756510989145
 12
199.91670340227509
 22
200.20904888521724
 13
199.91670340227509
 23
200.20904888521724
  0
SOLID
  8
_1-6_
  6
CONTINUOUS
 62
    8
 10
203.67570339969839
 20
201.33448384382686
 11
199.91670340227509
 21
200.20904888521724
 12
198.09731924302906
 22
200.50249794316017
 13
198.09731924302906
 23
200.50249794316017
  0
SOLID
  8
_1-6_
  6
CONTINUOUS
 62
    8
 10
203.67570339969839
 20
201.33448384382686
 11
198.09731924302906
 21
200.50249794316017
 12
196.83548829387453
 22
200.6785673779259
 13
196.83548829387453
 23
200.6785673779259
  0
SOLID
  8
_1-6_
  6
CONTINUOUS
 62
    8
 10
203.67570339969839
 20
201.33448384382686
 11
196.83548829387453
 21
200.6785673779259
 12
195.47405758419552
 22
200.75489353489232
 13
195.47405758419552
 23
200.75489353489232
  0
SOLID
  8
_1-6_
  6
CONTINUOUS
 62
    8
 10
195.47405758419552
 20
200.75489353489232
 11
182.49289435309336
 21
210.60738092822791
 12
184.24520538456892
 22
210.55434884766294
 13
184.24520538456892
 23
210.55434884766294
  0
SOLID
  8
_1-6_
  6
CONTINUOUS
 62
    8
 10
195.47405758419552
 20
200.75489353489232
 11
184.24520538456892
 21
210.55434884766294
 12
185.35589297950344
 22
210.48853032351866
 13
185.35589297950344
 23
210.48853032351866
  0
SOLID
  8
_1-6_
  6
CONTINUOUS
 62
    8
 10
195.47405758419552
 20
200.75489353489232
 11
185.35589297950344
 21
210.48853032351866
 12
186.5570810451363
 22
210.39802985282031
 13
186.5570810451363
 23
210.39802985282031
  0
SOLID
  8
_1-6_
  6
CONTINUOUS
 62
    8
 10
195.47405758419552
 20
200.75489353489232
 11
186.5570810451363
 21
210.39802985282031
 12
187.51967696074618
 22
210.2993020666039
 13
187.51967696074618
 23
210.2993020666039
  0
SOLID
  8
_1-6_
  6
CONTINUOUS
 62
    8
 10
195.47405758419552
 20
200.75489353489232
 11
187.51967696074618
 21
210.2993020666039
 12
188.76200160396922
 22
210.14298307176128
 13
188.76200160396922
 23
210.14298307176128
  0
SOLID
  8
_1-6_
  6
CONTINUOUS
 62
    8
 10
195.47405758419552
 20
200.75489353489232
 11
188.76200160396922
 21
210.14298307176128
 12
189.84800725234962
 22
209.97020944588257
 13
189.84800725234962
 23
209.97020944588257
  0
SOLID
  8
_1-6_
  6
CONTINUOUS
 62
    8
 10
189.84800725234962
 20
209.97020944588257
 11
191.15615041971691
 21
209.73984461137763
 12
192.11874633532682
 22
209.54238903894483
 13
192.11874633532682
 23
209.54238903894483
  0
SOLID
  8
_1-6_
  6
CONTINUOUS
 62
    8
 10
189.84800725234962
 20
209.97020944588257
 11
192.11874633532682
 21
209.54238903894483
 12
193.0566603043826
 22
209.34493346651203
 13
193.0566603043826
 23
209.34493346651203
  0
SOLID
  8
_1-6_
  6
CONTINUOUS
 62
    8
 10
189.84800725234962
 20
209.97020944588257
 11
193.0566603043826
 21
209.34493346651203
 12
194.06862011310071
 22
209.089886685453
 13
194.06862011310071
 23
209.089886685453
  0
SOLID
  8
_1-6_
  6
CONTINUOUS
 62
    8
 10
189.84800725234962
 20
209.97020944588257
 11
194.06862011310071
 21
209.089886685453
 12
194.85694537846433
 22
208.88112627926077
 13
194.85694537846433
 23
208.88112627926077
  0
SOLID
  8
_1-6_
  6
CONTINUOUS
 62
    8
 10
189.84800725234962
 20
209.97020944588257
 11
194.85694537846433
 21
208.88112627926077
 12
195.36862741554575
 22
206.79175796117835
 13
195.36862741554575
 23
206.79175796117835
  0
SOLID
  8
_1-6_
  6
CONTINUOUS
 62
    8
 10
189.84800725234962
 20
209.97020944588257
 11
195.36862741554575
 21
206.79175796117835
 12
194.54145674327424
 22
206.86988453593415
 13
194.54145674327424
 23
206.86988453593415
  0
SOLID
  8
_1-6_
  6
CONTINUOUS
 62
    8
 10
189.84800725234962
 20
209.97020944588257
 11
194.54145674327424
 21
206.86988453593415
 12
194.22769157949321
 22
203.28358288576612
 13
194.22769157949321
 23
203.28358288576612
  0
SOLID
  8
_1-6_
  6
CONTINUOUS
 62
    8
 10
195.33250635495153
 20
203.17695683116881
 11
196.40250313306123
 21
203.03825354511753
 12
197.34154201659175
 22
202.89235261465041
 13
197.34154201659175
 23
202.89235261465041
  0
SOLID
  8
_1-6_
  6
CONTINUOUS
 62
    8
 10
195.33250635495153
 20
203.17695683116881
 11
197.34154201659175
 21
202.89235261465041
 12
198.32453438262866
 22
202.72121746271466
 13
198.32453438262866
 23
202.72121746271466
  0
SOLID
  8
_1-6_
  6
CONTINUOUS
 62
    8
 10
195.33250635495153
 20
203.17695683116881
 11
198.32453438262866
 21
202.72121746271466
 12
199.30866722175423
 22
202.51646499282947
 13
199.30866722175423
 23
202.51646499282947
  0
SOLID
  8
_1-6_
  6
CONTINUOUS
 62
    8
 10
195.33250635495153
 20
203.17695683116881
 11
199.30866722175423
 21
202.51646499282947
 12
200.83449291333594
 22
202.1600258581787
 13
200.83449291333594
 23
202.1600258581787
  0
SOLID
  8
_1-6_
  6
CONTINUOUS
 62
    8
 10
195.33250635495153
 20
203.17695683116881
 11
200.83449291333594
 21
202.1600258581787
 12
201.94233868341962
 22
201.85886390126274
 13
201.94233868341962
 23
201.85886390126274
  0
SOLID
  8
_1-6_
  6
CONTINUOUS
 62
    8
 10
195.33250635495153
 20
203.17695683116881
 11
201.94233868341962
 21
201.85886390126274
 12
203.09320759020562
 22
201.53619037599563
 13
203.09320759020562
 23
201.53619037599563
  0
SOLID
  8
_1-6_
  6
CONTINUOUS
 62
    8
 10
195.33250635495153
 20
203.17695683116881
 11
203.09320759020562
 21
201.53619037599563
 12
203.67570339969839
 22
201.33448384382686
 13
203.67570339969839
 23
201.33448384382686
  0
SOLID
  8
_1-6_
  6
CONTINUOUS
 62
    8
 10
195.33250635495153
 20
203.17695683116881
 11
203.67570339969839
 21
201.33448384382686
 12
195.47405758419552
 22
200.75489353489232
 13
195.47405758419552
 23
200.75489353489232
  0
SOLID
  8
_1-6_
  6
CONTINUOUS
 62
    8
 10
195.47405758419552
 20
200.75489353489232
 11
189.84800725234962
 21
209.97020944588257
 12
194.22769157949321
 22
203.28358288576612
 13
194.22769157949321
 23
203.28358288576612
  0
SOLID
  8
_1-6_
  6
CONTINUOUS
 62
    8
 10
195.47405758419552
 20
200.75489353489232
 11
194.22769157949321
 21
203.28358288576612
 12
195.33250635495153
 22
203.17695683116881
 13
195.33250635495153
 23
203.17695683116881
  0
SOLID
  8
_1-6_
  6
CONTINUOUS
 62
    8
 10
186.59289798221073
 20
176.64925652581294
 11
186.59289798221073
 21
167.68943580421242
 12
182.69288758973818
 22
176.64925652581294
 13
182.69288758973818
 23
169.44443986222552
  0
ENDSEC
  0
EOF
