  0
SECTION
  2
HEADER
  9
$ACADVER
  1
AC1009
  9
$INSBASE
 10
0
 20
0
 30
0
  9
$EXTMIN
 10
0
 20
0
  9
$EXTMAX
 10
420
 20
297
  9
$LIMMIN
 10
0
 20
0
  9
$LIMMAX
 10
420
 20
297
  9
$LTSCALE
 40
1
  0
ENDSEC
  0
SECTION
  2
TABLES
  0
TABLE
  2
LTYPE
 70
     9
  0
LTYPE
  2
CONTINUOUS
 70
    64
  3
実線
 72
    65
 73
     0
 40
0.0
  0
LTYPE
  2
DASHED1
 70
    64
  3
--  --  --  --  --  --  --  --  
 72
    65
 73
     2
 40
2.5
 49
1.25
 49
-1.25
  0
LTYPE
  2
DASHED2
 70
    64
  3
----    ----    ----    ----    
 72
    65
 73
     2
 40
5.0
 49
2.5
 49
-2.5
  0
LTYPE
  2
DASHED3
 70
    64
  3
------  ------  ------  ------  
 72
    65
 73
     2
 40
5.0
 49
3.75
 49
-1.25
  0
LTYPE
  2
CENTER1
 70
    64
  3
----- - ----- - ----- - ----- - 
 72
    65
 73
     4
 40
10.0
 49
6.25
 49
-1.25
 49
1.25
 49
-1.25
  0
LTYPE
  2
CENTER2
 70
    64
  3
----------  --  ----------  --  
 72
    65
 73
     4
 40
20.0
 49
12.5
 49
-2.5
 49
2.5
 49
-2.5
  0
LTYPE
  2
PHANTOM1
 70
    64
  3
--- - - --- - - --- - - --- - - 
 72
    65
 73
     6
 40
10.0
 49
3.25
 49
-1.25
 49
1.25
 49
-1.25
 49
1.25
 49
-1.25
  0
LTYPE
  2
PHANTOM2
 70
    64
  3
--------  -  -  --------  -  -  
 72
    65
 73
     6
 40
20.0
 49
10.0
 49
-2.5
 49
1.25
 49
-2.5
 49
1.25
 49
-2.5
  0
LTYPE
  2
DOT
 70
    64
  3
-   -   -   -   -   -   -   -   
 72
    65
 73
     2
 40
2.5
 49
0.625
 49
-1.875
  0
LTYPE
  2
DUMMY
 70
    64
  3
ダミー
 72
    65
 73
     0
 40
0.0
  0
LTYPE
  2
RAND1
 70
    64
  3
ランダム線1
 72
    65
 73
     4
 40
10.0
 49
1.0
 49
-2.0
 49
3.0
 49
-4.0
  0
LTYPE
  2
RAND2
 70
    64
  3
ランダム線2
 72
    65
 73
     4
 40
14.0
 49
2.0
 49
-3.0
 49
4.0
 49
-5.0
  0
LTYPE
  2
RAND3
 70
    64
  3
ランダム線3
 72
    65
 73
     4
 40
18.0
 49
3.0
 49
-4.0
 49
5.0
 49
-6.0
  0
LTYPE
  2
RAND4
 70
    64
  3
ランダム線4
 72
    65
 73
     4
 40
22.0
 49
4.0
 49
-5.0
 49
6.0
 49
-7.0
  0
LTYPE
  2
RAND5
 70
    64
  3
ランダム線5
 72
    65
 73
     4
 40
26.0
 49
5.0
 49
-6.0
 49
7.0
 49
-8.0
  0
LTYPE
  2
LONG1
 70
    64
  3
----------  --  ----------  --  
 72
    65
 73
     4
 40
40.0
 49
32.5
 49
-2.5
 49
2.5
 49
-2.5
  0
LTYPE
  2
LONG2
 70
    64
  3
--------  -  -  --------  -  -  
 72
    65
 73
     6
 40
40.0
 49
30.0
 49
-2.5
 49
1.25
 49
-2.5
 49
1.25
 49
-2.5
  0
LTYPE
  2
LONG3
 70
    64
  3
+++++++++++++++..+++++++++++++++
 72
    65
 73
     2
 40
40.0
 49
37.5
 49
-2.5
  0
LTYPE
  2
LONG4
 70
    64
  3
+++++++++++++++..+++++++++++++++
 72
    65
 73
     2
 40
80.0
 49
75.0
 49
-5.0
  0
LTYPE
  2
LONG5
 70
    64
  3
----------  --  ----------  --  
 72
    65
 73
     4
 40
60.0
 49
37.5
 49
-7.5
 49
7.5
 49
-7.5
  0
LTYPE
  2
dashed
 70
   64
  3
-------   -------------   ------
 72
   65
 73
    2
 40
7.5
 49
6
 49
-1.5
  0
LTYPE
  2
dashed_spaced
 70
   64
  3
----        --------        ----
 72
   65
 73
    2
 40
12
 49
6
 49
-6
  0
LTYPE
  2
long_dashed_dotted
 70
   64
  3
------------- --- --------------
 72
   65
 73
    4
 40
15.25
 49
12
 49
-1.5
 49
0.25
 49
-1.5
  0
LTYPE
  2
long_dashed_double-dotted
 70
   64
  3
----------- --- --- ------------
 72
   65
 73
    6
 40
17
 49
12
 49
-1.5
 49
0.25
 49
-1.5
 49
0.25
 49
-1.5
  0
LTYPE
  2
long_dashed_triplicate-dotted
 70
   64
  3
--------- --- --- --- ----------
 72
   65
 73
    8
 40
18.75
 49
12
 49
-1.5
 49
0.25
 49
-1.5
 49
0.25
 49
-1.5
 49
0.25
 49
-1.5
  0
LTYPE
  2
dotted
 70
   64
  3
   -       -       -       -    
 72
   65
 73
    2
 40
1.75
 49
0.25
 49
-1.5
  0
LTYPE
  2
chain
 70
   64
  3
-------------- -- --------------
 72
   65
 73
    4
 40
18.5
 49
12
 49
-1.5
 49
3.5
 49
-1.5
  0
LTYPE
  2
chain_double_dash
 70
   64
  3
------------ -- -- -------------
 72
   65
 73
    6
 40
23.5
 49
12
 49
-1.5
 49
3.5
 49
-1.5
 49
3.5
 49
-1.5
  0
LTYPE
  2
dashed_dotted
 70
   64
  3
-----------     -     ----------
 72
   65
 73
    4
 40
9.25
 49
6
 49
-1.5
 49
0.25
 49
-1.5
  0
LTYPE
  2
double-dashed_dotted
 70
   64
  3
------   -----------   -   -----
 72
   65
 73
    6
 40
16.75
 49
6
 49
-1.5
 49
6
 49
-1.5
 49
0.25
 49
-1.5
  0
LTYPE
  2
dashed_double-dotted
 70
   64
  3
---------    -    -    ---------
 72
   65
 73
    6
 40
11
 49
6
 49
-1.5
 49
0.25
 49
-1.5
 49
0.25
 49
-1.5
  0
LTYPE
  2
double-dashed_double-dotted
 70
   64
  3
-----   ---------   -   -   ----
 72
   65
 73
    8
 40
18.5
 49
6
 49
-1.5
 49
6
 49
-1.5
 49
0.25
 49
-1.5
 49
0.25
 49
-1.5
  0
LTYPE
  2
dashed_triplicate-dotted
 70
   64
  3
-------    -    -    -    ------
 72
   65
 73
    8
 40
12.75
 49
6
 49
-1.5
 49
0.25
 49
-1.5
 49
0.25
 49
-1.5
 49
0.25
 49
-1.5
  0
LTYPE
  2
double-dashed_triplicate-dotted
 70
   64
  3
-----  ---------  -  -  -  -----
 72
   65
 73
   10
 40
20.25
 49
6
 49
-1.5
 49
6
 49
-1.5
 49
0.25
 49
-1.5
 49
0.25
 49
-1.5
 49
0.25
 49
-1.5
  0
LTYPE
  2
undefined
 70
   64
  3
--------------------------------
 72
   65
 73
    0
 40
0
  0
ENDTAB
  0
TABLE
  2
STYLE
  5
3
100
AcDbSymbolTable
 70
     1
  0
STYLE
  5
10
100
AcDbSymbolTableRecord
100
AcDbTextStyleTableRecord
  2
STANDARD
 70
     0
 40
0.0
 41
1.0
 50
0.0
 71
     0
 42
0.2
  3
txt
  4
bigfont.shx
  0
STYLE
  5
26
100
AcDbSymbolTableRecord
100
AcDbTextStyleTableRecord
  2
TATEGAKI
 70
    68
 40
0.0
 41
1.0
 50
0.0
 71
     0
 42
1.0
  3
txt
  4
bigfont.shx
  0
ENDTAB
  0
TABLE
  2
LAYER
 70
   12
  0
LAYER
  2
_0-0_
 70
   64
 62
    7
  6
CONTINUOUS
  0
LAYER
  2
_1-0_
 70
   64
 62
    7
  6
CONTINUOUS
  0
LAYER
  2
_1-1_
 70
   64
 62
    7
  6
CONTINUOUS
  0
LAYER
  2
_1-3_
 70
   64
 62
    7
  6
CONTINUOUS
  0
LAYER
  2
_1-4_
 70
   64
 62
    7
  6
CONTINUOUS
  0
LAYER
  2
_1-6_
 70
   64
 62
    7
  6
CONTINUOUS
  0
LAYER
  2
_1-8_
 70
   64
 62
    7
  6
CONTINUOUS
  0
LAYER
  2
_1-9_
 70
   64
 62
    7
  6
CONTINUOUS
  0
LAYER
  2
_1-a_
 70
   64
 62
    7
  6
CONTINUOUS
  0
LAYER
  2
_1-b_
 70
   64
 62
    7
  6
CONTINUOUS
  0
LAYER
  2
_1-c_
 70
   64
 62
    7
  6
CONTINUOUS
  0
LAYER
  2
ADD_LINE
 70
   64
 62
    7
  6
CONTINUOUS
  0
ENDTAB
  0
ENDSEC
  0
SECTION
  2
BLOCKS
  0
ENDSEC
  0
SECTION
  2
ENTITIES
  0
LINE
  8
_0-0_
  6
CONTINUOUS
 62
    5
 10
6.7567526327597136
 20
280.13513513513516
 11
406.75677325274495
 21
280.13513513513516
  0
LINE
  8
_0-0_
  6
CONTINUOUS
 62
    5
 10
406.75677325274495
 20
10.13513513513513
 11
6.7567526327597136
 21
10.13513513513513
  0
LINE
  8
_0-0_
  6
CONTINUOUS
 62
    5
 10
406.75677325274495
 20
30.135133073136615
 11
6.7567402607685949
 21
30.135133073136615
  0
LINE
  8
_0-0_
  6
CONTINUOUS
 62
    5
 10
371.75678150073907
 20
10.13513513513513
 11
371.75678150073907
 21
30.135133073136615
  0
LINE
  8
_0-0_
  6
CONTINUOUS
 62
    5
 10
137.02703939901818
 20
30.135133073136615
 11
137.02703939901818
 21
10.13513513513513
  0
LINE
  8
_0-0_
  6
CONTINUOUS
 62
    5
 10
214.86486486486487
 20
30.135133073136615
 11
214.86486486486487
 21
10.13513513513513
  0
LINE
  8
_0-0_
  6
CONTINUOUS
 62
    5
 10
137.02703939901818
 20
20.135134104135886
 11
214.86486486486487
 21
20.135134104135886
  0
LINE
  8
_0-0_
  6
CONTINUOUS
 62
    5
 10
396.48648648648651
 20
25.945945945945951
 11
383.91891891891896
 21
13.378379924877265
  0
LINE
  8
_1-1_
  6
CONTINUOUS
 62
    7
 10
124.53001692488388
 20
118.15789712441935
 11
123.29891720333616
 21
120.8936660354202
  0
LINE
  8
_1-1_
  6
CONTINUOUS
 62
    7
 10
123.29891720333616
 20
120.8936660354202
 11
127.67614003774283
 21
122.86342311549832
  0
LINE
  8
_1-1_
  6
CONTINUOUS
 62
    7
 10
127.67614003774283
 20
122.86342311549832
 11
128.90723975929055
 21
120.12765420449747
  0
LINE
  8
_1-1_
  6
CONTINUOUS
 62
    7
 10
128.90723975929055
 20
120.12765420449747
 11
124.53001692488388
 21
118.15789712441935
  0
LINE
  8
_1-1_
  6
CONTINUOUS
 62
    7
 10
167.39031817461995
 20
137.44502711940456
 11
166.15921845307221
 21
140.18079603040542
  0
LINE
  8
_1-1_
  6
CONTINUOUS
 62
    7
 10
166.15921845307221
 20
140.18079603040542
 11
170.53644128747891
 21
142.15055311048354
  0
LINE
  8
_1-1_
  6
CONTINUOUS
 62
    7
 10
170.53644128747891
 20
142.15055311048354
 11
171.76754100902662
 21
139.41478419948268
  0
LINE
  8
_1-1_
  6
CONTINUOUS
 62
    7
 10
171.76754100902662
 20
139.41478419948268
 11
167.39031817461995
 21
137.44502711940456
  0
LINE
  8
_1-1_
  6
CONTINUOUS
 62
    7
 10
210.25063179634714
 20
156.73216948638091
 11
209.01951970280828
 21
159.46793839738177
  0
LINE
  8
_1-1_
  6
CONTINUOUS
 62
    7
 10
209.01951970280828
 20
159.46793839738177
 11
213.39675490920609
 21
161.4376954774599
  0
LINE
  8
_1-1_
  6
CONTINUOUS
 62
    7
 10
213.39675490920609
 20
161.4376954774599
 11
214.62784225876268
 21
158.70192656645904
  0
LINE
  8
_1-1_
  6
CONTINUOUS
 62
    7
 10
214.62784225876268
 20
158.70192656645904
 11
210.25063179634714
 21
156.73216948638091
  0
LINE
  8
_1-1_
  6
CONTINUOUS
 62
    7
 10
253.11094541807435
 20
176.01931185335727
 11
251.8798333245355
 21
178.75508076435813
  0
LINE
  8
_1-1_
  6
CONTINUOUS
 62
    7
 10
251.8798333245355
 20
178.75508076435813
 11
256.25706853093328
 21
180.72483784443625
  0
LINE
  8
_1-1_
  6
CONTINUOUS
 62
    7
 10
256.25706853093328
 20
180.72483784443625
 11
257.4881558804899
 21
177.98906893343539
  0
LINE
  8
_1-1_
  6
CONTINUOUS
 62
    7
 10
251.8798333245355
 20
178.75508076435813
 11
257.4881558804899
 21
177.98906893343539
  0
LINE
  8
_1-1_
  6
CONTINUOUS
 62
    7
 10
209.01951970280828
 20
159.46793839738177
 11
214.62784225876268
 21
158.70192656645904
  0
LINE
  8
_1-1_
  6
CONTINUOUS
 62
    7
 10
166.15921845307221
 20
140.18079603040542
 11
171.76754100902662
 21
139.41478419948268
  0
LINE
  8
_1-1_
  6
CONTINUOUS
 62
    7
 10
123.29891720333616
 20
120.8936660354202
 11
128.90723975929055
 21
120.12765420449747
  0
LINE
  8
_1-1_
  6
CONTINUOUS
 62
    7
 10
166.15923082506336
 20
140.18080840239654
 11
170.53645365947003
 21
142.15056548247466
  0
LINE
  8
_1-1_
  6
CONTINUOUS
 62
    7
 10
210.25063179634714
 20
156.73216948638091
 11
209.01954444679055
 21
159.46793839738177
  0
LINE
  8
_1-1_
  6
CONTINUOUS
 62
    7
 10
209.01954444679055
 20
159.46793839738177
 11
213.39675490920609
 21
161.4376954774599
  0
LINE
  8
_1-1_
  6
CONTINUOUS
 62
    7
 10
213.39675490920609
 20
161.4376954774599
 11
214.62786700274495
 21
158.70192656645904
  0
LINE
  8
_1-1_
  6
CONTINUOUS
 62
    7
 10
214.62786700274495
 20
158.70192656645904
 11
210.25063179634714
 21
156.73216948638091
  0
LINE
  8
_1-1_
  6
CONTINUOUS
 62
    7
 10
209.01954444679055
 20
159.46793839738177
 11
214.62786700274495
 21
158.70192656645904
  0
LINE
  8
_1-1_
  6
CONTINUOUS
 62
    7
 10
209.01954444679055
 20
159.46795076937289
 11
213.39675490920609
 21
161.43770784945102
  0
LINE
  8
_1-1_
  6
CONTINUOUS
 62
    7
 10
253.11094541807435
 20
176.01931185335727
 11
251.8798333245355
 21
178.75508076435813
  0
LINE
  8
_1-1_
  6
CONTINUOUS
 62
    7
 10
251.8798333245355
 20
178.75508076435813
 11
256.25706853093328
 21
180.72483784443625
  0
LINE
  8
_1-1_
  6
CONTINUOUS
 62
    7
 10
256.25706853093328
 20
180.72483784443625
 11
257.4881558804899
 21
177.98906893343539
  0
LINE
  8
_1-1_
  6
CONTINUOUS
 62
    7
 10
251.8798333245355
 20
178.75508076435813
 11
257.4881558804899
 21
177.98906893343539
  0
LINE
  8
_1-1_
  6
CONTINUOUS
 62
    7
 10
251.8798333245355
 20
178.75508076435813
 11
256.25706853093328
 21
180.72483784443625
  0
LINE
  8
_1-1_
  6
CONTINUOUS
 62
    7
 10
256.25706853093328
 20
180.72483784443625
 11
257.4881558804899
 21
177.98906893343539
  0
LINE
  8
_1-1_
  6
CONTINUOUS
 62
    7
 10
251.8798333245355
 20
178.75508076435813
 11
257.4881558804899
 21
177.98906893343539
  0
LINE
  8
_1-1_
  6
CONTINUOUS
 62
    7
 10
251.87985806851776
 20
178.75508076435813
 11
256.25706853093328
 21
180.72483784443625
  0
LINE
  8
_1-1_
  6
CONTINUOUS
 62
    7
 10
256.25706853093328
 20
180.72483784443625
 11
257.48818062447214
 21
177.98906893343539
  0
LINE
  8
_1-1_
  6
CONTINUOUS
 62
    7
 10
251.87985806851776
 20
178.75508076435813
 11
257.48818062447214
 21
177.98906893343539
  0
LINE
  8
_1-1_
  6
CONTINUOUS
 62
    7
 10
251.87985806851776
 20
178.75509313634925
 11
256.25706853093328
 21
180.72485021642737
  0
LINE
  8
_1-c_
  6
CONTINUOUS
 62
    7
 10
112.30058824693835
 20
129.6955088022593
 11
114.78758116026184
 21
122.93866956556167
  0
LINE
  8
_1-c_
  6
CONTINUOUS
 62
    7
 10
155.16090186866555
 20
148.98265116923565
 11
157.64789478198904
 21
142.22581193253802
  0
LINE
  8
_1-c_
  6
CONTINUOUS
 62
    7
 10
198.02121549039273
 20
168.26979353621201
 11
200.50820840371622
 21
161.51295429951438
  0
LINE
  8
_1-c_
  6
CONTINUOUS
 62
    7
 10
156.10974698453336
 20
151.03683471679687
 11
198.60681894663219
 21
166.67878022065034
  0
LINE
  8
_1-c_
  6
CONTINUOUS
 62
    7
 10
113.24943336280617
 20
131.74969234982052
 11
155.746505324905
 21
147.39163785367398
  0
LINE
  8
_1-4_
  6
CONTINUOUS
 62
    7
 10
102.38769118850296
 20
149.81769871067357
 11
84.121683481577278
 21
190.40880357896961
  0
LINE
  8
_1-4_
  6
CONTINUOUS
 62
    7
 10
84.121683481577278
 20
190.40880357896961
 11
126.98199710330448
 21
209.69594594594597
  0
LINE
  8
_1-4_
  6
CONTINUOUS
 62
    7
 10
102.38767881651184
 20
149.81769871067357
 11
84.121683481577278
 21
190.40880357896961
  0
LINE
  8
_1-4_
  6
CONTINUOUS
 62
    7
 10
145.24799243823904
 20
169.10484107764992
 11
126.98199710330448
 21
209.69594594594597
  0
LINE
  8
_1-4_
  6
CONTINUOUS
 62
    7
 10
126.98199710330448
 20
209.69594594594597
 11
170.01866108662375
 21
229.06246700802367
  0
LINE
  8
_1-4_
  6
CONTINUOUS
 62
    7
 10
188.28465642155828
 20
188.47134976773648
 11
170.01866108662375
 21
229.06244226404141
  0
LINE
  8
_1-4_
  6
CONTINUOUS
 62
    7
 10
170.01866108662375
 20
229.06246700802367
 11
212.70263671875
 21
248.27023067989867
  0
LINE
  8
_1-4_
  6
CONTINUOUS
 62
    7
 10
230.96861968169341
 20
207.67913818359375
 11
212.70261197476773
 21
248.27025542388094
  0
LINE
  8
_1-4_
  6
CONTINUOUS
 62
    7
 10
212.70263671875
 20
248.27023067989867
 11
255.73875633445948
 21
267.63647955817146
  0
LINE
  8
_1-4_
  6
CONTINUOUS
 62
    7
 10
274.00476404138516
 20
227.04538706186656
 11
255.73875633445948
 21
267.63647955817146
  0
LINE
  8
_1-4_
  6
CONTINUOUS
 62
    7
 10
231.8918918918919
 20
180
 11
216.82015908730997
 21
206.10498789194469
  0
LINE
  8
_1-4_
  6
CONTINUOUS
 62
    7
 10
216.82015908730997
 20
206.10498789194469
 11
209.18918918918919
 21
206.10498789194469
  0
ARC
  8
_1-c_
  6
CONTINUOUS
 62
    7
 10
113.80210257865288
 20
130.24816564611487
 40
1.5999999239638045
 50
110.20722961425781
 51
200.20695495605469
  0
ARC
  8
_1-c_
  6
CONTINUOUS
 62
    7
 10
156.66241620038008
 20
149.53530801309122
 40
1.5999999239638045
 50
110.20722961425781
 51
200.20695495605469
  0
ARC
  8
_1-c_
  6
CONTINUOUS
 62
    7
 10
199.52272982210727
 20
168.82245038006758
 40
1.5999999239638045
 50
110.20722961425781
 51
200.20695495605469
  0
TEXT
  8
_0-0_
 62
    7
 10
141.89189395389042
 20
14.594594594594582
 40
2.5
 41
1
 50
0
  1
縮尺
  0
TEXT
  8
_0-0_
 62
    7
 10
377.10214563318203
 20
22.865493362014362
 40
2.5
 41
1
 50
0
  1
ＮＯ
  0
TEXT
  8
_0-0_
 62
    7
 10
14.594594336844779
 20
24.324324324324323
 40
2.5
 41
1
 50
0
  1
和形
  0
TEXT
  8
_0-0_
 62
    7
 10
383.23801896378802
 20
18.523427086907475
 40
3
 41
1
 50
0
  1
Ｊ
  0
TEXT
  8
_1-0_
 62
    7
 10
169.90681828679266
 20
13.3181144095756
 40
2.5
 41
1
 50
0
  1
1/5
  0
TEXT
  8
_1-4_
 62
    7
 10
103.6368061510034
 20
199.7388939810055
 40
2.5
 41
1
 50
24.227891841336795
  1
237
  0
TEXT
  8
_1-4_
 62
    7
 10
146.58529495352664
 20
219.06572569553254
 40
2.5
 41
1
 50
24.227891841336653
  1
237
  0
TEXT
  8
_1-4_
 62
    7
 10
189.44560857525383
 20
238.35289280649116
 40
2.5
 41
1
 50
24.227891841336675
  1
237
  0
TEXT
  8
_1-4_
 62
    7
 10
232.30565724090377
 20
257.63988439463378
 40
2.5
 41
1
 50
24.227969413213476
  1
237
  0
POINT
  8
_1-4_
 62
    7
 10
84.121695853568411
 20
190.40880357896961
  0
POINT
  8
_1-4_
 62
    7
 10
84.121683481577278
 20
190.40880357896961
  0
POINT
  8
_1-4_
 62
    7
 10
126.98199710330448
 20
209.69594594594597
  0
POINT
  8
_1-4_
 62
    7
 10
170.01866108662375
 20
229.06246700802367
  0
POINT
  8
_1-4_
 62
    7
 10
212.70263671875
 20
248.27023067989867
  0
POINT
  8
_1-4_
 62
    7
 10
255.73875633445948
 20
267.63647955817146
  0
POINT
  8
_1-a_
 62
    7
 10
84.121695853568411
 20
190.40880357896961
  0
LINE
  8
_1-c_
  6
CONTINUOUS
 62
    7
 10
198.97006060626057
 20
170.32397708377323
 11
254.66994492706931
 21
190.82550268390767
  0
LINE
  8
ADD_LINE
  6
DOT
 62
    4
 10
237.7183775892552
 20
187.5778261957833
 11
237.7183775892552
 21
164.00020862842646
  0
LINE
  8
ADD_LINE
  6
DOT
 62
    4
 10
241.97527482937519
 20
186.66874221136331
 11
292.0234688449051
 21
186.66874221136331
  0
LINE
  8
_1-b_
  6
CONTINUOUS
 62
    7
 10
124.53001692488388
 20
118.15789712441935
 11
123.29891720333615
 21
120.89366603542021
  0
LINE
  8
_1-b_
  6
CONTINUOUS
 62
    7
 10
123.29891720333615
 20
120.89366603542021
 11
127.67614003774284
 21
122.86342311549834
  0
LINE
  8
_1-b_
  6
CONTINUOUS
 62
    7
 10
127.67614003774284
 20
122.86342311549834
 11
128.90723975929055
 21
120.12765420449747
  0
LINE
  8
_1-b_
  6
CONTINUOUS
 62
    7
 10
128.90723975929055
 20
120.12765420449747
 11
124.53001692488388
 21
118.15789712441935
  0
LINE
  8
_1-b_
  6
CONTINUOUS
 62
    7
 10
123.29891720333615
 20
120.89366603542021
 11
128.90723975929055
 21
120.12765420449747
  0
LINE
  8
_1-b_
  6
CONTINUOUS
 62
    7
 10
123.29892957532729
 20
120.89367840741133
 11
127.67615240973396
 21
122.86343548748945
  0
LINE
  8
_1-b_
  6
CONTINUOUS
 62
    7
 10
126.90339784364443
 20
126.1194589975718
 11
127.07451485298776
 21
125.65458143079604
  0
LINE
  8
_1-b_
  6
CONTINUOUS
 62
    7
 10
128.40492454735008
 20
126.6721158414274
 11
130.2340368322424
 21
121.7026829075169
  0
LINE
  8
_1-b_
  6
CONTINUOUS
 62
    7
 10
128.544827023068
 20
121.08094086518162
 11
130.2340368322424
 21
121.7026829075169
  0
LINE
  8
_1-b_
  6
CONTINUOUS
 62
    7
 10
127.85398741026182
 20
122.95783377982477
 11
128.544827023068
 21
121.08094086518162
  0
LINE
  8
_1-b_
  6
CONTINUOUS
 62
    7
 10
115.02014984955659
 20
121.74556422877957
 11
170.71428865999789
 21
142.24496377480997
  0
LINE
  8
_1-b_
  6
CONTINUOUS
 62
    7
 10
171.40512827280406
 20
140.36807086016682
 11
173.09433808197846
 21
140.98981290250211
  0
LINE
  8
_1-b_
  6
CONTINUOUS
 62
    7
 10
170.71428865999789
 20
142.24496377480997
 11
171.40512827280406
 21
140.36807086016682
  0
LINE
  8
_1-b_
  6
CONTINUOUS
 62
    7
 10
115.73643864812078
 20
124.99285311312289
 11
169.93481610272383
 21
144.94171142578125
  0
LINE
  8
_1-b_
  6
CONTINUOUS
 62
    7
 10
114.78758116026184
 20
122.93865719357053
 11
115.20491316511826
 21
121.80481369430954
  0
LINE
  8
_1-b_
  6
CONTINUOUS
 62
    7
 10
157.8804634712838
 20
141.03270659575591
 11
213.57461465371622
 21
161.53210614178633
  0
LINE
  8
_1-b_
  6
CONTINUOUS
 62
    7
 10
214.26544189453125
 20
159.65521322714318
 11
215.95463933171453
 21
160.27695526947846
  0
LINE
  8
_1-b_
  6
CONTINUOUS
 62
    7
 10
213.57461465371622
 20
161.53210614178633
 11
214.26544189453125
 21
159.65521322714318
  0
LINE
  8
_1-b_
  6
CONTINUOUS
 62
    7
 10
158.59675226984797
 20
144.27999548009925
 11
212.79512972445102
 21
164.2288537927576
  0
LINE
  8
_1-b_
  6
CONTINUOUS
 62
    7
 10
157.64789478198904
 20
142.22579956054687
 11
158.06522678684544
 21
141.09195606128591
  0
LINE
  8
_1-b_
  6
CONTINUOUS
 62
    7
 10
200.74077709301099
 20
160.31984896273227
 11
256.43490353146115
 21
180.81924850876268
  0
LINE
  8
_1-b_
  6
CONTINUOUS
 62
    7
 10
257.12575551625844
 20
178.94235559411953
 11
258.81497769742401
 21
179.56409763645482
  0
LINE
  8
_1-b_
  6
CONTINUOUS
 62
    7
 10
256.43490353146115
 20
180.81924850876268
 11
257.12575551625844
 21
178.94235559411953
  0
LINE
  8
_1-b_
  6
CONTINUOUS
 62
    7
 10
201.45706589157518
 20
163.5671378470756
 11
255.65544334617823
 21
183.51599615973396
  0
LINE
  8
_1-b_
  6
CONTINUOUS
 62
    7
 10
200.50820840371622
 20
161.51294192752323
 11
200.92554040857266
 21
160.37909842826227
  0
LINE
  8
_1-b_
  6
CONTINUOUS
 62
    7
 10
257.12575551625844
 20
178.94235559411953
 11
258.81495295344172
 21
179.56409763645482
  0
LINE
  8
_1-b_
  6
CONTINUOUS
 62
    7
 10
256.43492827544344
 20
180.81924850876268
 11
257.12575551625844
 21
178.94235559411953
  0
LINE
  8
_1-b_
  6
CONTINUOUS
 62
    7
 10
255.48433870882602
 20
183.98086135451859
 11
255.65544334617823
 21
183.51599615973396
  0
LINE
  8
_1-b_
  6
CONTINUOUS
 62
    7
 10
256.98582829655828
 20
184.53354294235643
 11
258.81495295344172
 21
179.56409763645482
  0
LINE
  8
_1-b_
  6
CONTINUOUS
 62
    7
 10
255.48433870882602
 20
183.98086135451859
 11
255.65544334617823
 21
183.51599615973396
  0
LINE
  8
_1-b_
  6
CONTINUOUS
 62
    7
 10
212.62402508709883
 20
164.69373135953336
 11
212.79512972445102
 21
164.2288537927576
  0
LINE
  8
_1-b_
  6
CONTINUOUS
 62
    7
 10
214.12551467483109
 20
165.24638820338893
 11
215.95463933171453
 21
160.27695526947846
  0
LINE
  8
_1-b_
  6
CONTINUOUS
 62
    7
 10
169.7636990933805
 20
145.406588992557
 11
169.93481610272383
 21
144.94171142578125
  0
LINE
  8
_1-b_
  6
CONTINUOUS
 62
    7
 10
171.26522579708615
 20
145.95924583641261
 11
173.09433808197846
 21
140.98981290250211
  0
ARC
  8
_1-b_
  6
CONTINUOUS
 62
    7
 10
116.28909549197635
 20
123.49132640941724
 40
1.5999999239638045
 50
110.20680236816406
 51
200.20738220214844
  0
ARC
  8
_1-b_
  6
CONTINUOUS
 62
    7
 10
159.14940911370357
 20
142.77846877639359
 40
1.5999999239638045
 50
110.20680236816406
 51
200.20738220214844
  0
ARC
  8
_1-b_
  6
CONTINUOUS
 62
    7
 10
202.00972273543076
 20
162.06561114336995
 40
1.5999999239638045
 50
110.20680236816406
 51
200.20738220214844
  0
LINE
  8
_1-b_
  6
CONTINUOUS
 62
    7
 10
255.48433870882602
 20
183.98086135451859
 11
256.98582829655828
 21
184.53354294235643
  0
LINE
  8
_1-3_
  6
CONTINUOUS
 62
    7
 10
288.90575776651519
 20
164.41633331790334
 11
288.90575776651519
 21
182.81609858278333
  0
LINE
  8
_1-3_
  6
CONTINUOUS
 62
    7
 10
291.70575776651515
 20
163.8325927971633
 11
291.70575776651515
 21
182.81609858278333
  0
LINE
  8
_1-3_
  6
CONTINUOUS
 62
    7
 10
288.30575776651517
 20
164.16808743468331
 11
288.30575776651517
 21
182.81609858278333
  0
LINE
  8
_1-3_
  6
CONTINUOUS
 62
    7
 10
288.30575776651517
 20
164.16808743468331
 11
288.46177935501521
 21
164.13355291710332
  0
LINE
  8
_1-3_
  6
CONTINUOUS
 62
    7
 10
288.90575502829518
 20
164.41633331790334
 11
288.46177935501521
 21
164.13355291710332
  0
LINE
  8
_1-3_
  6
CONTINUOUS
 62
    7
 10
240.97687678835518
 20
186.79300902652329
 11
241.1330156551152
 21
187.44798817868332
  0
LINE
  8
_1-3_
  6
CONTINUOUS
 62
    7
 10
240.46026826101516
 20
187.2133518623433
 11
240.54937038825517
 21
187.58712193622333
  0
LINE
  8
_1-3_
  6
CONTINUOUS
 62
    7
 10
240.93120160157517
 20
186.79869534076329
 11
240.46026867095517
 21
187.2133517646233
  0
LINE
  8
_1-3_
  6
CONTINUOUS
 62
    7
 10
240.97687678835518
 20
186.79300902652329
 11
240.9312014286152
 21
186.79869406520331
  0
LINE
  8
_1-3_
  6
CONTINUOUS
 62
    7
 10
237.67021765109519
 20
187.58421920738331
 11
237.82566859859517
 21
188.2363126413033
  0
LINE
  8
_1-3_
  6
CONTINUOUS
 62
    7
 10
237.98807213381519
 20
187.16501419906331
 11
237.67021765109519
 21
187.58421920738331
  0
LINE
  8
_1-3_
  6
CONTINUOUS
 62
    7
 10
237.98807213381519
 20
187.16501419906331
 11
240.93119992089518
 21
186.7986942528633
  0
LINE
  8
_1-3_
  6
CONTINUOUS
 62
    7
 10
288.46177935501521
 20
164.13355291710332
 11
291.34859929607512
 21
163.49457125424331
  0
LINE
  8
_1-3_
  6
CONTINUOUS
 62
    7
 10
291.34859673633514
 20
163.49457182082332
 11
291.70575216433519
 21
163.83259397644332
  0
LINE
  8
_1-3_
  6
CONTINUOUS
 62
    7
 10
241.97527482937519
 20
186.66874221136331
 11
243.07619831895519
 21
186.97455429180332
  0
LINE
  8
_1-3_
  6
CONTINUOUS
 62
    7
 10
243.07619831895519
 20
186.97455429180332
 11
243.07849987793517
 21
186.9842089869033
  0
LINE
  8
_1-3_
  6
CONTINUOUS
 62
    7
 10
286.30575776651517
 20
164.92276524946331
 11
286.30575776651517
 21
182.81609858278333
  0
LINE
  8
_1-3_
  6
CONTINUOUS
 62
    7
 10
286.30575776651517
 20
164.92276524946331
 11
287.30575776651517
 21
164.38943191612333
  0
LINE
  8
_1-3_
  6
CONTINUOUS
 62
    7
 10
241.97527482937519
 20
186.66874221136331
 11
240.97687678835518
 21
186.79300902652329
  0
LINE
  8
_1-3_
  6
CONTINUOUS
 62
    7
 10
288.30575776651517
 20
164.16808743468331
 11
287.30575776651517
 21
164.38943191612333
  0
LINE
  8
_1-3_
  6
CONTINUOUS
 62
    7
 10
283.50575776651516
 20
182.81609858278333
 11
283.50575776651516
 21
166.41609858278332
  0
LINE
  8
_1-3_
  6
CONTINUOUS
 62
    7
 10
283.50575776651516
 20
166.41609858278332
 11
286.30575776651517
 21
164.92276524946331
  0
LINE
  8
_1-3_
  6
CONTINUOUS
 62
    7
 10
243.09596593561517
 20
186.9800452964233
 11
243.07849987793517
 21
186.9842089869033
  0
LINE
  8
_1-3_
  6
CONTINUOUS
 62
    7
 10
243.09596593561517
 20
186.9800452964233
 11
243.07619831895519
 21
186.97455429180332
  0
ARC
  8
_1-3_
  6
CONTINUOUS
 62
    7
 10
263.76494422367517
 20
181.58614207270332
 40
18.725897159975712
 50
93.30251234939999
 51
160.56774829860001
  0
ARC
  8
_1-3_
  6
CONTINUOUS
 62
    7
 10
263.90568202857514
 20
179.14567593420333
 40
21.170417991629758
 50
40.378985774100023
 51
93.302280107100017
  0
ARC
  8
_1-3_
  6
CONTINUOUS
 62
    7
 10
268.92705070211514
 20
183.41609858278332
 40
14.578707064398579
 50
0
 51
40.378753531800001
  0
LINE
  8
_1-3_
  6
CONTINUOUS
 62
    7
 10
283.50575776651516
 20
183.41609858278332
 11
283.50575776651516
 21
182.81609858278333
  0
LINE
  8
_1-3_
  6
CONTINUOUS
 62
    7
 10
243.09596593561517
 20
186.9800452964233
 11
246.10575776651518
 21
187.81609858278333
  0
LINE
  8
_1-3_
  6
CONTINUOUS
 62
    7
 10
237.82604248057518
 20
188.23632936806331
 11
238.27610796819519
 21
189.87495775890329
  0
LINE
  8
_1-3_
  6
CONTINUOUS
 62
    7
 10
238.27610796819519
 20
189.87495775890329
 11
238.80395713159518
 21
191.39558904946333
  0
LINE
  8
_1-3_
  6
CONTINUOUS
 62
    7
 10
238.80395713159518
 20
191.39558904946333
 11
239.39231434689518
 21
192.8002449378433
  0
LINE
  8
_1-3_
  6
CONTINUOUS
 62
    7
 10
239.39231434689518
 20
192.8002449378433
 11
240.02542958589518
 21
194.09179877926331
  0
LINE
  8
_1-3_
  6
CONTINUOUS
 62
    7
 10
240.02542958589518
 20
194.09179877926331
 11
240.91463917643517
 21
195.64419966452331
  0
LINE
  8
_1-3_
  6
CONTINUOUS
 62
    7
 10
240.91463917643517
 20
195.64419966452331
 11
241.82777685719518
 21
197.01192714816332
  0
LINE
  8
_1-3_
  6
CONTINUOUS
 62
    7
 10
241.82777685719518
 20
197.01192714816332
 11
242.73833773293518
 21
198.20618418566332
  0
LINE
  8
_1-3_
  6
CONTINUOUS
 62
    7
 10
242.73833773293518
 20
198.20618418566332
 11
243.80175177607518
 21
199.43399211108331
  0
LINE
  8
_1-3_
  6
CONTINUOUS
 62
    7
 10
243.80175177607518
 20
199.43399211108331
 11
244.90877585677518
 21
200.5583525928233
  0
LINE
  8
_1-3_
  6
CONTINUOUS
 62
    7
 10
244.90877585677518
 20
200.5583525928233
 11
246.08885393965519
 21
201.61468222644331
  0
LINE
  8
_1-3_
  6
CONTINUOUS
 62
    7
 10
246.08885393965519
 20
201.61468222644331
 11
247.34020787753516
 21
202.59889842494331
  0
LINE
  8
_1-3_
  6
CONTINUOUS
 62
    7
 10
247.34020787753516
 20
202.59889842494331
 11
248.65577288929518
 21
203.50705472518331
  0
LINE
  8
_1-3_
  6
CONTINUOUS
 62
    7
 10
248.65577288929518
 20
203.50705472518331
 11
250.36629658001519
 21
204.53084586574329
  0
LINE
  8
_1-3_
  6
CONTINUOUS
 62
    7
 10
250.36629658001519
 20
204.53084586574329
 11
252.11052118645517
 21
205.41458974278331
  0
LINE
  8
_1-3_
  6
CONTINUOUS
 62
    7
 10
252.11052118645517
 20
205.41458974278331
 11
253.83498866281516
 21
206.1450426850833
  0
LINE
  8
_1-3_
  6
CONTINUOUS
 62
    7
 10
253.83498866281516
 20
206.1450426850833
 11
255.52776203049518
 21
206.73478899420331
  0
LINE
  8
_1-3_
  6
CONTINUOUS
 62
    7
 10
255.52776203049518
 20
206.73478899420331
 11
257.71836755911522
 21
207.32407584936331
  0
LINE
  8
_1-3_
  6
CONTINUOUS
 62
    7
 10
257.71836755911522
 20
207.32407584936331
 11
259.82305851113517
 21
207.71644736654332
  0
LINE
  8
_1-3_
  6
CONTINUOUS
 62
    7
 10
259.82305851113517
 20
207.71644736654332
 11
261.9846025225952
 21
207.94885718854331
  0
LINE
  8
_1-3_
  6
CONTINUOUS
 62
    7
 10
261.9846025225952
 20
207.94885718854331
 11
264.25132153477517
 21
208.01238864384331
  0
LINE
  8
_1-3_
  6
CONTINUOUS
 62
    7
 10
264.25132153477517
 20
208.01238864384331
 11
266.59552904641521
 21
207.89596658728331
  0
LINE
  8
_1-3_
  6
CONTINUOUS
 62
    7
 10
266.59552904641521
 20
207.89596658728331
 11
268.99584704207518
 21
207.58705445292333
  0
LINE
  8
_1-3_
  6
CONTINUOUS
 62
    7
 10
268.99584704207518
 20
207.58705445292333
 11
270.45706270767516
 21
207.30267036700332
  0
LINE
  8
_1-3_
  6
CONTINUOUS
 62
    7
 10
270.45706270767516
 20
207.30267036700332
 11
271.93591547993515
 21
206.93813691464331
  0
LINE
  8
_1-3_
  6
CONTINUOUS
 62
    7
 10
271.93591547993515
 20
206.93813691464331
 11
273.5147872209352
 21
206.46050755142332
  0
LINE
  8
_1-3_
  6
CONTINUOUS
 62
    7
 10
273.5147872209352
 20
206.46050755142332
 11
275.21179605185517
 21
205.84012051880333
  0
LINE
  8
_1-3_
  6
CONTINUOUS
 62
    7
 10
275.21179605185517
 20
205.84012051880333
 11
277.01293290599517
 21
205.0521666663833
  0
LINE
  8
_1-3_
  6
CONTINUOUS
 62
    7
 10
277.01293290599517
 20
205.0521666663833
 11
278.58092156777514
 21
204.24865965474331
  0
LINE
  8
_1-3_
  6
CONTINUOUS
 62
    7
 10
278.58092156777514
 20
204.24865965474331
 11
280.19690470173521
 21
203.29477376538333
  0
LINE
  8
_1-3_
  6
CONTINUOUS
 62
    7
 10
280.19690470173521
 20
203.29477376538333
 11
281.84642783657523
 21
202.17416934076331
  0
LINE
  8
_1-3_
  6
CONTINUOUS
 62
    7
 10
281.84642783657523
 20
202.17416934076331
 11
283.08278688879523
 21
201.21195995764333
  0
LINE
  8
_1-3_
  6
CONTINUOUS
 62
    7
 10
283.08278688879523
 20
201.21195995764333
 11
284.28975903827518
 21
200.13595460630333
  0
LINE
  8
_1-3_
  6
CONTINUOUS
 62
    7
 10
284.28975903827518
 20
200.13595460630333
 11
285.45631479249516
 21
198.94264964778333
  0
LINE
  8
_1-3_
  6
CONTINUOUS
 62
    7
 10
285.45631479249516
 20
198.94264964778333
 11
286.56988509209521
 21
197.62919199538331
  0
LINE
  8
_1-3_
  6
CONTINUOUS
 62
    7
 10
286.56988509209521
 20
197.62919199538331
 11
287.61682777605517
 21
196.19364260744331
  0
LINE
  8
_1-3_
  6
CONTINUOUS
 62
    7
 10
287.61682777605517
 20
196.19364260744331
 11
288.58253166135512
 21
194.63513270072332
  0
LINE
  8
_1-3_
  6
CONTINUOUS
 62
    7
 10
288.58253166135512
 20
194.63513270072332
 11
289.45128358547515
 21
192.95396315842333
  0
LINE
  8
_1-3_
  6
CONTINUOUS
 62
    7
 10
289.45128358547515
 20
192.95396315842333
 11
290.2062018433752
 21
191.15172408360331
  0
LINE
  8
_1-3_
  6
CONTINUOUS
 62
    7
 10
290.2062018433752
 20
191.15172408360331
 11
290.82917279201513
 21
189.23141959792332
  0
LINE
  8
_1-3_
  6
CONTINUOUS
 62
    7
 10
290.82917279201513
 20
189.23141959792332
 11
291.30078541985517
 21
187.19759666198331
  0
LINE
  8
_1-3_
  6
CONTINUOUS
 62
    7
 10
291.30078541985517
 20
187.19759666198331
 11
291.60026388055519
 21
185.05647792132331
  0
LINE
  8
_1-3_
  6
CONTINUOUS
 62
    7
 10
291.60026388055519
 20
185.05647792132331
 11
291.70539799195512
 21
182.81609858278333
  0
LINE
  8
_1-3_
  6
CONTINUOUS
 62
    7
 10
291.70575776651515
 20
163.83259340986331
 11
291.65708839761521
 21
163.84274033794333
  0
LINE
  8
_1-3_
  6
CONTINUOUS
 62
    7
 10
291.65708839761521
 20
163.84274033794333
 11
291.51205569915521
 21
163.8729760234433
  0
LINE
  8
_1-3_
  6
CONTINUOUS
 62
    7
 10
291.51205569915521
 20
163.8729760234433
 11
291.27356617859516
 21
163.92269547316329
  0
LINE
  8
_1-3_
  6
CONTINUOUS
 62
    7
 10
291.27356617859516
 20
163.92269547316329
 11
290.94639929015523
 21
163.99090244968332
  0
LINE
  8
_1-3_
  6
CONTINUOUS
 62
    7
 10
290.94639929015523
 20
163.99090244968332
 11
290.53711153445522
 21
164.07623014478332
  0
LINE
  8
_1-3_
  6
CONTINUOUS
 62
    7
 10
290.53711153445522
 20
164.07623014478332
 11
290.05390509119513
 21
164.17696838404333
  0
LINE
  8
_1-3_
  6
CONTINUOUS
 62
    7
 10
290.05390509119513
 20
164.17696838404333
 11
289.50646360835515
 21
164.29109815276331
  0
LINE
  8
_1-3_
  6
CONTINUOUS
 62
    7
 10
289.50646360835515
 20
164.29109815276331
 11
288.9057578090152
 21
164.4163318738633
  0
LINE
  8
_1-3_
  6
CONTINUOUS
 62
    7
 10
241.13301565511517
 20
187.44798817868332
 11
241.64864890067517
 21
189.2359987490033
  0
LINE
  8
_1-3_
  6
CONTINUOUS
 62
    7
 10
241.64864890067517
 20
189.2359987490033
 11
242.3244240376952
 21
190.95752043320331
  0
LINE
  8
_1-3_
  6
CONTINUOUS
 62
    7
 10
242.3244240376952
 20
190.95752043320331
 11
243.15375847109519
 21
192.6025309578433
  0
LINE
  8
_1-3_
  6
CONTINUOUS
 62
    7
 10
243.15375847109519
 20
192.6025309578433
 11
244.13006960587518
 21
194.16100804950332
  0
LINE
  8
_1-3_
  6
CONTINUOUS
 62
    7
 10
244.13006960587518
 20
194.16100804950332
 11
245.24677484699518
 21
195.62292943472329
  0
LINE
  8
_1-3_
  6
CONTINUOUS
 62
    7
 10
245.24677484699518
 20
195.62292943472329
 11
246.47382567107519
 21
196.95506294368332
  0
LINE
  8
_1-3_
  6
CONTINUOUS
 62
    7
 10
246.47382567107519
 20
196.95506294368332
 11
247.82371547775517
 21
198.17489594738331
  0
LINE
  8
_1-3_
  6
CONTINUOUS
 62
    7
 10
247.82371547775517
 20
198.17489594738331
 11
249.28832305077518
 21
199.27367443898331
  0
LINE
  8
_1-3_
  6
CONTINUOUS
 62
    7
 10
249.28832305077518
 20
199.27367443898331
 11
250.83034791979517
 21
200.25585523264331
  0
LINE
  8
_1-3_
  6
CONTINUOUS
 62
    7
 10
250.83034791979517
 20
200.25585523264331
 11
252.92059925089518
 21
201.35961326348331
  0
LINE
  8
_1-3_
  6
CONTINUOUS
 62
    7
 10
252.92059925089518
 20
201.35961326348331
 11
255.09676752885517
 21
202.26503277532331
  0
LINE
  8
_1-3_
  6
CONTINUOUS
 62
    7
 10
255.09676752885517
 20
202.26503277532331
 11
257.34460012233518
 21
202.96756525296331
  0
LINE
  8
_1-3_
  6
CONTINUOUS
 62
    7
 10
257.34460012233518
 20
202.96756525296331
 11
259.64955981763518
 21
203.4628112358433
  0
LINE
  8
_1-3_
  6
CONTINUOUS
 62
    7
 10
259.64955981763518
 20
203.4628112358433
 11
261.99809383525519
 21
203.74585148572331
  0
LINE
  8
_1-3_
  6
CONTINUOUS
 62
    7
 10
261.99809383525519
 20
203.74585148572331
 11
264.37571386001514
 21
203.81219471586331
  0
LINE
  8
_1-3_
  6
CONTINUOUS
 62
    7
 10
264.37571386001514
 20
203.81219471586331
 11
266.74431508129521
 21
203.67041207124331
  0
LINE
  8
_1-3_
  6
CONTINUOUS
 62
    7
 10
266.74431508129521
 20
203.67041207124331
 11
268.79097020311519
 21
203.38152480376331
  0
LINE
  8
_1-3_
  6
CONTINUOUS
 62
    7
 10
268.79097020311519
 20
203.38152480376331
 11
270.80483149391523
 21
202.94179854782331
  0
LINE
  8
_1-3_
  6
CONTINUOUS
 62
    7
 10
270.80483149391523
 20
202.94179854782331
 11
272.77765606477521
 21
202.35409351152333
  0
LINE
  8
_1-3_
  6
CONTINUOUS
 62
    7
 10
272.77765606477521
 20
202.35409351152333
 11
274.70120102673513
 21
201.6212699030433
  0
LINE
  8
_1-3_
  6
CONTINUOUS
 62
    7
 10
274.70120102673513
 20
201.6212699030433
 11
276.56722349085521
 21
200.74618793052332
  0
LINE
  8
_1-3_
  6
CONTINUOUS
 62
    7
 10
276.56722349085521
 20
200.74618793052332
 11
278.36748056821523
 21
199.73170780212331
  0
LINE
  8
_1-3_
  6
CONTINUOUS
 62
    7
 10
278.36748056821523
 20
199.73170780212331
 11
280.09528653181519
 21
198.5812208666033
  0
LINE
  8
_1-3_
  6
CONTINUOUS
 62
    7
 10
280.09528653181519
 20
198.5812208666033
 11
281.72979355223515
 21
197.29301470044334
  0
LINE
  8
_1-3_
  6
CONTINUOUS
 62
    7
 10
281.72979355223515
 20
197.29301470044334
 11
283.06199903797517
 21
196.01100011974333
  0
LINE
  8
_1-3_
  6
CONTINUOUS
 62
    7
 10
283.06199903797517
 20
196.01100011974333
 11
284.25690141743519
 21
194.61717986000332
  0
LINE
  8
_1-3_
  6
CONTINUOUS
 62
    7
 10
284.25690141743519
 20
194.61717986000332
 11
285.30877032333512
 21
193.12289428954332
  0
LINE
  8
_1-3_
  6
CONTINUOUS
 62
    7
 10
285.30877032333512
 20
193.12289428954332
 11
286.21205230183523
 21
191.53948404242331
  0
LINE
  8
_1-3_
  6
CONTINUOUS
 62
    7
 10
286.21205230183523
 20
191.53948404242331
 11
286.96119409895516
 21
189.87828975302332
  0
LINE
  8
_1-3_
  6
CONTINUOUS
 62
    7
 10
286.96119409895516
 20
189.87828975302332
 11
287.54154914497519
 21
188.18201967348332
  0
LINE
  8
_1-3_
  6
CONTINUOUS
 62
    7
 10
287.54154914497519
 20
188.18201967348332
 11
287.96260213091523
 21
186.43240186220331
  0
LINE
  8
_1-3_
  6
CONTINUOUS
 62
    7
 10
287.96260213091523
 20
186.43240186220331
 11
288.21909201777521
 21
184.64018020376332
  0
LINE
  8
_1-3_
  6
CONTINUOUS
 62
    7
 10
288.21909201777521
 20
184.64018020376332
 11
288.30575776651517
 21
182.81609858278333
  0
LINE
  8
_1-3_
  6
CONTINUOUS
 62
    7
 10
240.54937038825517
 20
187.58712193622333
 11
241.09027409547517
 21
189.39918459542329
  0
LINE
  8
_1-3_
  6
CONTINUOUS
 62
    7
 10
241.09027409547517
 20
189.39918459542329
 11
241.79254056145518
 21
191.1443135886833
  0
LINE
  8
_1-3_
  6
CONTINUOUS
 62
    7
 10
241.79254056145518
 20
191.1443135886833
 11
242.64955521281519
 21
192.81250200134332
  0
LINE
  8
_1-3_
  6
CONTINUOUS
 62
    7
 10
242.64955521281519
 20
192.81250200134332
 11
243.65470347613515
 21
194.39374291880333
  0
LINE
  8
_1-3_
  6
CONTINUOUS
 62
    7
 10
243.65470347613515
 20
194.39374291880333
 11
244.80137077799517
 21
195.87802942642332
  0
LINE
  8
_1-3_
  6
CONTINUOUS
 62
    7
 10
244.80137077799517
 20
195.87802942642332
 11
246.05891266381516
 21
197.2317554540233
  0
LINE
  8
_1-3_
  6
CONTINUOUS
 62
    7
 10
246.05891266381516
 20
197.2317554540233
 11
247.44031750483518
 21
198.47282575102332
  0
LINE
  8
_1-3_
  6
CONTINUOUS
 62
    7
 10
247.44031750483518
 20
198.47282575102332
 11
248.93763316073517
 21
199.59243221016331
  0
LINE
  8
_1-3_
  6
CONTINUOUS
 62
    7
 10
248.93763316073517
 20
199.59243221016331
 11
250.51594863887519
 21
200.59380052688331
  0
LINE
  8
_1-3_
  6
CONTINUOUS
 62
    7
 10
250.51594863887519
 20
200.59380052688331
 11
252.65636296089517
 21
201.71885257044329
  0
LINE
  8
_1-3_
  6
CONTINUOUS
 62
    7
 10
252.65636296089517
 20
201.71885257044329
 11
254.88490317625516
 21
202.64127855558331
  0
LINE
  8
_1-3_
  6
CONTINUOUS
 62
    7
 10
254.88490317625516
 20
202.64127855558331
 11
257.18693021431517
 21
203.35643506038332
  0
LINE
  8
_1-3_
  6
CONTINUOUS
 62
    7
 10
257.18693021431517
 20
203.35643506038332
 11
259.54748504591521
 21
203.85982205728331
  0
LINE
  8
_1-3_
  6
CONTINUOUS
 62
    7
 10
259.54748504591521
 20
203.85982205728331
 11
261.95250472787518
 21
204.14638794154331
  0
LINE
  8
_1-3_
  6
CONTINUOUS
 62
    7
 10
261.95250472787518
 20
204.14638794154331
 11
264.3869850578152
 21
204.21156001432331
  0
LINE
  8
_1-3_
  6
CONTINUOUS
 62
    7
 10
264.3869850578152
 20
204.21156001432331
 11
266.81196248055517
 21
204.06430753264331
  0
LINE
  8
_1-3_
  6
CONTINUOUS
 62
    7
 10
266.81196248055517
 20
204.06430753264331
 11
268.90713206525515
 21
203.76730161984332
  0
LINE
  8
_1-3_
  6
CONTINUOUS
 62
    7
 10
268.90713206525515
 20
203.76730161984332
 11
270.96851923841518
 21
203.31640559346332
  0
LINE
  8
_1-3_
  6
CONTINUOUS
 62
    7
 10
270.96851923841518
 20
203.31640559346332
 11
272.98766351179518
 21
202.71453604564331
  0
LINE
  8
_1-3_
  6
CONTINUOUS
 62
    7
 10
272.98766351179518
 20
202.71453604564331
 11
274.95610439719519
 21
201.96460956852331
  0
LINE
  8
_1-3_
  6
CONTINUOUS
 62
    7
 10
274.95610439719519
 20
201.96460956852331
 11
276.86538140641517
 21
201.06954275426332
  0
LINE
  8
_1-3_
  6
CONTINUOUS
 62
    7
 10
276.86538140641517
 20
201.06954275426332
 11
278.70703405121515
 21
200.03225219498333
  0
LINE
  8
_1-3_
  6
CONTINUOUS
 62
    7
 10
278.70703405121515
 20
200.03225219498333
 11
280.4735472997952
 21
198.85604888304331
  0
LINE
  8
_1-3_
  6
CONTINUOUS
 62
    7
 10
280.4735472997952
 20
198.85604888304331
 11
282.1404516616152
 21
197.53914818052331
  0
LINE
  8
_1-3_
  6
CONTINUOUS
 62
    7
 10
282.1404516616152
 20
197.53914818052331
 11
283.49958878577513
 21
196.23079955970331
  0
LINE
  8
_1-3_
  6
CONTINUOUS
 62
    7
 10
283.49958878577513
 20
196.23079955970331
 11
284.72000660023514
 21
194.81031645894333
  0
LINE
  8
_1-3_
  6
CONTINUOUS
 62
    7
 10
284.72000660023514
 20
194.81031645894333
 11
285.79596880483518
 21
193.28904590982333
  0
LINE
  8
_1-3_
  6
CONTINUOUS
 62
    7
 10
285.79596880483518
 20
193.28904590982333
 11
286.72190667749521
 21
191.67833677862333
  0
LINE
  8
_1-3_
  6
CONTINUOUS
 62
    7
 10
286.72190667749521
 20
191.67833677862333
 11
287.49225168545513
 21
189.98953793364331
  0
LINE
  8
_1-3_
  6
CONTINUOUS
 62
    7
 10
287.49225168545513
 20
189.98953793364331
 11
288.09200252633514
 21
188.2658666715233
  0
LINE
  8
_1-3_
  6
CONTINUOUS
 62
    7
 10
288.09200252633514
 20
188.2658666715233
 11
288.53102082935516
 21
186.48856856880334
  0
LINE
  8
_1-3_
  6
CONTINUOUS
 62
    7
 10
288.53102082935516
 20
186.48856856880334
 11
288.80403108069515
 21
184.66839531078332
  0
LINE
  8
_1-3_
  6
CONTINUOUS
 62
    7
 10
288.80403108069515
 20
184.66839531078332
 11
288.90575776651519
 21
182.81609858278333
  0
LINE
  8
_1-3_
  6
CONTINUOUS
 62
    7
 10
240.46026821385519
 20
187.2133516722233
 11
239.86169710515517
 21
187.29291691126332
  0
LINE
  8
_1-3_
  6
CONTINUOUS
 62
    7
 10
239.86169710515517
 20
187.29291691126332
 11
239.31620087499519
 21
187.3654272423833
  0
LINE
  8
_1-3_
  6
CONTINUOUS
 62
    7
 10
239.31620087499519
 20
187.3654272423833
 11
238.83471144969519
 21
187.4294294481833
  0
LINE
  8
_1-3_
  6
CONTINUOUS
 62
    7
 10
238.83471144969519
 20
187.4294294481833
 11
238.42687799455518
 21
187.48364081722332
  0
LINE
  8
_1-3_
  6
CONTINUOUS
 62
    7
 10
238.42687799455518
 20
187.48364081722332
 11
238.09783377143518
 21
187.52738868018329
  0
LINE
  8
_1-3_
  6
CONTINUOUS
 62
    7
 10
238.09783377143518
 20
187.52738868018329
 11
237.86323145661518
 21
187.55856325366329
  0
LINE
  8
_1-3_
  6
CONTINUOUS
 62
    7
 10
237.86323145661518
 20
187.55856325366329
 11
237.7183775892552
 21
187.5778261957833
  0
LINE
  8
_1-3_
  6
CONTINUOUS
 62
    7
 10
237.7183775892552
 20
187.5778261957833
 11
237.67021765109519
 21
187.58421920738331
  0
LINE
  8
_1-3_
  6
CONTINUOUS
 62
    7
 10
243.07849987793517
 20
186.9842089869033
 11
243.61523761319518
 21
188.80843021832331
  0
LINE
  8
_1-3_
  6
CONTINUOUS
 62
    7
 10
243.61523761319518
 20
188.80843021832331
 11
244.33390963481517
 21
190.55603674798331
  0
LINE
  8
_1-3_
  6
CONTINUOUS
 62
    7
 10
244.33390963481517
 20
190.55603674798331
 11
245.22616297119518
 21
192.21422590060331
  0
LINE
  8
_1-3_
  6
CONTINUOUS
 62
    7
 10
245.22616297119518
 20
192.21422590060331
 11
246.28364465077519
 21
193.7701950009633
  0
LINE
  8
_1-3_
  6
CONTINUOUS
 62
    7
 10
246.28364465077519
 20
193.7701950009633
 11
247.49800170199518
 21
195.21114137380331
  0
LINE
  8
_1-3_
  6
CONTINUOUS
 62
    7
 10
247.49800170199518
 20
195.21114137380331
 11
248.86088115325518
 21
196.52426234390333
  0
LINE
  8
_1-3_
  6
CONTINUOUS
 62
    7
 10
248.86088115325518
 20
196.52426234390333
 11
250.36170986619518
 21
197.6976094401233
  0
LINE
  8
_1-3_
  6
CONTINUOUS
 62
    7
 10
250.36170986619518
 20
197.6976094401233
 11
251.95661763021516
 21
198.73366431518332
  0
LINE
  8
_1-3_
  6
CONTINUOUS
 62
    7
 10
251.95661763021516
 20
198.73366431518332
 11
253.86485816183517
 21
199.75097871464331
  0
LINE
  8
_1-3_
  6
CONTINUOUS
 62
    7
 10
253.86485816183517
 20
199.75097871464331
 11
255.85238430581518
 21
200.58599321528331
  0
LINE
  8
_1-3_
  6
CONTINUOUS
 62
    7
 10
255.85238430581518
 20
200.58599321528331
 11
257.90677612227518
 21
201.23407996012332
  0
LINE
  8
_1-3_
  6
CONTINUOUS
 62
    7
 10
257.90677612227518
 20
201.23407996012332
 11
260.01557189591517
 21
201.69062636294331
  0
LINE
  8
_1-3_
  6
CONTINUOUS
 62
    7
 10
260.01557189591517
 20
201.69062636294331
 11
262.16536527683519
 21
201.95136222980332
  0
LINE
  8
_1-3_
  6
CONTINUOUS
 62
    7
 10
262.16536527683519
 20
201.95136222980332
 11
264.34182561717518
 21
202.0123533700833
  0
LINE
  8
_1-3_
  6
CONTINUOUS
 62
    7
 10
264.34182561717518
 20
202.0123533700833
 11
266.51008846145521
 21
201.88196967602329
  0
LINE
  8
_1-3_
  6
CONTINUOUS
 62
    7
 10
266.51008846145521
 20
201.88196967602329
 11
268.64830250053512
 21
201.56776623126333
  0
LINE
  8
_1-3_
  6
CONTINUOUS
 62
    7
 10
268.64830250053512
 20
201.56776623126333
 11
270.74521168461513
 21
201.0737862118433
  0
LINE
  8
_1-3_
  6
CONTINUOUS
 62
    7
 10
270.74521168461513
 20
201.0737862118433
 11
272.78957478321513
 21
200.40406783778332
  0
LINE
  8
_1-3_
  6
CONTINUOUS
 62
    7
 10
272.78957478321513
 20
200.40406783778332
 11
274.77015056573521
 21
199.56264932904332
  0
LINE
  8
_1-3_
  6
CONTINUOUS
 62
    7
 10
274.77015056573521
 20
199.56264932904332
 11
276.67570078483516
 21
198.55356976290332
  0
LINE
  8
_1-3_
  6
CONTINUOUS
 62
    7
 10
276.67570078483516
 20
198.55356976290332
 11
278.49573309895516
 21
197.38108256682332
  0
LINE
  8
_1-3_
  6
CONTINUOUS
 62
    7
 10
278.49573309895516
 20
197.38108256682332
 11
280.21832961953521
 21
196.04884006260332
  0
LINE
  8
_1-3_
  6
CONTINUOUS
 62
    7
 10
280.21832961953521
 20
196.04884006260332
 11
281.58768433065518
 21
194.74009256980332
  0
LINE
  8
_1-3_
  6
CONTINUOUS
 62
    7
 10
281.58768433065518
 20
194.74009256980332
 11
282.79720074313519
 21
193.30297649536331
  0
LINE
  8
_1-3_
  6
CONTINUOUS
 62
    7
 10
282.79720074313519
 20
193.30297649536331
 11
283.83997786979512
 21
191.75239928274331
  0
LINE
  8
_1-3_
  6
CONTINUOUS
 62
    7
 10
283.83997786979512
 20
191.75239928274331
 11
284.7089173131352
 21
190.10315049882331
  0
LINE
  8
_1-3_
  6
CONTINUOUS
 62
    7
 10
284.7089173131352
 20
190.10315049882331
 11
285.3969920788752
 21
188.37006310398331
  0
LINE
  8
_1-3_
  6
CONTINUOUS
 62
    7
 10
285.3969920788752
 20
188.37006310398331
 11
285.89717517271515
 21
186.56797005858331
  0
LINE
  8
_1-3_
  6
CONTINUOUS
 62
    7
 10
285.89717517271515
 20
186.56797005858331
 11
286.20243960031519
 21
184.71170432298334
  0
LINE
  8
_1-3_
  6
CONTINUOUS
 62
    7
 10
286.20243960031519
 20
184.71170432298334
 11
286.30575776651517
 21
182.81609858278333
  0
LINE
  8
_1-b_
  6
CONTINUOUS
 62
    7
 10
97.836938435940098
 20
111.90942737189549
 11
127.85398741026182
 21
122.95783377982477
  0
LINE
  8
_1-b_
  6
CONTINUOUS
 62
    7
 10
97.836938435940098
 20
114.89307180655234
 11
126.88682225031592
 21
125.58549272903922
  0
LINE
  8
_1-c_
  6
CONTINUOUS
 62
    7
 10
112.71569329339106
 20
128.56772757865289
 11
97.836938435940098
 21
123.79667840521056
  0
LINE
  8
_1-6_
  6
CONTINUOUS
 62
    7
 10
261.17658429788275
 20
194.01566570747849
 11
261.17658429788275
 21
200.01566075868206
  0
LINE
  8
_1-6_
  6
CONTINUOUS
 62
    7
 10
261.17658429788275
 20
200.01566075868206
 11
267.1765793490863
 21
200.01566075868206
  0
LINE
  8
_1-6_
  6
CONTINUOUS
 62
    7
 10
267.1765793490863
 20
200.01566075868206
 11
267.1765793490863
 21
194.01566570747849
  0
LINE
  8
_1-6_
  6
CONTINUOUS
 62
    7
 10
267.1765793490863
 20
194.01566570747849
 11
261.17658429788275
 21
194.01566570747849
  0
LINE
  8
_1-6_
  6
CONTINUOUS
 62
    7
 10
261.17658429788275
 20
200.01566075868206
 11
267.1765793490863
 21
194.01566570747849
  0
LINE
  8
_1-6_
  6
CONTINUOUS
 62
    7
 10
267.1765793490863
 20
200.01566075868206
 11
261.17658429788275
 21
194.01566570747849
  0
LINE
  8
_1-6_
  6
DASHED1
 62
    7
 10
260.57657984396593
 20
196.61566438779946
 11
267.77658380300306
 21
196.61566438779946
  0
LINE
  8
_1-6_
  6
DASHED1
 62
    7
 10
260.57657984396593
 20
197.41566207836109
 11
267.77658380300306
 21
197.41566207836109
  0
LINE
  8
_1-6_
  6
DASHED1
 62
    7
 10
263.66824145186285
 20
197.52399123271076
 11
264.17658182348453
 21
196.11566273820063
  0
LINE
  8
_1-6_
  6
DASHED1
 62
    7
 10
264.17658182348453
 20
196.11566273820063
 11
264.67658347308333
 21
197.51565251068797
  0
LINE
  8
_1-6_
  6
DASHED1
 62
    7
 10
264.67658347308333
 20
203.96665612660854
 11
264.67658347308333
 21
197.51565251068797
  0
LINE
  8
_1-6_
  6
DASHED1
 62
    7
 10
263.67658017388567
 20
203.96665612660854
 11
263.67658017388567
 21
197.52399123271076
  0
LINE
  8
_1-6_
  6
DASHED1
 62
    7
 10
263.67658017388567
 20
197.52399123271076
 11
264.68492219510614
 21
197.52399123271076
  0
LINE
  8
_1-6_
  6
CONTINUOUS
 62
    7
 10
264.04974417040171
 20
204.91494450287547
 11
264.31623685937979
 21
204.91494450287547
  0
LINE
  8
_1-6_
  6
CONTINUOUS
 62
    7
 10
263.17657852428687
 20
204.38193438093708
 11
265.17658512268213
 21
204.38193438093708
  0
LINE
  8
_1-6_
  6
CONTINUOUS
 62
    7
 10
263.17657852428687
 20
203.9337961181626
 11
263.17657852428687
 21
204.38193438093708
  0
LINE
  8
_1-6_
  6
CONTINUOUS
 62
    7
 10
265.17658512268213
 20
203.9337961181626
 11
265.17658512268213
 21
204.38193438093708
  0
ARC
  8
_1-6_
  6
CONTINUOUS
 62
    7
 10
264.17658182348453
 20
203.72864376121584
 40
1.1944762113932017
 50
33.155624389648445
 51
146.84437561035156
  0
TEXT
  8
_1-4_
 62
    7
 10
39.721904445338907
 20
15.395235628695104
 40
2.5
 41
1
 50
0
  1
片流れ　　1
  0
LINE
  8
_1-8_
  6
CONTINUOUS
 62
    7
 10
289.31780366056574
 20
189.73128119800333
 11
298.63840817814616
 21
224.51625081486958
  0
LINE
  8
_1-8_
  6
CONTINUOUS
 62
    7
 10
298.63840817814616
 20
224.51625081486958
 11
303.29450915141433
 21
224.51625081486958
  0
LINE
  8
_1-8_
  6
CONTINUOUS
 62
    7
 10
264.48185316139768
 20
204.78899750415974
 11
275.80624631150573
 21
247.05220810524796
  0
LINE
  8
_1-8_
  6
CONTINUOUS
 62
    7
 10
265.25985336938436
 20
197.78699563227954
 11
275.69922115269617
 21
236.74724659849687
  0
LINE
  8
_1-8_
  6
CONTINUOUS
 62
    7
 10
275.80624631150573
 20
247.05220810524796
 11
283.80624631150573
 21
247.05220810524796
  0
LINE
  8
_1-8_
  6
CONTINUOUS
 62
    7
 10
275.69922115269617
 20
236.74724659849687
 11
283.69922115269617
 21
236.74724659849687
  0
LINE
  8
_1-8_
  6
CONTINUOUS
 62
    7
 10
277.15717486771473
 20
229.67553542575257
 11
285.15717486771473
 21
229.67553542575257
  0
TEXT
  8
_1-b_
 62
    7
 10
285.06200603161398
 20
246.28780158069884
 40
2.5
 41
1
 50
0
  1
パッキン付きステンレスネジ
  0
TEXT
  8
_1-b_
 62
    7
 10
284.64161293677205
 20
235.14738456738769
 40
2.5
 41
1
 50
0
  1
棟補強芯材40ｘ40
  0
TEXT
  8
_1-b_
 62
    7
 10
285.4823991264559
 20
228.4210950499168
 40
2.5
 41
1
 50
0
  1
棟補強金具
  0
TEXT
  8
_1-8_
 62
    7
 10
305.04159733777038
 20
223.27537437603993
 40
2.5
 41
1
 50
0
  1
７寸片流れ　冠瓦
  0
LINE
  8
_1-6_
  6
CONTINUOUS
 62
    7
 10
267.57657934908627
 20
193.61566570747848
 11
260.77658429788272
 21
193.61566570747848
  0
LINE
  8
_1-6_
  6
CONTINUOUS
 62
    7
 10
260.77658429788272
 20
198.59985958152834
 11
261.19521651652713
 21
198.59985958152834
  0
LINE
  8
_1-6_
  6
CONTINUOUS
 62
    7
 10
267.1765793490863
 20
198.59985958152834
 11
267.57657934908627
 21
198.59985958152834
  0
LINE
  8
_1-6_
  6
CONTINUOUS
 62
    7
 10
267.57657934908627
 20
198.59985958152834
 11
267.57657934908627
 21
193.60810757561617
  0
LINE
  8
_1-6_
  6
CONTINUOUS
 62
    7
 10
260.77658429788272
 20
193.60810757561617
 11
260.77658429788272
 21
198.59985958152834
  0
LINE
  8
_1-6_
  6
CONTINUOUS
 62
    7
 10
260.77658429788272
 20
197.41566207836109
 11
260.77658429788272
 21
196.61566438779946
  0
LINE
  8
_1-6_
  6
CONTINUOUS
 62
    7
 10
260.57657984396593
 20
197.41566207836109
 11
260.57657984396593
 21
196.61566438779946
  0
LINE
  8
_1-6_
  6
CONTINUOUS
 62
    7
 10
267.77658380300306
 20
197.41566207836109
 11
267.77658380300306
 21
196.61566438779946
  0
LINE
  8
_1-6_
  6
CONTINUOUS
 62
    7
 10
275.47959650582362
 20
185.42727635876841
 11
275.35648707535108
 21
185.70085279804766
  0
LINE
  8
_1-6_
  6
CONTINUOUS
 62
    7
 10
246.19432392588544
 20
172.57787588367503
 11
246.31743335635801
 21
172.30429944439578
  0
LINE
  8
_1-6_
  6
CONTINUOUS
 62
    7
 10
246.31743335635801
 20
172.30429944439578
 11
265.19432392588544
 21
180.79890246439109
  0
LINE
  8
_1-6_
  6
CONTINUOUS
 62
    7
 10
264.99432392588545
 20
181.36683592858432
 11
263.19432392588544
 21
181.36683592858432
  0
LINE
  8
_1-6_
  6
CONTINUOUS
 62
    7
 10
263.49432392588545
 20
181.36683592858432
 11
263.49432392588545
 21
180.0339022605279
  0
LINE
  8
_1-6_
  6
CONTINUOUS
 62
    7
 10
246.19432392588544
 20
172.57787588367503
 11
263.19432392588544
 21
180.22787792230716
  0
LINE
  8
_1-6_
  6
CONTINUOUS
 62
    7
 10
265.19432392588544
 20
181.12787816214623
 11
275.35648707535108
 21
185.70085279804766
  0
ARC
  8
_1-9_
  6
CONTINUOUS
 62
    7
 10
236.01746630442551
 20
189.14057029001088
 40
16.702701649012589
 50
333.97592715141752
 51
30.818132377298269
  0
ARC
  8
_1-9_
  6
CONTINUOUS
 62
    1
 10
236.01746630442551
 20
189.14057029001088
 40
16.702701649012589
 50
333.97592715141752
 51
30.818132377298269
  0
LINE
  8
_1-6_
  6
CONTINUOUS
 62
    7
 10
263.19432392588544
 20
193.61566570747848
 11
263.19432392588544
 21
180.22787792230716
  0
LINE
  8
_1-6_
  6
CONTINUOUS
 62
    7
 10
264.99432392588545
 20
193.61566570747848
 11
264.99432392588545
 21
180.7089024404072
  0
LINE
  8
_1-6_
  6
CONTINUOUS
 62
    7
 10
265.19432392588544
 20
193.61566570747848
 11
265.19432392588544
 21
181.12787816214623
  0
LINE
  8
_1-8_
  6
CONTINUOUS
 62
    7
 10
267.57657934908627
 20
193.92026618346452
 11
277.15717486771473
 21
229.67553542575257
  0
LINE
  8
_1-b_
  6
CONTINUOUS
 62
    7
 10
254.66994492706931
 20
190.82550268390767
 11
259.12379242135597
 21
178.72509638278862
  0
SOLID
  8
_1-9_
  6
CONTINUOUS
 62
   30
 10
251.02667744436221
 20
181.81228103993843
 11
255.65544334617823
 21
183.51599615973396
 12
255.48433870882602
 22
183.98086135451859
 13
255.48433870882602
 23
183.98086135451859
  0
SOLID
  8
_1-9_
  6
CONTINUOUS
 62
   30
 10
255.48433870882602
 20
183.98086135451859
 11
256.98582829655828
 21
184.53354294235643
 12
263.19432392588544
 22
193.61566570747848
 13
263.19432392588544
 23
193.61566570747848
  0
SOLID
  8
_1-9_
  6
CONTINUOUS
 62
   30
 10
255.48433870882602
 20
183.98086135451859
 11
263.19432392588544
 21
193.61566570747848
 12
260.77658429788272
 22
193.60810757561617
 13
260.77658429788272
 23
193.60810757561617
  0
SOLID
  8
_1-9_
  6
CONTINUOUS
 62
   30
 10
255.48433870882602
 20
183.98086135451859
 11
260.77658429788272
 21
193.60810757561617
 12
254.99255752668785
 22
189.93487684368711
 13
254.99255752668785
 23
189.93487684368711
  0
SOLID
  8
_1-9_
  6
CONTINUOUS
 62
   30
 10
255.48433870882602
 20
183.98086135451859
 11
254.99255752668785
 21
189.93487684368711
 12
251.02667744436221
 22
181.81228103993843
 13
251.02667744436221
 23
181.81228103993843
  0
SOLID
  8
_1-9_
  6
CONTINUOUS
 62
   30
 10
256.98582829655828
 20
184.53354294235643
 11
259.12379242135597
 21
178.72509638278865
 12
263.19432392588544
 22
193.61566570747848
 13
263.19432392588539
 23
180.5568358155173
  0
SOLID
  8
_1-9_
  6
CONTINUOUS
 62
   30
 10
265.19432392588544
 20
193.61566570747848
 11
265.19432392588544
 21
181.12787816214623
 12
275.35648707535108
 22
185.70085279804766
 13
275.35648707535108
 23
185.70085279804766
  0
SOLID
  8
_1-9_
  6
CONTINUOUS
 62
   30
 10
275.35648707535108
 20
185.70085279804766
 11
275.47959650582362
 21
185.42727635876841
 12
275.67959650582361
 22
185.51727638275233
 13
275.67959650582361
 23
185.51727638275233
  0
SOLID
  8
_1-9_
  6
CONTINUOUS
 62
   30
 10
275.35648707535108
 20
185.70085279804766
 11
275.67959650582361
 21
185.51727638275233
 12
275.67959650582361
 22
187.52101295440085
 13
275.67959650582361
 23
187.52101295440085
  0
SOLID
  8
_1-9_
  6
CONTINUOUS
 62
   30
 10
278.87959650582366
 20
187.52101295440085
 11
278.87959650582366
 21
194.11125254081526
 12
265.19432392588544
 22
193.61566570747848
 13
265.19432392588544
 23
193.61566570747848
  0
SOLID
  8
_1-9_
  6
CONTINUOUS
 62
   30
 10
265.19432392588544
 20
193.61566570747848
 11
275.35648707535108
 21
185.70085279804766
 12
275.67959650582361
 22
187.52101295440085
 13
275.67959650582361
 23
187.52101295440085
  0
SOLID
  8
_1-9_
  6
CONTINUOUS
 62
   30
 10
265.19432392588544
 20
193.61566570747848
 11
275.67959650582361
 21
187.52101295440085
 12
278.87959650582366
 22
187.52101295440085
 13
278.87959650582366
 23
187.52101295440085
  0
SOLID
  8
_1-9_
  6
CONTINUOUS
 62
   30
 10
250.36170986619518
 20
197.6976094401233
 11
254.99677539855884
 21
189.93755546486102
 12
260.77658429788272
 22
198.59985958152834
 13
260.77658429788272
 23
193.60810757561617
  0
SOLID
  8
_1-9_
  6
CONTINUOUS
 62
   30
 10
260.77658429788272
 20
198.59985958152834
 11
261.17658429788275
 21
198.59985958152834
 12
261.17658429788275
 22
200.01566075868206
 13
261.17658429788275
 23
200.01566075868206
  0
SOLID
  8
_1-9_
  6
CONTINUOUS
 62
   30
 10
260.77658429788272
 20
198.59985958152834
 11
261.17658429788275
 21
200.01566075868206
 12
250.36170986619553
 22
197.69760944012273
 13
250.36170986619553
 23
197.69760944012273
  0
SOLID
  8
_1-9_
  6
CONTINUOUS
 62
   30
 10
250.36170986619518
 20
197.6976094401233
 11
261.17658429788275
 21
200.01566075868206
 12
263.67658017388567
 22
201.99371113829059
 13
263.67658017388567
 23
201.99371113829059
  0
SOLID
  8
_1-9_
  6
CONTINUOUS
 62
   30
 10
250.36170986619518
 20
197.6976094401233
 11
263.67658017388567
 21
201.99371113829059
 12
262.25014535421292
 22
201.93627183516918
 13
262.25014535421292
 23
201.93627183516918
  0
SOLID
  8
_1-9_
  6
CONTINUOUS
 62
   30
 10
250.36170986619518
 20
197.6976094401233
 11
262.25014535421292
 21
201.93627183516918
 12
260.6618585339109
 22
201.75799474309449
 13
260.6618585339109
 23
201.75799474309449
  0
SOLID
  8
_1-9_
  6
CONTINUOUS
 62
   30
 10
250.36170986619518
 20
197.6976094401233
 11
260.6618585339109
 21
201.75799474309449
 12
259.93254315724158
 22
201.64454568450148
 13
259.93254315724158
 23
201.64454568450148
  0
SOLID
  8
_1-9_
  6
CONTINUOUS
 62
   30
 10
250.36170986619518
 20
197.6976094401233
 11
259.93254315724158
 21
201.64454568450148
 12
258.49011941227343
 22
201.33661252546332
 13
258.49011941227343
 23
201.33661252546332
  0
SOLID
  8
_1-9_
  6
CONTINUOUS
 62
   30
 10
250.36170986619518
 20
197.6976094401233
 11
258.49011941227343
 21
201.33661252546332
 12
257.8904601025676
 22
201.25557748361118
 13
257.8904601025676
 23
201.25557748361118
  0
SOLID
  8
_1-9_
  6
CONTINUOUS
 62
   30
 10
250.36170986619518
 20
197.6976094401233
 11
257.8904601025676
 21
201.25557748361118
 12
256.05906815670915
 22
200.62350415716446
 13
256.05906815670915
 23
200.62350415716446
  0
SOLID
  8
_1-9_
  6
CONTINUOUS
 62
   30
 10
250.36170986619518
 20
197.6976094401233
 11
256.05906815670915
 21
200.62350415716446
 12
255.26492474655817
 22
200.31557099812633
 13
255.26492474655817
 23
200.31557099812633
  0
SOLID
  8
_1-9_
  6
CONTINUOUS
 62
   30
 10
250.36170986619518
 20
197.6976094401233
 11
255.26492474655817
 21
200.31557099812633
 12
253.95215706855342
 22
199.78073972190219
 13
253.95215706855342
 23
199.78073972190219
  0
SOLID
  8
_1-9_
  6
CONTINUOUS
 62
   30
 10
250.36170986619518
 20
197.6976094401233
 11
253.95215706855342
 21
199.78073972190219
 12
252.86628750773471
 22
199.2297014373076
 13
252.86628750773471
 23
199.2297014373076
  0
SOLID
  8
_1-9_
  6
CONTINUOUS
 62
   30
 10
250.36170986619518
 20
197.6976094401233
 11
252.86628750773471
 21
199.2297014373076
 12
252.02352307247241
 22
198.74349118619475
 13
252.02352307247241
 23
198.74349118619475
  0
SOLID
  8
_1-9_
  6
CONTINUOUS
 62
   30
 10
263.67658017388567
 20
201.99371113829059
 11
261.17658429788275
 21
200.01566075868206
 12
263.67658017388567
 22
201.99371113829059
 13
267.1765793490863
 23
200.01566075868206
  0
SOLID
  8
_1-9_
  6
CONTINUOUS
 62
   30
 10
267.1765793490863
 20
200.01566075868206
 11
267.1765793490863
 21
198.59985958152834
 12
267.57657934908627
 22
198.59985958152834
 13
267.57657934908627
 23
198.59985958152834
  0
SOLID
  8
_1-9_
  6
CONTINUOUS
 62
   30
 10
267.1765793490863
 20
200.01566075868206
 11
267.57657934908627
 21
198.59985958152834
 12
278.87959650582366
 22
194.11125254081526
 13
278.87959650582366
 23
194.11125254081526
  0
SOLID
  8
_1-9_
  6
CONTINUOUS
 62
   30
 10
267.57657934908627
 20
198.59985958152834
 11
267.57657934908627
 21
193.60810757561617
 12
267.57657934908627
 22
198.59985958152834
 13
278.87959650582366
 23
194.11125254081526
  0
SOLID
  8
_1-9_
  6
CONTINUOUS
 62
   30
 10
263.67658017388567
 20
201.99371113829059
 11
266.03056700946507
 21
200.66333809514711
 12
266.35952432694137
 22
201.89102351749028
 13
266.35952432694137
 23
201.89102351749028
  0
SOLID
  8
_1-9_
  6
CONTINUOUS
 62
   30
 10
263.67658017388567
 20
201.99371113829059
 11
266.35952432694137
 21
201.89102351749028
 12
265.48341673006132
 22
201.94708109044433
 13
265.48341673006132
 23
201.94708109044433
  0
SOLID
  8
_1-9_
  6
CONTINUOUS
 62
   30
 10
263.67658017388567
 20
201.99371113829059
 11
265.48341673006132
 21
201.94708109044433
 12
264.95996902825232
 22
201.9678528246431
 13
264.95996902825232
 23
201.9678528246431
  0
SOLID
  8
_1-9_
  6
CONTINUOUS
 62
   30
 10
263.67658017388567
 20
201.99371113829059
 11
264.95996902825232
 21
201.9678528246431
 12
264.67747344314904
 22
201.98862455884185
 13
264.67747344314904
 23
201.98862455884185
  0
SOLID
  8
_1-9_
  6
CONTINUOUS
 62
   30
 10
263.67658017388567
 20
201.99371113829059
 11
264.67747344314904
 21
201.98862455884185
 12
264.38666916436625
 22
202.00939629304062
 13
264.38666916436625
 23
202.00939629304062
  0
SOLID
  8
_1-9_
  6
CONTINUOUS
 62
   30
 10
263.67658017388567
 20
201.99371113829059
 11
264.38666916436625
 21
202.00939629304062
 12
264.19972355657734
 22
202.00939629304062
 13
264.19972355657734
 23
202.00939629304062
  0
SOLID
  8
_1-9_
  6
CONTINUOUS
 62
   30
 10
266.35952432694148
 20
201.89102351749028
 11
266.03056700946507
 21
200.66333809514711
 12
266.35952432694137
 22
201.89102351749028
 13
267.4949070238406
 23
201.72830168382819
  0
SOLID
  8
_1-9_
  6
CONTINUOUS
 62
   30
 10
266.03056700946507
 20
200.66333809514711
 11
268.96770121073303
 21
199.11200365064991
 12
267.4949070238406
 22
201.72830168382819
 13
268.20773080494439
 23
201.61863648673528
  0
SOLID
  8
_1-9_
  6
CONTINUOUS
 62
   30
 10
268.96770121073303
 20
199.11200365064991
 11
269.56768721370258
 21
201.35118189756258
 12
268.20773080494439
 22
201.61863648673528
 13
268.68751604222581
 23
201.53638758891563
  0
SOLID
  8
_1-9_
  6
CONTINUOUS
 62
   30
 10
266.35952432694148
 20
201.89102351749028
 11
265.91199222715159
 21
200.22081098305671
 12
269.56768721370258
 22
201.35118189756258
 13
267.1765793490863
 23
200.01566075868206
  0
SOLID
  8
_1-9_
  6
CONTINUOUS
 62
   30
 10
267.1765793490863
 20
198.59985958152834
 11
269.11586277959856
 21
199.66495015338529
 12
267.21557478158115
 22
200.03744113303793
 13
267.21557478158115
 23
200.03744113303793
  0
SOLID
  8
_1-9_
  6
CONTINUOUS
 62
   30
 10
267.1765793490863
 20
198.59985958152834
 11
267.21557478158115
 21
200.03744113303793
 12
267.16623692445887
 22
200.06350038396982
 13
267.16623692445887
 23
200.06350038396982
  0
SOLID
  8
_1-9_
  6
CONTINUOUS
 62
   30
 10
269.56768721370258
 20
201.35118189756258
 11
268.96770121073303
 21
199.11200365064991
 12
269.56768721370253
 22
201.35118189756261
 13
278.87959650582366
 23
197.08420564855771
  0
SOLID
  8
_1-9_
  6
CONTINUOUS
 62
   30
 10
268.96770121073303
 20
199.11200365064991
 11
278.87959650582366
 21
194.11125254081526
 12
278.87959650582366
 22
197.08420564855771
 13
278.87959650582366
 23
197.08420564855771
  0
SOLID
  8
_1-9_
  6
CONTINUOUS
 62
   30
 10
269.56768721370253
 20
201.35118189756261
 11
278.87959650582366
 21
197.08420564855771
 12
270.57751449219415
 22
201.10746774456177
 13
271.35215698063882
 23
200.86539196692283
  0
SOLID
  8
_1-9_
  6
CONTINUOUS
 62
   30
 10
278.87959650582366
 20
197.08420564855771
 11
276.75851601457515
 21
198.47691096088528
 12
271.35215698063882
 22
200.86539196692283
 13
272.48184394295384
 23
200.49420910787646
  0
SOLID
  8
_1-9_
  6
CONTINUOUS
 62
   30
 10
276.75851601457515
 20
198.47691096088528
 11
274.9187401045192
 21
199.49362922696884
 12
272.48184394295384
 22
200.49420910787646
 13
273.07896419446325
 23
200.28441010058935
  0
LINE
  8
ADD_LINE
  6
DOT
 62
    4
 10
85.363259883019836
 20
118.18352156055869
 11
85.363259883019836
 21
60.773698396612687
  0
LINE
  8
ADD_LINE
  6
DOT
 62
    4
 10
246.34127440052146
 20
173.95094079180294
 11
247.66521643001295
 21
170.35399758743512
  0
LINE
  8
ADD_LINE
  6
DOT
 62
    4
 10
240.63726686515409
 20
170.40615500870538
 11
241.70549852840836
 21
168.03233788125917
  0
LINE
  8
ADD_LINE
  6
DOT
 62
    4
 10
97.836938435940098
 20
123.79667840521056
 11
97.836938435940098
 21
29.348585690515804
  0
LINE
  8
_1-0_
  6
CONTINUOUS
 62
    7
 10
97.836938435940098
 20
105.48805892449548
 11
263.20591795290341
 21
179.90411953810047
  0
LINE
  8
ADD_LINE
  6
DOT
 62
    4
 10
118.47609911146975
 20
76.338944193514038
 11
118.47609911146975
 21
38.863353536970067
  0
TEXT
  8
_1-b_
 62
    7
 10
157.83007811324859
 20
73.804174537244577
 40
2.5
 41
1
 50
0
  1
瓦桟　
  0
TEXT
  8
_1-b_
 62
    7
 10
157.83163698413119
 20
66.804176186843407
 40
2.5
 41
1
 50
0
  1
縦桟
  0
TEXT
  8
_1-b_
 62
    7
 10
157.83164110812828
 20
59.804177836442221
 40
2.5
 41
1
 50
0
  1
ルーフィング
  0
TEXT
  8
_1-b_
 62
    7
 10
166.17014913326494
 20
74.078762471572972
 40
2.5
 41
1
 50
0
  1
15×21　以上
  0
TEXT
  8
_1-b_
 62
    7
 10
186.35207000280849
 20
74.230506237509388
 40
2.5
 41
1
 50
0
  1
（防腐処理）
  0
TEXT
  8
_1-b_
 62
    7
 10
200.76772776676816
 20
74.685737535318651
 40
2.5
 41
1
 50
0
  1
※　地域により瓦桟木の大きさは、異なります
  0
LINE
  8
_1-4_
  6
CONTINUOUS
 62
    7
 10
155.39576968169905
 20
55.136371469202871
 11
146.18629045165858
 21
55.136371469202871
  0
LINE
  8
_1-4_
  6
CONTINUOUS
 62
    7
 10
155.39576968169905
 20
61.53676126940347
 11
147.90126972986673
 21
61.53676126940347
  0
LINE
  8
_1-4_
  6
CONTINUOUS
 62
    7
 10
155.39576968169905
 20
68.378571341194004
 11
149.73452721337014
 21
68.378571341194004
  0
LINE
  8
_1-4_
  6
CONTINUOUS
 62
    7
 10
151.47697843550276
 20
74.88148783190347
 11
155.39576968169905
 21
74.88148783190347
  0
LINE
  8
_1-b_
  6
CONTINUOUS
 62
    7
 10
220.74909814756882
 20
212.68383393179977
 11
239.04180986603384
 21
180.99995099328464
  0
LINE
  8
_1-b_
  6
CONTINUOUS
 62
    7
 10
220.74909814756882
 20
212.68383393179977
 11
216.45812165525567
 21
212.68383393179977
  0
LINE
  8
_1-b_
  6
CONTINUOUS
 62
    7
 10
239.04180986603384
 20
180.99995099328464
 11
254.92894537944247
 21
186.05018673813197
  0
TEXT
  8
_1-b_
 62
    7
 10
208.61599220378679
 20
211.64808098537935
 40
2.5
 41
1
 50
0
  1
葺き土
  0
TEXT
  8
_1-b_
 62
    7
 10
202.99333335179028
 20
204.84170448033089
 40
2.5
 41
1
 50
0
  1
桟瓦
  0
LINE
  8
_1-1_
  6
CONTINUOUS
 62
    7
 10
257.4881558804899
 20
177.98906893343539
 11
97.836938435940098
 21
106.14556983630619
  0
LINE
  8
_1-1_
  6
CONTINUOUS
 62
    7
 10
263.19432392588544
 20
180.55686068209414
 11
253.11094541807435
 21
176.01931185335727
  0
TEXT
  8
_1-4_
 62
    7
 10
394.71147279481636
 20
15.42184159562396
 40
2.5
 41
1
 50
0
  1
33
  0
TEXT
  8
_0-0_
 62
    7
 10
25.556194717819636
 20
20.211577544341225
 40
2.5
 41
1
 50
0
  1
ＲＣ
  0
LINE
  8
_1-0_
  6
CONTINUOUS
 62
    7
 10
248.76780045183423
 20
128.4469401106262
 11
248.76780045183423
 21
50.594551330707404
  0
LINE
  8
_1-0_
  6
CONTINUOUS
 62
    7
 10
282.71245188904021
 20
185.81036981051705
 11
282.71245188904021
 21
142.05049000406092
  0
LINE
  8
_1-0_
  6
CONTINUOUS
 62
    7
 10
278.7678004518342
 20
142.05049000406092
 11
278.7678004518342
 21
50.594551330707404
  0
LINE
  8
_1-0_
  6
CONTINUOUS
 62
    7
 10
282.71245188904021
 20
142.05049000406092
 11
278.7678004518342
 21
142.05049000406092
  0
LINE
  8
_1-0_
  6
CONTINUOUS
 62
    7
 10
97.836938435940098
 20
104.39146123941444
 11
278.76780045183426
 21
185.81036981051705
  0
LINE
  8
_1-0_
  6
CONTINUOUS
 62
    7
 10
278.76780045183426
 20
185.81036981051705
 11
282.71245188904021
 21
185.81036981051705
  0
LINE
  8
_1-1_
  6
DASHED1
 62
    3
 10
97.836938435940098
 20
105.26873691626301
 11
278.19028352442444
 21
186.42776383397069
  0
LINE
  8
_1-0_
  6
DASHED1
 62
    3
 10
278.19028352442444
 20
186.42776383397069
 11
282.71245188904021
 21
186.42776383397069
  0
LINE
  8
_1-6_
  6
CONTINUOUS
 62
    7
 10
265.19432392588544
 20
180.79890246439109
 11
278.1902835244245
 21
186.64708584220313
  0
LINE
  8
_1-0_
  6
CONTINUOUS
 62
    7
 10
278.1902835244245
 20
186.42776383397069
 11
278.1902835244245
 21
186.64708584220313
  0
SOLID
  8
_1-9_
  6
CONTINUOUS
 62
   30
 10
275.67959650582361
 20
187.52101295440085
 11
275.67959650582361
 21
185.5172763827523
 12
278.87959650582366
 22
187.52101295440085
 13
278.1902835244245
 23
186.64708584220313
  0
SOLID
  8
_1-9_
  6
CONTINUOUS
 62
   30
 10
278.87959650582366
 20
187.52101295440085
 11
278.1902835244245
 21
186.64708584220313
 12
278.87959650582366
 22
187.52101295440085
 13
278.1902835244245
 23
186.42776383397069
  0
SOLID
  8
_1-9_
  6
CONTINUOUS
 62
   30
 10
278.87959650582366
 20
187.52101295440085
 11
278.1902835244245
 21
186.42776383397069
 12
282.71245188904021
 22
186.42776383397069
 13
282.71245188904021
 23
186.42776383397069
  0
SOLID
  8
_1-9_
  6
CONTINUOUS
 62
   30
 10
278.87959650582366
 20
187.52101295440085
 11
282.71245188904021
 21
186.42776383397069
 12
278.87959650582366
 22
197.08420564855771
 13
278.87959650582366
 23
197.08420564855771
  0
LINE
  8
_1-0_
  6
CONTINUOUS
 62
    7
 10
97.836938435940098
 20
93.42560467100995
 11
282.71245188904021
 21
176.61960683937031
  0
LINE
  8
_1-0_
  6
CONTINUOUS
 62
    7
 10
97.836938435940098
 20
60.528034965796451
 11
224.14896042046075
 21
117.36845928481264
  0
LINE
  8
_1-0_
  6
CONTINUOUS
 62
    7
 10
224.14896042046075
 20
117.36845928481264
 11
224.54123808342507
 21
117.54498427794827
  0
LINE
  8
_1-0_
  6
CONTINUOUS
 62
    7
 10
224.54123808342507
 20
117.54498427794827
 11
248.76780045183423
 21
128.4469401106262
  0
LINE
  8
_1-9_
  6
CONTINUOUS
 62
    7
 10
222.26473695020368
 20
149.41812821321497
 11
211.61297168027383
 21
111.72726292000458
  0
LINE
  8
_1-9_
  6
CONTINUOUS
 62
    7
 10
220.35980923350687
 20
148.56091052314133
 11
209.70804396357701
 21
110.87004522993095
  0
LINE
  8
_1-9_
  6
CONTINUOUS
 62
    7
 10
218.4548891716544
 20
147.70369627774852
 11
207.80311889437922
 21
110.01282873123216
  0
LINE
  8
_1-9_
  6
CONTINUOUS
 62
    7
 10
138.1976148647525
 20
111.5879136735319
 11
127.54584458747732
 21
73.897046127015528
  0
LINE
  8
_1-9_
  6
CONTINUOUS
 62
    7
 10
142.00746242790427
 20
113.30234551206945
 11
131.35569715797442
 21
75.611480218859043
  0
LINE
  8
_1-9_
  6
CONTINUOUS
 62
    7
 10
140.10253471120745
 20
112.4451278219958
 11
129.45076944127757
 21
74.754262528785375
  0
LINE
  8
_1-9_
  6
CONTINUOUS
 62
    7
 10
278.7678004518342
 20
110.35038351545607
 11
262.50278832120432
 21
52.797258219066279
  0
LINE
  8
_1-9_
  6
CONTINUOUS
 62
    7
 10
278.7678004518342
 20
122.1169376669277
 11
258.69293881410442
 21
51.082834291965341
  0
LINE
  8
_1-9_
  6
CONTINUOUS
 62
    7
 10
278.7678004518342
 20
116.23367992270403
 11
260.59786047465661
 21
51.940040069520236
  0
TEXT
  8
_1-b_
 62
    7
 10
158.27459963061557
 20
54.016795452837911
 40
2.5
 41
1
 50
0
  1
パーライト系モルタル　ｔ＝50
  0
LINE
  8
_1-b_
  6
CONTINUOUS
 62
    7
 10
168.76871880199667
 20
139.41514143094841
 11
146.25535549541058
 21
55.394125721512296
  0
CIRCLE
  8
_1-9_
  6
CONTINUOUS
 62
    7
 10
100.42795814369715
 20
102.26434071540396
 40
0.1643557161898226
  0
CIRCLE
  8
_1-9_
  6
CONTINUOUS
 62
    7
 10
104.20809012809856
 20
101.93563546901987
 40
0.1643557161898226
  0
CIRCLE
  8
_1-9_
  6
CONTINUOUS
 62
    7
 10
99.934897181123247
 20
100.45645258129815
 40
0.1643557161898226
  0
CIRCLE
  8
_1-9_
  6
CONTINUOUS
 62
    7
 10
99.606191934739186
 20
102.92175739416768
 40
0.1643557161898226
  0
CIRCLE
  8
_1-9_
  6
CONTINUOUS
 62
    7
 10
103.38632391914057
 20
103.90787313331992
 40
0.1643557161898226
  0
CIRCLE
  8
_1-9_
  6
CONTINUOUS
 62
    7
 10
110.94658479494557
 20
105.0583569606531
 40
0.1643557161898226
  0
CIRCLE
  8
_1-9_
  6
CONTINUOUS
 62
    7
 10
105.8516287320101
 20
103.57917407293141
 40
0.1643557161898226
  0
CIRCLE
  8
_1-9_
  6
CONTINUOUS
 62
    7
 10
108.31692735888403
 20
105.8801231696111
 40
0.1643557161898226
  0
CIRCLE
  8
_1-9_
  6
CONTINUOUS
 62
    7
 10
112.91883483123677
 20
108.18106608029521
 40
0.1643557161898226
  0
CIRCLE
  8
_1-9_
  6
CONTINUOUS
 62
    7
 10
114.5623672491527
 20
109.82461087020229
 40
0.1643557161898226
  0
CIRCLE
  8
_1-9_
  6
CONTINUOUS
 62
    7
 10
117.84943208498463
 20
108.18106608029521
 40
0.1643557161898226
  0
CIRCLE
  8
_1-9_
  6
CONTINUOUS
 62
    7
 10
115.87718823468903
 20
107.1949441551474
 40
0.1643557161898226
  0
CIRCLE
  8
_1-9_
  6
CONTINUOUS
 62
    7
 10
110.78223217175353
 20
108.18106608029521
 40
0.1643557161898226
  0
CIRCLE
  8
_1-9_
  6
CONTINUOUS
 62
    7
 10
113.90495675638455
 20
109.82461087020229
 40
0.1643557161898226
  0
CIRCLE
  8
_1-9_
  6
CONTINUOUS
 62
    7
 10
116.37024919726294
 20
109.82461087020229
 40
0.1643557161898226
  0
CIRCLE
  8
_1-9_
  6
CONTINUOUS
 62
    7
 10
119.82167593528025
 20
111.30378138593287
 40
0.1643557161898226
  0
CIRCLE
  8
_1-9_
  6
CONTINUOUS
 62
    7
 10
123.76616363587145
 20
112.28990331108068
 40
0.1643557161898226
  0
CIRCLE
  8
_1-9_
  6
CONTINUOUS
 62
    7
 10
121.9582693157701
 20
110.15330993059081
 40
0.1643557161898226
  0
CIRCLE
  8
_1-9_
  6
CONTINUOUS
 62
    7
 10
121.9582693157701
 20
113.27602523622849
 40
0.1643557161898226
  0
CIRCLE
  8
_1-9_
  6
CONTINUOUS
 62
    7
 10
136.58573629080178
 20
118.04228533177326
 40
0.1643557161898226
  0
CIRCLE
  8
_1-9_
  6
CONTINUOUS
 62
    7
 10
133.79173241754376
 20
118.2066348619675
 40
0.1643557161898226
  0
CIRCLE
  8
_1-9_
  6
CONTINUOUS
 62
    7
 10
130.34030567952647
 20
116.39874054186615
 40
0.1643557161898226
  0
CIRCLE
  8
_1-9_
  6
CONTINUOUS
 62
    7
 10
134.94220387288584
 20
115.57696814691261
 40
0.1643557161898226
  0
CIRCLE
  8
_1-9_
  6
CONTINUOUS
 62
    7
 10
130.6690171119061
 20
115.57696814691261
 40
0.1643557161898226
  0
CIRCLE
  8
_1-9_
  6
CONTINUOUS
 62
    7
 10
126.72452941131489
 20
115.74134242108912
 40
0.1643557161898226
  0
CIRCLE
  8
_1-9_
  6
CONTINUOUS
 62
    7
 10
127.05324084369452
 20
113.27602523622849
 40
0.1643557161898226
  0
CIRCLE
  8
_1-9_
  6
CONTINUOUS
 62
    7
 10
124.91663509121354
 20
111.63248044632138
 40
0.1643557161898226
  0
CIRCLE
  8
_1-9_
  6
CONTINUOUS
 62
    7
 10
119.32861497270635
 20
112.28990331108068
 40
0.1643557161898226
  0
CIRCLE
  8
_1-9_
  6
CONTINUOUS
 62
    7
 10
119.32861497270635
 20
109.66026134000805
 40
0.1643557161898226
  0
CIRCLE
  8
_1-9_
  6
CONTINUOUS
 62
    7
 10
122.28698074814976
 20
111.79685472049792
 40
0.1643557161898226
  0
CIRCLE
  8
_1-9_
  6
CONTINUOUS
 62
    7
 10
125.5740579559728
 20
114.26214716137628
 40
0.1643557161898226
  0
CIRCLE
  8
_1-9_
  6
CONTINUOUS
 62
    7
 10
136.75009200699162
 20
118.86404535473565
 40
0.1643557161898226
  0
CIRCLE
  8
_1-9_
  6
CONTINUOUS
 62
    7
 10
140.69457970758282
 20
119.85016727988348
 40
0.1643557161898226
  0
CIRCLE
  8
_1-9_
  6
CONTINUOUS
 62
    7
 10
138.88668538748146
 20
117.71357389939359
 40
0.1643557161898226
  0
CIRCLE
  8
_1-9_
  6
CONTINUOUS
 62
    7
 10
138.88668538748146
 20
120.83628920503128
 40
0.1643557161898226
  0
CIRCLE
  8
_1-9_
  6
CONTINUOUS
 62
    7
 10
150.72014848925511
 20
125.7668988307703
 40
0.1643557161898226
  0
CIRCLE
  8
_1-9_
  6
CONTINUOUS
 62
    7
 10
147.26872175123782
 20
123.95900451066895
 40
0.1643557161898226
  0
CIRCLE
  8
_1-9_
  6
CONTINUOUS
 62
    7
 10
147.59743318361745
 20
123.13723211571541
 40
0.1643557161898226
  0
CIRCLE
  8
_1-9_
  6
CONTINUOUS
 62
    7
 10
143.65294548302623
 20
123.30160638989193
 40
0.1643557161898226
  0
CIRCLE
  8
_1-9_
  6
CONTINUOUS
 62
    7
 10
143.98165691540589
 20
120.83628920503128
 40
0.1643557161898226
  0
CIRCLE
  8
_1-9_
  6
CONTINUOUS
 62
    7
 10
141.8450511629249
 20
119.19274441512417
 40
0.1643557161898226
  0
CIRCLE
  8
_1-9_
  6
CONTINUOUS
 62
    7
 10
136.25703104441772
 20
119.85016727988348
 40
0.1643557161898226
  0
CIRCLE
  8
_1-9_
  6
CONTINUOUS
 62
    7
 10
136.25703104441772
 20
117.22052530881083
 40
0.1643557161898226
  0
CIRCLE
  8
_1-9_
  6
CONTINUOUS
 62
    7
 10
139.2153968198611
 20
119.35711868930071
 40
0.1643557161898226
  0
CIRCLE
  8
_1-9_
  6
CONTINUOUS
 62
    7
 10
142.50247402768417
 20
121.82241113017909
 40
0.1643557161898226
  0
CIRCLE
  8
_1-9_
  6
CONTINUOUS
 62
    7
 10
154.17156285528131
 20
125.6025369285849
 40
0.1643557161898226
  0
CIRCLE
  8
_1-9_
  6
CONTINUOUS
 62
    7
 10
158.1160505558725
 20
126.58865885373271
 40
0.1643557161898226
  0
CIRCLE
  8
_1-9_
  6
CONTINUOUS
 62
    7
 10
156.30815623577115
 20
124.45206547324285
 40
0.1643557161898226
  0
CIRCLE
  8
_1-9_
  6
CONTINUOUS
 62
    7
 10
156.30815623577115
 20
127.57478077888052
 40
0.1643557161898226
  0
CIRCLE
  8
_1-9_
  6
CONTINUOUS
 62
    7
 10
168.14161315154925
 20
132.50539040461953
 40
0.1643557161898226
  0
CIRCLE
  8
_1-9_
  6
CONTINUOUS
 62
    7
 10
164.69019878552308
 20
130.69749608451818
 40
0.1643557161898226
  0
CIRCLE
  8
_1-9_
  6
CONTINUOUS
 62
    7
 10
165.01889784591157
 20
129.87572368956464
 40
0.1643557161898226
  0
CIRCLE
  8
_1-9_
  6
CONTINUOUS
 62
    7
 10
161.07441633131594
 20
130.04009796374118
 40
0.1643557161898226
  0
CIRCLE
  8
_1-9_
  6
CONTINUOUS
 62
    7
 10
161.40312776369558
 20
127.57478077888052
 40
0.1643557161898226
  0
CIRCLE
  8
_1-9_
  6
CONTINUOUS
 62
    7
 10
159.26652201121459
 20
125.93123598897343
 40
0.1643557161898226
  0
CIRCLE
  8
_1-9_
  6
CONTINUOUS
 62
    7
 10
153.6785018927074
 20
126.58865885373271
 40
0.1643557161898226
  0
CIRCLE
  8
_1-9_
  6
CONTINUOUS
 62
    7
 10
153.6785018927074
 20
123.95901688266008
 40
0.1643557161898226
  0
CIRCLE
  8
_1-9_
  6
CONTINUOUS
 62
    7
 10
156.63686766815081
 20
126.09561026314995
 40
0.1643557161898226
  0
CIRCLE
  8
_1-9_
  6
CONTINUOUS
 62
    7
 10
159.92394487597386
 20
128.56090270402831
 40
0.1643557161898226
  0
CIRCLE
  8
_1-9_
  6
CONTINUOUS
 62
    7
 10
167.81291409116074
 20
132.01232944204563
 40
0.1643557161898226
  0
CIRCLE
  8
_1-9_
  6
CONTINUOUS
 62
    7
 10
171.75740179175196
 20
132.99845136719344
 40
0.1643557161898226
  0
CIRCLE
  8
_1-9_
  6
CONTINUOUS
 62
    7
 10
169.94950747165061
 20
130.86185798670357
 40
0.1643557161898226
  0
CIRCLE
  8
_1-9_
  6
CONTINUOUS
 62
    7
 10
169.94950747165061
 20
133.98457329234125
 40
0.1643557161898226
  0
CIRCLE
  8
_1-9_
  6
CONTINUOUS
 62
    7
 10
181.78297057342428
 20
138.91518291808026
 40
0.1643557161898226
  0
CIRCLE
  8
_1-9_
  6
CONTINUOUS
 62
    7
 10
178.33154383540693
 20
137.10728859797891
 40
0.1643557161898226
  0
CIRCLE
  8
_1-9_
  6
CONTINUOUS
 62
    7
 10
178.66025526778657
 20
136.28551620302537
 40
0.1643557161898226
  0
CIRCLE
  8
_1-9_
  6
CONTINUOUS
 62
    7
 10
174.71576756719537
 20
136.44989047720188
 40
0.1643557161898226
  0
CIRCLE
  8
_1-9_
  6
CONTINUOUS
 62
    7
 10
175.04447899957501
 20
133.98457329234125
 40
0.1643557161898226
  0
CIRCLE
  8
_1-9_
  6
CONTINUOUS
 62
    7
 10
172.90787324709402
 20
132.34102850243414
 40
0.1643557161898226
  0
CIRCLE
  8
_1-9_
  6
CONTINUOUS
 62
    7
 10
167.31985312858686
 20
132.99845136719344
 40
0.1643557161898226
  0
CIRCLE
  8
_1-9_
  6
CONTINUOUS
 62
    7
 10
167.31985312858686
 20
130.36880939612081
 40
0.1643557161898226
  0
CIRCLE
  8
_1-9_
  6
CONTINUOUS
 62
    7
 10
170.27821890403027
 20
132.50540277661068
 40
0.1643557161898226
  0
CIRCLE
  8
_1-9_
  6
CONTINUOUS
 62
    7
 10
173.56529611185331
 20
134.97069521748907
 40
0.1643557161898226
  0
CIRCLE
  8
_1-9_
  6
CONTINUOUS
 62
    7
 10
181.78295820143313
 20
139.57259341084844
 40
0.1643557161898226
  0
CIRCLE
  8
_1-9_
  6
CONTINUOUS
 62
    7
 10
185.72744590202436
 20
140.55871533599623
 40
0.1643557161898226
  0
CIRCLE
  8
_1-9_
  6
CONTINUOUS
 62
    7
 10
183.919551581923
 20
138.42212195550636
 40
0.1643557161898226
  0
CIRCLE
  8
_1-9_
  6
CONTINUOUS
 62
    7
 10
183.919551581923
 20
141.54483726114404
 40
0.1643557161898226
  0
CIRCLE
  8
_1-9_
  6
CONTINUOUS
 62
    7
 10
195.75301468369665
 20
146.47544688688305
 40
0.1643557161898226
  0
CIRCLE
  8
_1-9_
  6
CONTINUOUS
 62
    7
 10
192.30158794567933
 20
144.66755256678169
 40
0.1643557161898226
  0
CIRCLE
  8
_1-9_
  6
CONTINUOUS
 62
    7
 10
192.63029937805896
 20
143.84578017182815
 40
0.1643557161898226
  0
CIRCLE
  8
_1-9_
  6
CONTINUOUS
 62
    7
 10
188.68581167746777
 20
144.01015444600469
 40
0.1643557161898226
  0
CIRCLE
  8
_1-9_
  6
CONTINUOUS
 62
    7
 10
189.0145231098474
 20
141.54483726114404
 40
0.1643557161898226
  0
CIRCLE
  8
_1-9_
  6
CONTINUOUS
 62
    7
 10
186.87791735736641
 20
139.90129247123693
 40
0.1643557161898226
  0
CIRCLE
  8
_1-9_
  6
CONTINUOUS
 62
    7
 10
181.28989723885923
 20
140.55871533599623
 40
0.1643557161898226
  0
CIRCLE
  8
_1-9_
  6
CONTINUOUS
 62
    7
 10
181.28989723885923
 20
137.9290733649236
 40
0.1643557161898226
  0
CIRCLE
  8
_1-9_
  6
CONTINUOUS
 62
    7
 10
184.24826301430267
 20
140.06566674541347
 40
0.1643557161898226
  0
CIRCLE
  8
_1-9_
  6
CONTINUOUS
 62
    7
 10
187.53534022212568
 20
142.53095918629185
 40
0.1643557161898226
  0
CIRCLE
  8
_1-9_
  6
CONTINUOUS
 62
    7
 10
199.36879095190821
 20
145.65367449192951
 40
0.1643557161898226
  0
CIRCLE
  8
_1-9_
  6
CONTINUOUS
 62
    7
 10
198.87572998933433
 20
146.63979641707732
 40
0.1643557161898226
  0
CIRCLE
  8
_1-9_
  6
CONTINUOUS
 62
    7
 10
198.87572998933433
 20
144.01015444600469
 40
0.1643557161898226
  0
CIRCLE
  8
_1-9_
  6
CONTINUOUS
 62
    7
 10
100.29021148743395
 20
95.568105677265237
 40
0.1643557161898226
  0
CIRCLE
  8
_1-9_
  6
CONTINUOUS
 62
    7
 10
98.811028599712259
 20
97.211650467172319
 40
0.1643557161898226
  0
CIRCLE
  8
_1-9_
  6
CONTINUOUS
 62
    7
 10
102.26245533772958
 20
98.690820982902892
 40
0.1643557161898226
  0
CIRCLE
  8
_1-9_
  6
CONTINUOUS
 62
    7
 10
106.20694303832077
 20
99.676942908050705
 40
0.1643557161898226
  0
CIRCLE
  8
_1-9_
  6
CONTINUOUS
 62
    7
 10
104.39904871821942
 20
97.540349527560835
 40
0.1643557161898226
  0
CIRCLE
  8
_1-9_
  6
CONTINUOUS
 62
    7
 10
104.39904871821942
 20
100.66306483319849
 40
0.1643557161898226
  0
CIRCLE
  8
_1-9_
  6
CONTINUOUS
 62
    7
 10
107.35741449366286
 20
99.019520043291408
 40
0.1643557161898226
  0
CIRCLE
  8
_1-9_
  6
CONTINUOUS
 62
    7
 10
101.76939437515567
 20
99.676942908050705
 40
0.1643557161898226
  0
CIRCLE
  8
_1-9_
  6
CONTINUOUS
 62
    7
 10
101.76939437515567
 20
97.047300936978075
 40
0.1643557161898226
  0
CIRCLE
  8
_1-9_
  6
CONTINUOUS
 62
    7
 10
104.72776015059908
 20
99.183894317467917
 40
0.1643557161898226
  0
CIRCLE
  8
_1-9_
  6
CONTINUOUS
 62
    7
 10
103.76825347137348
 20
98.78317789670146
 40
0.1643557161898226
  0
CIRCLE
  8
_1-9_
  6
CONTINUOUS
 62
    7
 10
105.41178588928942
 20
100.42672268660854
 40
0.1643557161898226
  0
CIRCLE
  8
_1-9_
  6
CONTINUOUS
 62
    7
 10
108.69885072512135
 20
98.78317789670146
 40
0.1643557161898226
  0
CIRCLE
  8
_1-9_
  6
CONTINUOUS
 62
    7
 10
104.75437539652127
 20
100.42672268660854
 40
0.1643557161898226
  0
CIRCLE
  8
_1-9_
  6
CONTINUOUS
 62
    7
 10
107.21966783739965
 20
100.42672268660854
 40
0.1643557161898226
  0
CIRCLE
  8
_1-9_
  6
CONTINUOUS
 62
    7
 10
110.67109457541697
 20
101.90589320233912
 40
0.1643557161898226
  0
CIRCLE
  8
_1-9_
  6
CONTINUOUS
 62
    7
 10
114.61557918301041
 20
102.89201512748693
 40
0.1643557161898226
  0
CIRCLE
  8
_1-9_
  6
CONTINUOUS
 62
    7
 10
112.80768486290906
 20
100.75542174699706
 40
0.1643557161898226
  0
CIRCLE
  8
_1-9_
  6
CONTINUOUS
 62
    7
 10
112.80768486290906
 20
103.87813705263474
 40
0.1643557161898226
  0
CIRCLE
  8
_1-9_
  6
CONTINUOUS
 62
    7
 10
115.76605063835247
 20
102.23459226272763
 40
0.1643557161898226
  0
CIRCLE
  8
_1-9_
  6
CONTINUOUS
 62
    7
 10
110.17803361284307
 20
102.89201512748693
 40
0.1643557161898226
  0
CIRCLE
  8
_1-9_
  6
CONTINUOUS
 62
    7
 10
110.17803361284307
 20
100.2623731564143
 40
0.1643557161898226
  0
CIRCLE
  8
_1-9_
  6
CONTINUOUS
 62
    7
 10
113.13639629528869
 20
102.39896653690417
 40
0.1643557161898226
  0
CIRCLE
  8
_1-9_
  6
CONTINUOUS
 62
    7
 10
109.70376261180051
 20
101.50361791069005
 40
0.1643557161898226
  0
CIRCLE
  8
_1-9_
  6
CONTINUOUS
 62
    7
 10
111.34729502971648
 20
103.14716270059716
 40
0.1643557161898226
  0
CIRCLE
  8
_1-9_
  6
CONTINUOUS
 62
    7
 10
114.6343598655484
 20
101.50361791069005
 40
0.1643557161898226
  0
CIRCLE
  8
_1-9_
  6
CONTINUOUS
 62
    7
 10
110.68988453694833
 20
103.14716270059716
 40
0.1643557161898226
  0
CIRCLE
  8
_1-9_
  6
CONTINUOUS
 62
    7
 10
113.15517697782671
 20
103.14716270059716
 40
0.1643557161898226
  0
CIRCLE
  8
_1-9_
  6
CONTINUOUS
 62
    7
 10
116.606603715844
 20
104.62633321632774
 40
0.1643557161898226
  0
CIRCLE
  8
_1-9_
  6
CONTINUOUS
 62
    7
 10
120.55109141643523
 20
105.61245514147552
 40
0.1643557161898226
  0
CIRCLE
  8
_1-9_
  6
CONTINUOUS
 62
    7
 10
118.74319709633387
 20
103.47586176098565
 40
0.1643557161898226
  0
CIRCLE
  8
_1-9_
  6
CONTINUOUS
 62
    7
 10
118.74319709633387
 20
106.59857706662333
 40
0.1643557161898226
  0
CIRCLE
  8
_1-9_
  6
CONTINUOUS
 62
    7
 10
121.70156287177728
 20
104.95503227671625
 40
0.1643557161898226
  0
CIRCLE
  8
_1-9_
  6
CONTINUOUS
 62
    7
 10
116.1135427532701
 20
105.61245514147552
 40
0.1643557161898226
  0
CIRCLE
  8
_1-9_
  6
CONTINUOUS
 62
    7
 10
116.1135427532701
 20
102.98281317040289
 40
0.1643557161898226
  0
CIRCLE
  8
_1-9_
  6
CONTINUOUS
 62
    7
 10
119.07190852871354
 20
105.11940655089276
 40
0.1643557161898226
  0
CIRCLE
  8
_1-9_
  6
CONTINUOUS
 62
    7
 10
113.90808687014088
 20
103.97675419394596
 40
0.1643557161898226
  0
CIRCLE
  8
_1-9_
  6
CONTINUOUS
 62
    7
 10
115.55161928805684
 20
105.62029898385308
 40
0.1643557161898226
  0
CIRCLE
  8
_1-9_
  6
CONTINUOUS
 62
    7
 10
118.83868412388877
 20
103.97675419394596
 40
0.1643557161898226
  0
CIRCLE
  8
_1-9_
  6
CONTINUOUS
 62
    7
 10
114.89420879528869
 20
105.62029898385308
 40
0.1643557161898226
  0
CIRCLE
  8
_1-9_
  6
CONTINUOUS
 62
    7
 10
117.35950123616708
 20
105.62029898385308
 40
0.1643557161898226
  0
CIRCLE
  8
_1-9_
  6
CONTINUOUS
 62
    7
 10
120.81092797418439
 20
107.09946949958365
 40
0.1643557161898226
  0
CIRCLE
  8
_1-9_
  6
CONTINUOUS
 62
    7
 10
124.75541567477562
 20
108.08559142473143
 40
0.1643557161898226
  0
CIRCLE
  8
_1-9_
  6
CONTINUOUS
 62
    7
 10
122.94752135467427
 20
105.94899804424156
 40
0.1643557161898226
  0
CIRCLE
  8
_1-9_
  6
CONTINUOUS
 62
    7
 10
122.94752135467427
 20
109.07171334987925
 40
0.1643557161898226
  0
CIRCLE
  8
_1-9_
  6
CONTINUOUS
 62
    7
 10
125.90588713011765
 20
107.42816855997216
 40
0.1643557161898226
  0
CIRCLE
  8
_1-9_
  6
CONTINUOUS
 62
    7
 10
120.31786701161049
 20
108.08559142473143
 40
0.1643557161898226
  0
CIRCLE
  8
_1-9_
  6
CONTINUOUS
 62
    7
 10
120.31786701161049
 20
105.4559494536588
 40
0.1643557161898226
  0
CIRCLE
  8
_1-9_
  6
CONTINUOUS
 62
    7
 10
123.2762327870539
 20
107.59254283414867
 40
0.1643557161898226
  0
CIRCLE
  8
_1-9_
  6
CONTINUOUS
 62
    7
 10
117.61777892303364
 20
106.44987810521076
 40
0.1643557161898226
  0
CIRCLE
  8
_1-9_
  6
CONTINUOUS
 62
    7
 10
119.26131134094958
 20
108.09342289511784
 40
0.1643557161898226
  0
CIRCLE
  8
_1-9_
  6
CONTINUOUS
 62
    7
 10
122.5483761767815
 20
106.44987810521076
 40
0.1643557161898226
  0
CIRCLE
  8
_1-9_
  6
CONTINUOUS
 62
    7
 10
118.60390084818142
 20
108.09342289511784
 40
0.1643557161898226
  0
CIRCLE
  8
_1-9_
  6
CONTINUOUS
 62
    7
 10
121.06919328905981
 20
108.09342289511784
 40
0.1643557161898226
  0
CIRCLE
  8
_1-9_
  6
CONTINUOUS
 62
    7
 10
124.52062002707713
 20
109.57259341084841
 40
0.1643557161898226
  0
CIRCLE
  8
_1-9_
  6
CONTINUOUS
 62
    7
 10
128.46510772766834
 20
110.55871533599623
 40
0.1643557161898226
  0
CIRCLE
  8
_1-9_
  6
CONTINUOUS
 62
    7
 10
126.65721340756697
 20
108.42212195550636
 40
0.1643557161898226
  0
CIRCLE
  8
_1-9_
  6
CONTINUOUS
 62
    7
 10
126.65721340756697
 20
111.54483726114404
 40
0.1643557161898226
  0
CIRCLE
  8
_1-9_
  6
CONTINUOUS
 62
    7
 10
129.61557918301042
 20
109.90129247123693
 40
0.1643557161898226
  0
CIRCLE
  8
_1-9_
  6
CONTINUOUS
 62
    7
 10
124.02755906450322
 20
110.55871533599623
 40
0.1643557161898226
  0
CIRCLE
  8
_1-9_
  6
CONTINUOUS
 62
    7
 10
124.02755906450322
 20
107.9290733649236
 40
0.1643557161898226
  0
CIRCLE
  8
_1-9_
  6
CONTINUOUS
 62
    7
 10
126.98592483994663
 20
110.06566674541347
 40
0.1643557161898226
  0
CIRCLE
  8
_1-9_
  6
CONTINUOUS
 62
    7
 10
122.31672301483052
 20
108.42838218301904
 40
0.1643557161898226
  0
CIRCLE
  8
_1-9_
  6
CONTINUOUS
 62
    7
 10
123.96025543274645
 20
110.07192697292612
 40
0.1643557161898226
  0
CIRCLE
  8
_1-9_
  6
CONTINUOUS
 62
    7
 10
127.24732026857838
 20
108.42838218301904
 40
0.1643557161898226
  0
CIRCLE
  8
_1-9_
  6
CONTINUOUS
 62
    7
 10
123.3028449399783
 20
110.07192697292612
 40
0.1643557161898226
  0
CIRCLE
  8
_1-9_
  6
CONTINUOUS
 62
    7
 10
125.76813738085669
 20
110.07192697292612
 40
0.1643557161898226
  0
CIRCLE
  8
_1-9_
  6
CONTINUOUS
 62
    7
 10
129.21956411887402
 20
111.55109748865669
 40
0.1643557161898226
  0
CIRCLE
  8
_1-9_
  6
CONTINUOUS
 62
    7
 10
133.16405181946521
 20
112.53721941380451
 40
0.1643557161898226
  0
CIRCLE
  8
_1-9_
  6
CONTINUOUS
 62
    7
 10
131.35615749936386
 20
110.40062603331464
 40
0.1643557161898226
  0
CIRCLE
  8
_1-9_
  6
CONTINUOUS
 62
    7
 10
131.35615749936386
 20
113.52334133895229
 40
0.1643557161898226
  0
CIRCLE
  8
_1-9_
  6
CONTINUOUS
 62
    7
 10
134.3145232748073
 20
111.87979654904521
 40
0.1643557161898226
  0
CIRCLE
  8
_1-9_
  6
CONTINUOUS
 62
    7
 10
128.72650315630011
 20
112.53721941380451
 40
0.1643557161898226
  0
CIRCLE
  8
_1-9_
  6
CONTINUOUS
 62
    7
 10
128.72650315630011
 20
109.90757744273188
 40
0.1643557161898226
  0
CIRCLE
  8
_1-9_
  6
CONTINUOUS
 62
    7
 10
131.68486893174349
 20
112.04417082322172
 40
0.1643557161898226
  0
CIRCLE
  8
_1-9_
  6
CONTINUOUS
 62
    7
 10
127.26298320935119
 20
110.15957015810349
 40
0.1643557161898226
  0
CIRCLE
  8
_1-9_
  6
CONTINUOUS
 62
    7
 10
128.90651562726714
 20
111.80311494801057
 40
0.1643557161898226
  0
CIRCLE
  8
_1-9_
  6
CONTINUOUS
 62
    7
 10
132.19358046309907
 20
110.15957015810349
 40
0.1643557161898226
  0
CIRCLE
  8
_1-9_
  6
CONTINUOUS
 62
    7
 10
128.24910513449902
 20
111.80311494801057
 40
0.1643557161898226
  0
CIRCLE
  8
_1-9_
  6
CONTINUOUS
 62
    7
 10
130.7143975753774
 20
111.80311494801057
 40
0.1643557161898226
  0
CIRCLE
  8
_1-9_
  6
CONTINUOUS
 62
    7
 10
134.16582431339469
 20
113.28228546374115
 40
0.1643557161898226
  0
CIRCLE
  8
_1-9_
  6
CONTINUOUS
 62
    7
 10
138.11031201398589
 20
114.26840738888896
 40
0.1643557161898226
  0
CIRCLE
  8
_1-9_
  6
CONTINUOUS
 62
    7
 10
136.30241769388454
 20
112.13181400839909
 40
0.1643557161898226
  0
CIRCLE
  8
_1-9_
  6
CONTINUOUS
 62
    7
 10
136.30241769388454
 20
115.25452931403677
 40
0.1643557161898226
  0
CIRCLE
  8
_1-9_
  6
CONTINUOUS
 62
    7
 10
139.26078346932798
 20
113.61098452412966
 40
0.1643557161898226
  0
CIRCLE
  8
_1-9_
  6
CONTINUOUS
 62
    7
 10
133.67276335082079
 20
114.26840738888896
 40
0.1643557161898226
  0
CIRCLE
  8
_1-9_
  6
CONTINUOUS
 62
    7
 10
133.67276335082079
 20
111.63876541781633
 40
0.1643557161898226
  0
CIRCLE
  8
_1-9_
  6
CONTINUOUS
 62
    7
 10
136.63112912626423
 20
113.7753587983062
 40
0.1643557161898226
  0
CIRCLE
  8
_1-9_
  6
CONTINUOUS
 62
    7
 10
132.20924340387188
 20
112.13807423591177
 40
0.1643557161898226
  0
CIRCLE
  8
_1-9_
  6
CONTINUOUS
 62
    7
 10
133.85277582178787
 20
113.78161902581886
 40
0.1643557161898226
  0
CIRCLE
  8
_1-9_
  6
CONTINUOUS
 62
    7
 10
137.1398406576198
 20
112.13807423591177
 40
0.1643557161898226
  0
CIRCLE
  8
_1-9_
  6
CONTINUOUS
 62
    7
 10
133.19536532901969
 20
113.78161902581886
 40
0.1643557161898226
  0
CIRCLE
  8
_1-9_
  6
CONTINUOUS
 62
    7
 10
135.66065776989808
 20
113.78161902581886
 40
0.1643557161898226
  0
CIRCLE
  8
_1-9_
  6
CONTINUOUS
 62
    7
 10
139.11208450791537
 20
115.26078954154943
 40
0.1643557161898226
  0
CIRCLE
  8
_1-9_
  6
CONTINUOUS
 62
    7
 10
143.05657220850659
 20
116.24691146669724
 40
0.1643557161898226
  0
CIRCLE
  8
_1-9_
  6
CONTINUOUS
 62
    7
 10
141.24867788840527
 20
114.11031808620737
 40
0.1643557161898226
  0
CIRCLE
  8
_1-9_
  6
CONTINUOUS
 62
    7
 10
141.24867788840527
 20
117.23303339184503
 40
0.1643557161898226
  0
CIRCLE
  8
_1-9_
  6
CONTINUOUS
 62
    7
 10
144.20704366384865
 20
115.58948860193794
 40
0.1643557161898226
  0
CIRCLE
  8
_1-9_
  6
CONTINUOUS
 62
    7
 10
138.61902354534146
 20
116.24691146669724
 40
0.1643557161898226
  0
CIRCLE
  8
_1-9_
  6
CONTINUOUS
 62
    7
 10
138.61902354534146
 20
113.61726949562461
 40
0.1643557161898226
  0
CIRCLE
  8
_1-9_
  6
CONTINUOUS
 62
    7
 10
141.5773893207849
 20
115.75386287611445
 40
0.1643557161898226
  0
CIRCLE
  8
_1-9_
  6
CONTINUOUS
 62
    7
 10
137.65012961784464
 20
114.61119814717654
 40
0.1643557161898226
  0
CIRCLE
  8
_1-9_
  6
CONTINUOUS
 62
    7
 10
139.29366203576063
 20
116.25474293708365
 40
0.1643557161898226
  0
CIRCLE
  8
_1-9_
  6
CONTINUOUS
 62
    7
 10
142.58072687159253
 20
114.61119814717654
 40
0.1643557161898226
  0
CIRCLE
  8
_1-9_
  6
CONTINUOUS
 62
    7
 10
138.63625154299245
 20
116.25474293708365
 40
0.1643557161898226
  0
CIRCLE
  8
_1-9_
  6
CONTINUOUS
 62
    7
 10
141.10154398387084
 20
116.25474293708365
 40
0.1643557161898226
  0
CIRCLE
  8
_1-9_
  6
CONTINUOUS
 62
    7
 10
144.55297072188813
 20
117.73391345281422
 40
0.1643557161898226
  0
CIRCLE
  8
_1-9_
  6
CONTINUOUS
 62
    7
 10
148.49745842247935
 20
118.72003537796201
 40
0.1643557161898226
  0
CIRCLE
  8
_1-9_
  6
CONTINUOUS
 62
    7
 10
146.68956410237803
 20
116.58344199747216
 40
0.1643557161898226
  0
CIRCLE
  8
_1-9_
  6
CONTINUOUS
 62
    7
 10
146.68956410237803
 20
119.70615730310983
 40
0.1643557161898226
  0
CIRCLE
  8
_1-9_
  6
CONTINUOUS
 62
    7
 10
149.64792987782144
 20
118.06261251320274
 40
0.1643557161898226
  0
CIRCLE
  8
_1-9_
  6
CONTINUOUS
 62
    7
 10
144.05990975931422
 20
118.72003537796201
 40
0.1643557161898226
  0
CIRCLE
  8
_1-9_
  6
CONTINUOUS
 62
    7
 10
144.05990975931422
 20
116.09039340688938
 40
0.1643557161898226
  0
CIRCLE
  8
_1-9_
  6
CONTINUOUS
 62
    7
 10
147.01827553475766
 20
118.22698678737925
 40
0.1643557161898226
  0
CIRCLE
  8
_1-9_
  6
CONTINUOUS
 62
    7
 10
143.33832574854566
 20
118.07358646933659
 40
0.1643557161898226
  0
CIRCLE
  8
_1-9_
  6
CONTINUOUS
 62
    7
 10
144.98185816646162
 20
119.7171312592437
 40
0.1643557161898226
  0
CIRCLE
  8
_1-9_
  6
CONTINUOUS
 62
    7
 10
148.26892300229355
 20
118.07358646933659
 40
0.1643557161898226
  0
CIRCLE
  8
_1-9_
  6
CONTINUOUS
 62
    7
 10
144.32444767369347
 20
119.7171312592437
 40
0.1643557161898226
  0
CIRCLE
  8
_1-9_
  6
CONTINUOUS
 62
    7
 10
146.78974011457183
 20
119.7171312592437
 40
0.1643557161898226
  0
CIRCLE
  8
_1-9_
  6
CONTINUOUS
 62
    7
 10
150.24116685258917
 20
121.19630177497427
 40
0.1643557161898226
  0
CIRCLE
  8
_1-9_
  6
CONTINUOUS
 62
    7
 10
154.18565455318037
 20
122.18242370012207
 40
0.1643557161898226
  0
CIRCLE
  8
_1-9_
  6
CONTINUOUS
 62
    7
 10
152.37776023307904
 20
120.04583031963222
 40
0.1643557161898226
  0
CIRCLE
  8
_1-9_
  6
CONTINUOUS
 62
    7
 10
152.37776023307904
 20
123.16854562526989
 40
0.1643557161898226
  0
CIRCLE
  8
_1-9_
  6
CONTINUOUS
 62
    7
 10
155.33612600852246
 20
121.52500083536279
 40
0.1643557161898226
  0
CIRCLE
  8
_1-9_
  6
CONTINUOUS
 62
    7
 10
149.74810589001527
 20
122.18242370012207
 40
0.1643557161898226
  0
CIRCLE
  8
_1-9_
  6
CONTINUOUS
 62
    7
 10
149.74810589001527
 20
119.55278172904943
 40
0.1643557161898226
  0
CIRCLE
  8
_1-9_
  6
CONTINUOUS
 62
    7
 10
152.70647166545865
 20
121.6893751095393
 40
0.1643557161898226
  0
CIRCLE
  8
_1-9_
  6
CONTINUOUS
 62
    7
 10
148.28458594306636
 20
120.05209054714489
 40
0.1643557161898226
  0
CIRCLE
  8
_1-9_
  6
CONTINUOUS
 62
    7
 10
149.92811836098232
 20
121.69563533705197
 40
0.1643557161898226
  0
CIRCLE
  8
_1-9_
  6
CONTINUOUS
 62
    7
 10
153.21518319681425
 20
120.05209054714489
 40
0.1643557161898226
  0
CIRCLE
  8
_1-9_
  6
CONTINUOUS
 62
    7
 10
149.27070786821417
 20
121.69563533705197
 40
0.1643557161898226
  0
CIRCLE
  8
_1-9_
  6
CONTINUOUS
 62
    7
 10
151.73600030909253
 20
121.69563533705197
 40
0.1643557161898226
  0
CIRCLE
  8
_1-9_
  6
CONTINUOUS
 62
    7
 10
155.18742704710985
 20
123.17480585278255
 40
0.1643557161898226
  0
CIRCLE
  8
_1-9_
  6
CONTINUOUS
 62
    7
 10
159.13191474770107
 20
124.16092777793035
 40
0.1643557161898226
  0
CIRCLE
  8
_1-9_
  6
CONTINUOUS
 62
    7
 10
157.32402042759972
 20
122.02433439744047
 40
0.1643557161898226
  0
CIRCLE
  8
_1-9_
  6
CONTINUOUS
 62
    7
 10
157.32402042759972
 20
125.14704970307815
 40
0.1643557161898226
  0
CIRCLE
  8
_1-9_
  6
CONTINUOUS
 62
    7
 10
160.28238620304313
 20
123.50350491317104
 40
0.1643557161898226
  0
CIRCLE
  8
_1-9_
  6
CONTINUOUS
 62
    7
 10
154.69436608453594
 20
124.16092777793035
 40
0.1643557161898226
  0
CIRCLE
  8
_1-9_
  6
CONTINUOUS
 62
    7
 10
154.69436608453594
 20
121.53128580685771
 40
0.1643557161898226
  0
CIRCLE
  8
_1-9_
  6
CONTINUOUS
 62
    7
 10
157.65273185997938
 20
123.66787918734758
 40
0.1643557161898226
  0
CIRCLE
  8
_1-9_
  6
CONTINUOUS
 62
    7
 10
155.95128615157563
 20
123.51447886930492
 40
0.1643557161898226
  0
CIRCLE
  8
_1-9_
  6
CONTINUOUS
 62
    7
 10
157.59481856949162
 20
125.15802365921202
 40
0.1643557161898226
  0
CIRCLE
  8
_1-9_
  6
CONTINUOUS
 62
    7
 10
160.88188340532355
 20
123.51447886930492
 40
0.1643557161898226
  0
CIRCLE
  8
_1-9_
  6
CONTINUOUS
 62
    7
 10
156.93740807672344
 20
125.15802365921202
 40
0.1643557161898226
  0
CIRCLE
  8
_1-9_
  6
CONTINUOUS
 62
    7
 10
159.40270051760183
 20
125.15802365921202
 40
0.1643557161898226
  0
CIRCLE
  8
_1-9_
  6
CONTINUOUS
 62
    7
 10
162.85412725561915
 20
126.63719417494259
 40
0.1643557161898226
  0
CIRCLE
  8
_1-9_
  6
CONTINUOUS
 62
    7
 10
166.7986087702148
 20
127.62331610009041
 40
0.1643557161898226
  0
CIRCLE
  8
_1-9_
  6
CONTINUOUS
 62
    7
 10
164.99071445011344
 20
125.48672271960052
 40
0.1643557161898226
  0
CIRCLE
  8
_1-9_
  6
CONTINUOUS
 62
    7
 10
164.99071445011344
 20
128.60943802523821
 40
0.1643557161898226
  0
CIRCLE
  8
_1-9_
  6
CONTINUOUS
 62
    7
 10
167.94908022555686
 20
126.96589323533109
 40
0.1643557161898226
  0
CIRCLE
  8
_1-9_
  6
CONTINUOUS
 62
    7
 10
162.36106629304524
 20
127.62331610009041
 40
0.1643557161898226
  0
CIRCLE
  8
_1-9_
  6
CONTINUOUS
 62
    7
 10
162.36106629304524
 20
124.99367412901776
 40
0.1643557161898226
  0
CIRCLE
  8
_1-9_
  6
CONTINUOUS
 62
    7
 10
165.31943825448423
 20
127.13026750950763
 40
0.1643557161898226
  0
CIRCLE
  8
_1-9_
  6
CONTINUOUS
 62
    7
 10
162.62872813518521
 20
125.74028667784589
 40
0.1643557161898226
  0
CIRCLE
  8
_1-9_
  6
CONTINUOUS
 62
    7
 10
164.27226055310121
 20
127.38383146775297
 40
0.1643557161898226
  0
CIRCLE
  8
_1-9_
  6
CONTINUOUS
 62
    7
 10
167.55932538893313
 20
125.74028667784589
 40
0.1643557161898226
  0
CIRCLE
  8
_1-9_
  6
CONTINUOUS
 62
    7
 10
163.61485006033303
 20
127.38383146775297
 40
0.1643557161898226
  0
CIRCLE
  8
_1-9_
  6
CONTINUOUS
 62
    7
 10
166.08014250121141
 20
127.38383146775297
 40
0.1643557161898226
  0
CIRCLE
  8
_1-9_
  6
CONTINUOUS
 62
    7
 10
169.53156923922873
 20
128.86300198348354
 40
0.1643557161898226
  0
CIRCLE
  8
_1-9_
  6
CONTINUOUS
 62
    7
 10
173.47605693981996
 20
129.84912390863136
 40
0.1643557161898226
  0
CIRCLE
  8
_1-9_
  6
CONTINUOUS
 62
    7
 10
171.6681626197186
 20
127.7125305281415
 40
0.1643557161898226
  0
CIRCLE
  8
_1-9_
  6
CONTINUOUS
 62
    7
 10
171.6681626197186
 20
130.83524583377917
 40
0.1643557161898226
  0
CIRCLE
  8
_1-9_
  6
CONTINUOUS
 62
    7
 10
174.62652839516201
 20
129.19170104387206
 40
0.1643557161898226
  0
CIRCLE
  8
_1-9_
  6
CONTINUOUS
 62
    7
 10
169.03850827665482
 20
129.84912390863136
 40
0.1643557161898226
  0
CIRCLE
  8
_1-9_
  6
CONTINUOUS
 62
    7
 10
169.03850827665482
 20
127.21948193755873
 40
0.1643557161898226
  0
CIRCLE
  8
_1-9_
  6
CONTINUOUS
 62
    7
 10
171.99687405209824
 20
129.3560753180486
 40
0.1643557161898226
  0
CIRCLE
  8
_1-9_
  6
CONTINUOUS
 62
    7
 10
166.33842018807798
 20
127.47148702492149
 40
0.1643557161898226
  0
CIRCLE
  8
_1-9_
  6
CONTINUOUS
 62
    7
 10
167.98195260599394
 20
129.11503181482857
 40
0.1643557161898226
  0
CIRCLE
  8
_1-9_
  6
CONTINUOUS
 62
    7
 10
171.26901744182584
 20
127.47148702492149
 40
0.1643557161898226
  0
CIRCLE
  8
_1-9_
  6
CONTINUOUS
 62
    7
 10
167.32454211322579
 20
129.11503181482857
 40
0.1643557161898226
  0
CIRCLE
  8
_1-9_
  6
CONTINUOUS
 62
    7
 10
169.78983455410415
 20
129.11503181482857
 40
0.1643557161898226
  0
CIRCLE
  8
_1-9_
  6
CONTINUOUS
 62
    7
 10
173.24126129212146
 20
130.59420233055914
 40
0.1643557161898226
  0
CIRCLE
  8
_1-9_
  6
CONTINUOUS
 62
    7
 10
177.18574899271272
 20
131.58032425570696
 40
0.1643557161898226
  0
CIRCLE
  8
_1-9_
  6
CONTINUOUS
 62
    7
 10
175.37785467261136
 20
129.44373087521708
 40
0.1643557161898226
  0
CIRCLE
  8
_1-9_
  6
CONTINUOUS
 62
    7
 10
175.37785467261136
 20
132.56644618085477
 40
0.1643557161898226
  0
CIRCLE
  8
_1-9_
  6
CONTINUOUS
 62
    7
 10
178.33622044805475
 20
130.92290139094766
 40
0.1643557161898226
  0
CIRCLE
  8
_1-9_
  6
CONTINUOUS
 62
    7
 10
172.74820032954756
 20
131.58032425570696
 40
0.1643557161898226
  0
CIRCLE
  8
_1-9_
  6
CONTINUOUS
 62
    7
 10
172.74820032954756
 20
128.95068228463433
 40
0.1643557161898226
  0
CIRCLE
  8
_1-9_
  6
CONTINUOUS
 62
    7
 10
175.706566104991
 20
131.0872756651242
 40
0.1643557161898226
  0
CIRCLE
  8
_1-9_
  6
CONTINUOUS
 62
    7
 10
172.76856462695042
 20
130.19191466691896
 40
0.1643557161898226
  0
CIRCLE
  8
_1-9_
  6
CONTINUOUS
 62
    7
 10
174.41209704486641
 20
131.83545945682604
 40
0.1643557161898226
  0
CIRCLE
  8
_1-9_
  6
CONTINUOUS
 62
    7
 10
177.69916188069834
 20
130.19191466691896
 40
0.1643557161898226
  0
CIRCLE
  8
_1-9_
  6
CONTINUOUS
 62
    7
 10
173.75468655209824
 20
131.83545945682604
 40
0.1643557161898226
  0
CIRCLE
  8
_1-9_
  6
CONTINUOUS
 62
    7
 10
176.21997899297662
 20
131.83545945682604
 40
0.1643557161898226
  0
CIRCLE
  8
_1-9_
  6
CONTINUOUS
 62
    7
 10
179.67140573099397
 20
133.31462997255662
 40
0.1643557161898226
  0
CIRCLE
  8
_1-9_
  6
CONTINUOUS
 62
    7
 10
183.61589343158516
 20
134.30075189770443
 40
0.1643557161898226
  0
CIRCLE
  8
_1-9_
  6
CONTINUOUS
 62
    7
 10
181.80799911148381
 20
132.16415851721456
 40
0.1643557161898226
  0
CIRCLE
  8
_1-9_
  6
CONTINUOUS
 62
    7
 10
181.80799911148381
 20
135.28687382285221
 40
0.1643557161898226
  0
CIRCLE
  8
_1-9_
  6
CONTINUOUS
 62
    7
 10
184.76636488692719
 20
133.64332903294513
 40
0.1643557161898226
  0
CIRCLE
  8
_1-9_
  6
CONTINUOUS
 62
    7
 10
179.17834476842006
 20
134.30075189770443
 40
0.1643557161898226
  0
CIRCLE
  8
_1-9_
  6
CONTINUOUS
 62
    7
 10
179.17834476842006
 20
131.6711099266318
 40
0.1643557161898226
  0
CIRCLE
  8
_1-9_
  6
CONTINUOUS
 62
    7
 10
182.13671054386344
 20
133.80770330712164
 40
0.1643557161898226
  0
CIRCLE
  8
_1-9_
  6
CONTINUOUS
 62
    7
 10
182.16645281054417
 20
135.38549096416347
 40
0.1643557161898226
  0
CIRCLE
  8
_1-9_
  6
CONTINUOUS
 62
    7
 10
183.80998522846016
 20
137.02903575407055
 40
0.1643557161898226
  0
CIRCLE
  8
_1-9_
  6
CONTINUOUS
 62
    7
 10
187.09705006429209
 20
135.38549096416347
 40
0.1643557161898226
  0
CIRCLE
  8
_1-9_
  6
CONTINUOUS
 62
    7
 10
183.15257473569199
 20
137.02903575407055
 40
0.1643557161898226
  0
CIRCLE
  8
_1-9_
  6
CONTINUOUS
 62
    7
 10
185.61786717657037
 20
137.02903575407055
 40
0.1643557161898226
  0
CIRCLE
  8
_1-9_
  6
CONTINUOUS
 62
    7
 10
189.06929391458769
 20
138.50820626980112
 40
0.1643557161898226
  0
CIRCLE
  8
_1-9_
  6
CONTINUOUS
 62
    7
 10
193.01378161517891
 20
139.49432819494893
 40
0.1643557161898226
  0
CIRCLE
  8
_1-9_
  6
CONTINUOUS
 62
    7
 10
191.20588729507756
 20
137.35773481445906
 40
0.1643557161898226
  0
CIRCLE
  8
_1-9_
  6
CONTINUOUS
 62
    7
 10
191.20588729507756
 20
140.48045012009675
 40
0.1643557161898226
  0
CIRCLE
  8
_1-9_
  6
CONTINUOUS
 62
    7
 10
194.16425307052094
 20
138.83690533018964
 40
0.1643557161898226
  0
CIRCLE
  8
_1-9_
  6
CONTINUOUS
 62
    7
 10
188.57623295201375
 20
139.49432819494893
 40
0.1643557161898226
  0
CIRCLE
  8
_1-9_
  6
CONTINUOUS
 62
    7
 10
188.57623295201375
 20
136.8646862238763
 40
0.1643557161898226
  0
CIRCLE
  8
_1-9_
  6
CONTINUOUS
 62
    7
 10
191.53459872745719
 20
139.00127960436618
 40
0.1643557161898226
  0
CIRCLE
  8
_1-9_
  6
CONTINUOUS
 62
    7
 10
189.09122945486428
 20
138.35324708087589
 40
0.1643557161898226
  0
CIRCLE
  8
_1-9_
  6
CONTINUOUS
 62
    7
 10
190.73476187278027
 20
139.99679187078297
 40
0.1643557161898226
  0
CIRCLE
  8
_1-9_
  6
CONTINUOUS
 62
    7
 10
194.0218267086122
 20
138.35324708087589
 40
0.1643557161898226
  0
CIRCLE
  8
_1-9_
  6
CONTINUOUS
 62
    7
 10
190.07735138001209
 20
139.99679187078297
 40
0.1643557161898226
  0
CIRCLE
  8
_1-9_
  6
CONTINUOUS
 62
    7
 10
192.54264382089048
 20
139.99679187078297
 40
0.1643557161898226
  0
CIRCLE
  8
_1-9_
  6
CONTINUOUS
 62
    7
 10
195.99407055890779
 20
141.47596238651354
 40
0.1643557161898226
  0
CIRCLE
  8
_1-9_
  6
CONTINUOUS
 62
    7
 10
199.93855825949902
 20
142.46208431166136
 40
0.1643557161898226
  0
CIRCLE
  8
_1-9_
  6
CONTINUOUS
 62
    7
 10
198.13066393939766
 20
140.32549093117149
 40
0.1643557161898226
  0
CIRCLE
  8
_1-9_
  6
CONTINUOUS
 62
    7
 10
198.13066393939766
 20
143.44820623680914
 40
0.1643557161898226
  0
CIRCLE
  8
_1-9_
  6
CONTINUOUS
 62
    7
 10
201.08902971484105
 20
141.80466144690206
 40
0.1643557161898226
  0
CIRCLE
  8
_1-9_
  6
CONTINUOUS
 62
    7
 10
195.50100959633386
 20
142.46208431166136
 40
0.1643557161898226
  0
CIRCLE
  8
_1-9_
  6
CONTINUOUS
 62
    7
 10
195.50100959633386
 20
139.83244234058873
 40
0.1643557161898226
  0
CIRCLE
  8
_1-9_
  6
CONTINUOUS
 62
    7
 10
198.4593753717773
 20
141.96903572107857
 40
0.1643557161898226
  0
CIRCLE
  8
_1-9_
  6
CONTINUOUS
 62
    7
 10
198.48911763845803
 20
142.31025523649242
 40
0.1643557161898226
  0
CIRCLE
  8
_1-9_
  6
CONTINUOUS
 62
    7
 10
200.13265005637402
 20
143.95380002639953
 40
0.1643557161898226
  0
CIRCLE
  8
_1-9_
  6
CONTINUOUS
 62
    7
 10
199.47523956360584
 20
143.95380002639953
 40
0.1643557161898226
  0
CIRCLE
  8
_1-9_
  6
CONTINUOUS
 62
    7
 10
161.39217236554842
 20
129.94461093618625
 40
0.1643557161898226
  0
CIRCLE
  8
_1-9_
  6
CONTINUOUS
 62
    7
 10
163.03570478346438
 20
131.58815572609336
 40
0.1643557161898226
  0
CIRCLE
  8
_1-9_
  6
CONTINUOUS
 62
    7
 10
166.32276961929631
 20
129.94461093618625
 40
0.1643557161898226
  0
CIRCLE
  8
_1-9_
  6
CONTINUOUS
 62
    7
 10
162.37829429069623
 20
131.58815572609336
 40
0.1643557161898226
  0
CIRCLE
  8
_1-9_
  6
CONTINUOUS
 62
    7
 10
164.84358673157459
 20
131.58815572609336
 40
0.1643557161898226
  0
CIRCLE
  8
_1-9_
  6
CONTINUOUS
 62
    7
 10
168.29501346959191
 20
133.06732624182393
 40
0.1643557161898226
  0
CIRCLE
  8
_1-9_
  6
CONTINUOUS
 62
    7
 10
172.23950117018313
 20
134.05344816697175
 40
0.1643557161898226
  0
CIRCLE
  8
_1-9_
  6
CONTINUOUS
 62
    7
 10
170.43160685008178
 20
131.91685478648188
 40
0.1643557161898226
  0
CIRCLE
  8
_1-9_
  6
CONTINUOUS
 62
    7
 10
170.43160685008178
 20
135.03957009211953
 40
0.1643557161898226
  0
CIRCLE
  8
_1-9_
  6
CONTINUOUS
 62
    7
 10
173.38997262552519
 20
133.39602530221245
 40
0.1643557161898226
  0
CIRCLE
  8
_1-9_
  6
CONTINUOUS
 62
    7
 10
167.801952507018
 20
134.05344816697175
 40
0.1643557161898226
  0
CIRCLE
  8
_1-9_
  6
CONTINUOUS
 62
    7
 10
167.801952507018
 20
131.42380619589909
 40
0.1643557161898226
  0
CIRCLE
  8
_1-9_
  6
CONTINUOUS
 62
    7
 10
170.76031828246141
 20
133.56039957638896
 40
0.1643557161898226
  0
CIRCLE
  8
_1-9_
  6
CONTINUOUS
 62
    7
 10
153.97278825976292
 20
125.49298294711321
 40
0.1643557161898226
  0
CIRCLE
  8
_1-9_
  6
CONTINUOUS
 62
    7
 10
155.61632067767891
 20
127.1365277370203
 40
0.1643557161898226
  0
CIRCLE
  8
_1-9_
  6
CONTINUOUS
 62
    7
 10
158.90338551351084
 20
125.49298294711321
 40
0.1643557161898226
  0
CIRCLE
  8
_1-9_
  6
CONTINUOUS
 62
    7
 10
154.95891018491074
 20
127.1365277370203
 40
0.1643557161898226
  0
CIRCLE
  8
_1-9_
  6
CONTINUOUS
 62
    7
 10
157.42420262578912
 20
127.1365277370203
 40
0.1643557161898226
  0
CIRCLE
  8
_1-9_
  6
CONTINUOUS
 62
    7
 10
160.87562936380644
 20
128.61569825275086
 40
0.1643557161898226
  0
CIRCLE
  8
_1-9_
  6
CONTINUOUS
 62
    7
 10
164.82011706439766
 20
129.60182017789867
 40
0.1643557161898226
  0
CIRCLE
  8
_1-9_
  6
CONTINUOUS
 62
    7
 10
163.01222274429631
 20
127.4652267974088
 40
0.1643557161898226
  0
CIRCLE
  8
_1-9_
  6
CONTINUOUS
 62
    7
 10
163.01222274429631
 20
130.58794210304649
 40
0.1643557161898226
  0
CIRCLE
  8
_1-9_
  6
CONTINUOUS
 62
    7
 10
165.97058851973969
 20
128.94439731313938
 40
0.1643557161898226
  0
CIRCLE
  8
_1-9_
  6
CONTINUOUS
 62
    7
 10
160.38256840123253
 20
129.60182017789867
 40
0.1643557161898226
  0
CIRCLE
  8
_1-9_
  6
CONTINUOUS
 62
    7
 10
160.38256840123253
 20
126.97217820682604
 40
0.1643557161898226
  0
CIRCLE
  8
_1-9_
  6
CONTINUOUS
 62
    7
 10
163.34093417667594
 20
129.10877158731591
 40
0.1643557161898226
  0
LINE
  8
_1-9_
  6
CONTINUOUS
 62
    7
 10
203.59133303613154
 20
157.10888394306448
 11
204.82242966468149
 21
154.37311503206362
  0
CIRCLE
  8
_1-9_
  6
CONTINUOUS
 62
    7
 10
200.25168723798964
 20
147.04678685757568
 40
0.1643557161898226
  0
CIRCLE
  8
_1-9_
  6
CONTINUOUS
 62
    7
 10
203.04569729724324
 20
148.52596974529737
 40
0.1643557161898226
  0
CIRCLE
  8
_1-9_
  6
CONTINUOUS
 62
    7
 10
206.82582928164464
 20
148.19726449891328
 40
0.1643557161898226
  0
CIRCLE
  8
_1-9_
  6
CONTINUOUS
 62
    7
 10
202.55263633466933
 20
146.71808161119159
 40
0.1643557161898226
  0
CIRCLE
  8
_1-9_
  6
CONTINUOUS
 62
    7
 10
202.22393108828527
 20
149.1833864240611
 40
0.1643557161898226
  0
CIRCLE
  8
_1-9_
  6
CONTINUOUS
 62
    7
 10
197.95073814130996
 20
148.52596974529737
 40
0.1643557161898226
  0
CIRCLE
  8
_1-9_
  6
CONTINUOUS
 62
    7
 10
206.00406307268665
 20
150.16950216321334
 40
0.1643557161898226
  0
CIRCLE
  8
_1-9_
  6
CONTINUOUS
 62
    7
 10
213.56432394849165
 20
151.31998599054654
 40
0.1643557161898226
  0
CIRCLE
  8
_1-9_
  6
CONTINUOUS
 62
    7
 10
208.46936788555618
 20
149.84080310282482
 40
0.1643557161898226
  0
CIRCLE
  8
_1-9_
  6
CONTINUOUS
 62
    7
 10
210.93466651243011
 20
152.14175219950451
 40
0.1643557161898226
  0
CIRCLE
  8
_1-9_
  6
CONTINUOUS
 62
    7
 10
215.53657398478285
 20
154.44269511018862
 40
0.1643557161898226
  0
CIRCLE
  8
_1-9_
  6
CONTINUOUS
 62
    7
 10
217.18010640269878
 20
156.08623990009573
 40
0.1643557161898226
  0
CIRCLE
  8
_1-9_
  6
CONTINUOUS
 62
    7
 10
220.46717123853071
 20
154.44269511018862
 40
0.1643557161898226
  0
CIRCLE
  8
_1-9_
  6
CONTINUOUS
 62
    7
 10
218.49492738823511
 20
153.45657318504084
 40
0.1643557161898226
  0
CIRCLE
  8
_1-9_
  6
CONTINUOUS
 62
    7
 10
213.39997132529962
 20
154.44269511018862
 40
0.1643557161898226
  0
CIRCLE
  8
_1-9_
  6
CONTINUOUS
 62
    7
 10
216.52269590993063
 20
156.08623990009573
 40
0.1643557161898226
  0
CIRCLE
  8
_1-9_
  6
CONTINUOUS
 62
    7
 10
218.98798835080902
 20
156.08623990009573
 40
0.1643557161898226
  0
CIRCLE
  8
_1-9_
  6
CONTINUOUS
 62
    7
 10
222.43941508882634
 20
157.56541041582631
 40
0.1643557161898226
  0
CIRCLE
  8
_1-9_
  6
CONTINUOUS
 62
    7
 10
226.38390278941753
 20
158.55153234097412
 40
0.1643557161898226
  0
CIRCLE
  8
_1-9_
  6
CONTINUOUS
 62
    7
 10
224.57600846931618
 20
156.41493896048425
 40
0.1643557161898226
  0
CIRCLE
  8
_1-9_
  6
CONTINUOUS
 62
    7
 10
224.57600846931618
 20
159.5376542661219
 40
0.1643557161898226
  0
CIRCLE
  8
_1-9_
  6
CONTINUOUS
 62
    7
 10
239.20347544434787
 20
164.30391436166667
 40
0.1643557161898226
  0
CIRCLE
  8
_1-9_
  6
CONTINUOUS
 62
    7
 10
236.40947157108982
 20
164.46826389186094
 40
0.1643557161898226
  0
CIRCLE
  8
_1-9_
  6
CONTINUOUS
 62
    7
 10
232.95804483307253
 20
162.66036957175959
 40
0.1643557161898226
  0
CIRCLE
  8
_1-9_
  6
CONTINUOUS
 62
    7
 10
237.55994302643191
 20
161.83859717680605
 40
0.1643557161898226
  0
CIRCLE
  8
_1-9_
  6
CONTINUOUS
 62
    7
 10
233.28675626545217
 20
161.83859717680605
 40
0.1643557161898226
  0
CIRCLE
  8
_1-9_
  6
CONTINUOUS
 62
    7
 10
229.34226856486097
 20
162.00297145098256
 40
0.1643557161898226
  0
CIRCLE
  8
_1-9_
  6
CONTINUOUS
 62
    7
 10
229.67097999724061
 20
159.5376542661219
 40
0.1643557161898226
  0
CIRCLE
  8
_1-9_
  6
CONTINUOUS
 62
    7
 10
227.53437424475962
 20
157.89410947621482
 40
0.1643557161898226
  0
CIRCLE
  8
_1-9_
  6
CONTINUOUS
 62
    7
 10
221.94635412625243
 20
158.55153234097412
 40
0.1643557161898226
  0
CIRCLE
  8
_1-9_
  6
CONTINUOUS
 62
    7
 10
221.94635412625243
 20
155.92189036990146
 40
0.1643557161898226
  0
CIRCLE
  8
_1-9_
  6
CONTINUOUS
 62
    7
 10
224.90471990169584
 20
158.05848375039133
 40
0.1643557161898226
  0
CIRCLE
  8
_1-9_
  6
CONTINUOUS
 62
    7
 10
228.19179710951889
 20
160.52377619126972
 40
0.1643557161898226
  0
CIRCLE
  8
_1-9_
  6
CONTINUOUS
 62
    7
 10
239.36783116053769
 20
165.12567438462909
 40
0.1643557161898226
  0
CIRCLE
  8
_1-9_
  6
CONTINUOUS
 62
    7
 10
243.31231886112889
 20
166.11179630977691
 40
0.1643557161898226
  0
CIRCLE
  8
_1-9_
  6
CONTINUOUS
 62
    7
 10
241.50442454102756
 20
163.97520292928704
 40
0.1643557161898226
  0
CIRCLE
  8
_1-9_
  6
CONTINUOUS
 62
    7
 10
241.50442454102756
 20
167.09791823492469
 40
0.1643557161898226
  0
CIRCLE
  8
_1-9_
  6
CONTINUOUS
 62
    7
 10
253.33788764280121
 20
172.02852786066373
 40
0.1643557161898226
  0
CIRCLE
  8
_1-9_
  6
CONTINUOUS
 62
    7
 10
249.88646090478389
 20
170.22063354056237
 40
0.1643557161898226
  0
CIRCLE
  8
_1-9_
  6
CONTINUOUS
 62
    7
 10
250.21517233716355
 20
169.39886114560883
 40
0.1643557161898226
  0
CIRCLE
  8
_1-9_
  6
CONTINUOUS
 62
    7
 10
246.27068463657233
 20
169.56323541978537
 40
0.1643557161898226
  0
CIRCLE
  8
_1-9_
  6
CONTINUOUS
 62
    7
 10
246.59939606895196
 20
167.09791823492469
 40
0.1643557161898226
  0
CIRCLE
  8
_1-9_
  6
CONTINUOUS
 62
    7
 10
244.46279031647097
 20
165.45437344501761
 40
0.1643557161898226
  0
CIRCLE
  8
_1-9_
  6
CONTINUOUS
 62
    7
 10
238.87477019796378
 20
166.11179630977691
 40
0.1643557161898226
  0
CIRCLE
  8
_1-9_
  6
CONTINUOUS
 62
    7
 10
238.87477019796378
 20
163.48215433870425
 40
0.1643557161898226
  0
CIRCLE
  8
_1-9_
  6
CONTINUOUS
 62
    7
 10
241.8331359734072
 20
165.61874771919412
 40
0.1643557161898226
  0
CIRCLE
  8
_1-9_
  6
CONTINUOUS
 62
    7
 10
245.12021318123027
 20
168.0840401600725
 40
0.1643557161898226
  0
CIRCLE
  8
_1-9_
  6
CONTINUOUS
 62
    7
 10
256.78930200882741
 20
171.86416595847834
 40
0.1643557161898226
  0
CIRCLE
  8
_1-9_
  6
CONTINUOUS
 62
    7
 10
260.7337897094186
 20
172.85028788362615
 40
0.1643557161898226
  0
CIRCLE
  8
_1-9_
  6
CONTINUOUS
 62
    7
 10
258.92589538931725
 20
170.71369450313628
 40
0.1643557161898226
  0
CIRCLE
  8
_1-9_
  6
CONTINUOUS
 62
    7
 10
258.92589538931725
 20
173.83640980877396
 40
0.1643557161898226
  0
CIRCLE
  8
_1-9_
  6
CONTINUOUS
 62
    7
 10
270.75935230509532
 20
178.76701943451297
 40
0.1643557161898226
  0
CIRCLE
  8
_1-9_
  6
CONTINUOUS
 62
    7
 10
267.30793793906918
 20
176.95912511441162
 40
0.1643557161898226
  0
CIRCLE
  8
_1-9_
  6
CONTINUOUS
 62
    7
 10
267.63663699945766
 20
176.13735271945808
 40
0.1643557161898226
  0
CIRCLE
  8
_1-9_
  6
CONTINUOUS
 62
    7
 10
263.69215548486204
 20
176.30172699363459
 40
0.1643557161898226
  0
CIRCLE
  8
_1-9_
  6
CONTINUOUS
 62
    7
 10
264.02086691724168
 20
173.83640980877396
 40
0.1643557161898226
  0
CIRCLE
  8
_1-9_
  6
CONTINUOUS
 62
    7
 10
261.88426116476069
 20
172.19286501886685
 40
0.1643557161898226
  0
CIRCLE
  8
_1-9_
  6
CONTINUOUS
 62
    7
 10
256.2962410462535
 20
172.85028788362615
 40
0.1643557161898226
  0
CIRCLE
  8
_1-9_
  6
CONTINUOUS
 62
    7
 10
256.2962410462535
 20
170.22064591255349
 40
0.1643557161898226
  0
CIRCLE
  8
_1-9_
  6
CONTINUOUS
 62
    7
 10
259.25460682169694
 20
172.35723929304339
 40
0.1643557161898226
  0
CIRCLE
  8
_1-9_
  6
CONTINUOUS
 62
    7
 10
262.54168402951996
 20
174.82253173392175
 40
0.1643557161898226
  0
CIRCLE
  8
_1-9_
  6
CONTINUOUS
 62
    7
 10
270.43065324470683
 20
178.27395847193907
 40
0.1643557161898226
  0
CIRCLE
  8
_1-9_
  6
CONTINUOUS
 62
    7
 10
274.37514094529803
 20
179.26008039708688
 40
0.1643557161898226
  0
CIRCLE
  8
_1-9_
  6
CONTINUOUS
 62
    7
 10
272.56724662519667
 20
177.12348701659698
 40
0.1643557161898226
  0
CIRCLE
  8
_1-9_
  6
CONTINUOUS
 62
    7
 10
272.56724662519667
 20
180.24620232223469
 40
0.1643557161898226
  0
CIRCLE
  8
_1-9_
  6
CONTINUOUS
 62
    7
 10
280.94928298895303
 20
183.36891762787235
 40
0.1643557161898226
  0
CIRCLE
  8
_1-9_
  6
CONTINUOUS
 62
    7
 10
281.27799442133266
 20
182.54714523291881
 40
0.1643557161898226
  0
CIRCLE
  8
_1-9_
  6
CONTINUOUS
 62
    7
 10
277.33350672074147
 20
182.71151950709532
 40
0.1643557161898226
  0
CIRCLE
  8
_1-9_
  6
CONTINUOUS
 62
    7
 10
277.6622181531211
 20
180.24620232223469
 40
0.1643557161898226
  0
CIRCLE
  8
_1-9_
  6
CONTINUOUS
 62
    7
 10
275.52561240064011
 20
178.60265753232756
 40
0.1643557161898226
  0
CIRCLE
  8
_1-9_
  6
CONTINUOUS
 62
    7
 10
269.93759228213293
 20
179.26008039708688
 40
0.1643557161898226
  0
CIRCLE
  8
_1-9_
  6
CONTINUOUS
 62
    7
 10
269.93759228213293
 20
176.63043842601422
 40
0.1643557161898226
  0
CIRCLE
  8
_1-9_
  6
CONTINUOUS
 62
    7
 10
272.89595805757637
 20
178.76703180650412
 40
0.1643557161898226
  0
CIRCLE
  8
_1-9_
  6
CONTINUOUS
 62
    7
 10
276.18303526539938
 20
181.23232424738251
 40
0.1643557161898226
  0
CIRCLE
  8
_1-9_
  6
CONTINUOUS
 62
    7
 10
197.97735338723217
 20
141.82973470715865
 40
0.1643557161898226
  0
CIRCLE
  8
_1-9_
  6
CONTINUOUS
 62
    7
 10
199.62088580514811
 20
143.47327949706576
 40
0.1643557161898226
  0
CIRCLE
  8
_1-9_
  6
CONTINUOUS
 62
    7
 10
202.90795064098003
 20
141.82973470715865
 40
0.1643557161898226
  0
CIRCLE
  8
_1-9_
  6
CONTINUOUS
 62
    7
 10
198.96347531237996
 20
143.47327949706576
 40
0.1643557161898226
  0
CIRCLE
  8
_1-9_
  6
CONTINUOUS
 62
    7
 10
201.42876775325834
 20
143.47327949706576
 40
0.1643557161898226
  0
CIRCLE
  8
_1-9_
  6
CONTINUOUS
 62
    7
 10
204.88019449127566
 20
144.95245001279633
 40
0.1643557161898226
  0
CIRCLE
  8
_1-9_
  6
CONTINUOUS
 62
    7
 10
208.82468219186686
 20
145.93857193794412
 40
0.1643557161898226
  0
CIRCLE
  8
_1-9_
  6
CONTINUOUS
 62
    7
 10
207.0167878717655
 20
143.80197855745425
 40
0.1643557161898226
  0
CIRCLE
  8
_1-9_
  6
CONTINUOUS
 62
    7
 10
207.0167878717655
 20
146.92469386309193
 40
0.1643557161898226
  0
CIRCLE
  8
_1-9_
  6
CONTINUOUS
 62
    7
 10
209.97515364720894
 20
145.28114907318482
 40
0.1643557161898226
  0
CIRCLE
  8
_1-9_
  6
CONTINUOUS
 62
    7
 10
204.38713352870175
 20
145.93857193794412
 40
0.1643557161898226
  0
CIRCLE
  8
_1-9_
  6
CONTINUOUS
 62
    7
 10
204.38713352870175
 20
143.30892996687149
 40
0.1643557161898226
  0
CIRCLE
  8
_1-9_
  6
CONTINUOUS
 62
    7
 10
207.34549930414516
 20
145.44552334736136
 40
0.1643557161898226
  0
CIRCLE
  8
_1-9_
  6
CONTINUOUS
 62
    7
 10
206.38599262491957
 20
145.04480692659487
 40
0.1643557161898226
  0
CIRCLE
  8
_1-9_
  6
CONTINUOUS
 62
    7
 10
208.0295250428355
 20
146.68835171650198
 40
0.1643557161898226
  0
CIRCLE
  8
_1-9_
  6
CONTINUOUS
 62
    7
 10
211.31658987866743
 20
145.04480692659487
 40
0.1643557161898226
  0
CIRCLE
  8
_1-9_
  6
CONTINUOUS
 62
    7
 10
207.37211455006735
 20
146.68835171650198
 40
0.1643557161898226
  0
CIRCLE
  8
_1-9_
  6
CONTINUOUS
 62
    7
 10
209.83740699094574
 20
146.68835171650198
 40
0.1643557161898226
  0
CIRCLE
  8
_1-9_
  6
CONTINUOUS
 62
    7
 10
213.28883372896306
 20
148.16752223223256
 40
0.1643557161898226
  0
CIRCLE
  8
_1-9_
  6
CONTINUOUS
 62
    7
 10
217.23331833655649
 20
149.15364415738037
 40
0.1643557161898226
  0
CIRCLE
  8
_1-9_
  6
CONTINUOUS
 62
    7
 10
215.42542401645514
 20
147.0170507768905
 40
0.1643557161898226
  0
CIRCLE
  8
_1-9_
  6
CONTINUOUS
 62
    7
 10
215.42542401645514
 20
150.13976608252815
 40
0.1643557161898226
  0
CIRCLE
  8
_1-9_
  6
CONTINUOUS
 62
    7
 10
218.38378979189855
 20
148.49622129262107
 40
0.1643557161898226
  0
CIRCLE
  8
_1-9_
  6
CONTINUOUS
 62
    7
 10
212.79577276638915
 20
149.15364415738037
 40
0.1643557161898226
  0
CIRCLE
  8
_1-9_
  6
CONTINUOUS
 62
    7
 10
212.79577276638915
 20
146.52400218630771
 40
0.1643557161898226
  0
CIRCLE
  8
_1-9_
  6
CONTINUOUS
 62
    7
 10
215.75413544883477
 20
148.66059556679758
 40
0.1643557161898226
  0
CIRCLE
  8
_1-9_
  6
CONTINUOUS
 62
    7
 10
212.3215017653466
 20
147.76524694058349
 40
0.1643557161898226
  0
CIRCLE
  8
_1-9_
  6
CONTINUOUS
 62
    7
 10
213.96503418326256
 20
149.40879173049058
 40
0.1643557161898226
  0
CIRCLE
  8
_1-9_
  6
CONTINUOUS
 62
    7
 10
217.25209901909449
 20
147.76524694058349
 40
0.1643557161898226
  0
CIRCLE
  8
_1-9_
  6
CONTINUOUS
 62
    7
 10
213.30762369049441
 20
149.40879173049058
 40
0.1643557161898226
  0
CIRCLE
  8
_1-9_
  6
CONTINUOUS
 62
    7
 10
215.7729161313728
 20
149.40879173049058
 40
0.1643557161898226
  0
CIRCLE
  8
_1-9_
  6
CONTINUOUS
 62
    7
 10
219.22434286939009
 20
150.88796224622115
 40
0.1643557161898226
  0
CIRCLE
  8
_1-9_
  6
CONTINUOUS
 62
    7
 10
223.16883056998131
 20
151.87408417136896
 40
0.1643557161898226
  0
CIRCLE
  8
_1-9_
  6
CONTINUOUS
 62
    7
 10
221.36093624987996
 20
149.73749079087909
 40
0.1643557161898226
  0
CIRCLE
  8
_1-9_
  6
CONTINUOUS
 62
    7
 10
221.36093624987996
 20
152.86020609651675
 40
0.1643557161898226
  0
CIRCLE
  8
_1-9_
  6
CONTINUOUS
 62
    7
 10
224.31930202532337
 20
151.21666130660967
 40
0.1643557161898226
  0
CIRCLE
  8
_1-9_
  6
CONTINUOUS
 62
    7
 10
218.73128190681618
 20
151.87408417136896
 40
0.1643557161898226
  0
CIRCLE
  8
_1-9_
  6
CONTINUOUS
 62
    7
 10
218.73128190681618
 20
149.24444220029633
 40
0.1643557161898226
  0
CIRCLE
  8
_1-9_
  6
CONTINUOUS
 62
    7
 10
221.68964768225962
 20
151.38103558078618
 40
0.1643557161898226
  0
CIRCLE
  8
_1-9_
  6
CONTINUOUS
 62
    7
 10
216.52582602368696
 20
150.23838322383941
 40
0.1643557161898226
  0
CIRCLE
  8
_1-9_
  6
CONTINUOUS
 62
    7
 10
218.16935844160292
 20
151.88192801374649
 40
0.1643557161898226
  0
CIRCLE
  8
_1-9_
  6
CONTINUOUS
 62
    7
 10
221.45642327743485
 20
150.23838322383941
 40
0.1643557161898226
  0
CIRCLE
  8
_1-9_
  6
CONTINUOUS
 62
    7
 10
217.51194794883477
 20
151.88192801374649
 40
0.1643557161898226
  0
CIRCLE
  8
_1-9_
  6
CONTINUOUS
 62
    7
 10
219.97724038971316
 20
151.88192801374649
 40
0.1643557161898226
  0
CIRCLE
  8
_1-9_
  6
CONTINUOUS
 62
    7
 10
223.42866712773048
 20
153.36109852947706
 40
0.1643557161898226
  0
CIRCLE
  8
_1-9_
  6
CONTINUOUS
 62
    7
 10
227.3731548283217
 20
154.34722045462487
 40
0.1643557161898226
  0
CIRCLE
  8
_1-9_
  6
CONTINUOUS
 62
    7
 10
225.56526050822035
 20
152.210627074135
 40
0.1643557161898226
  0
CIRCLE
  8
_1-9_
  6
CONTINUOUS
 62
    7
 10
225.56526050822035
 20
155.33334237977266
 40
0.1643557161898226
  0
CIRCLE
  8
_1-9_
  6
CONTINUOUS
 62
    7
 10
228.52362628366373
 20
153.68979758986558
 40
0.1643557161898226
  0
CIRCLE
  8
_1-9_
  6
CONTINUOUS
 62
    7
 10
222.93560616515657
 20
154.34722045462487
 40
0.1643557161898226
  0
CIRCLE
  8
_1-9_
  6
CONTINUOUS
 62
    7
 10
222.93560616515657
 20
151.71757848355224
 40
0.1643557161898226
  0
CIRCLE
  8
_1-9_
  6
CONTINUOUS
 62
    7
 10
225.89397194059998
 20
153.85417186404209
 40
0.1643557161898226
  0
CIRCLE
  8
_1-9_
  6
CONTINUOUS
 62
    7
 10
220.23551807657972
 20
152.71150713510417
 40
0.1643557161898226
  0
CIRCLE
  8
_1-9_
  6
CONTINUOUS
 62
    7
 10
221.87905049449566
 20
154.35505192501128
 40
0.1643557161898226
  0
CIRCLE
  8
_1-9_
  6
CONTINUOUS
 62
    7
 10
225.16611533032759
 20
152.71150713510417
 40
0.1643557161898226
  0
CIRCLE
  8
_1-9_
  6
CONTINUOUS
 62
    7
 10
221.22164000172751
 20
154.35505192501128
 40
0.1643557161898226
  0
CIRCLE
  8
_1-9_
  6
CONTINUOUS
 62
    7
 10
223.68693244260589
 20
154.35505192501128
 40
0.1643557161898226
  0
CIRCLE
  8
_1-9_
  6
CONTINUOUS
 62
    7
 10
227.13835918062321
 20
155.83422244074185
 40
0.1643557161898226
  0
CIRCLE
  8
_1-9_
  6
CONTINUOUS
 62
    7
 10
231.08284688121441
 20
156.82034436588964
 40
0.1643557161898226
  0
CIRCLE
  8
_1-9_
  6
CONTINUOUS
 62
    7
 10
229.27495256111305
 20
154.6837509853998
 40
0.1643557161898226
  0
CIRCLE
  8
_1-9_
  6
CONTINUOUS
 62
    7
 10
229.27495256111305
 20
157.80646629103745
 40
0.1643557161898226
  0
CIRCLE
  8
_1-9_
  6
CONTINUOUS
 62
    7
 10
232.23331833655649
 20
156.16292150113037
 40
0.1643557161898226
  0
CIRCLE
  8
_1-9_
  6
CONTINUOUS
 62
    7
 10
226.64529821804931
 20
156.82034436588964
 40
0.1643557161898226
  0
CIRCLE
  8
_1-9_
  6
CONTINUOUS
 62
    7
 10
226.64529821804931
 20
154.19070239481701
 40
0.1643557161898226
  0
CIRCLE
  8
_1-9_
  6
CONTINUOUS
 62
    7
 10
229.60366399349272
 20
156.32729577530688
 40
0.1643557161898226
  0
CIRCLE
  8
_1-9_
  6
CONTINUOUS
 62
    7
 10
224.9344621683766
 20
154.69001121291245
 40
0.1643557161898226
  0
CIRCLE
  8
_1-9_
  6
CONTINUOUS
 62
    7
 10
226.57799458629253
 20
156.33355600281953
 40
0.1643557161898226
  0
CIRCLE
  8
_1-9_
  6
CONTINUOUS
 62
    7
 10
229.86505942212446
 20
154.69001121291245
 40
0.1643557161898226
  0
CIRCLE
  8
_1-9_
  6
CONTINUOUS
 62
    7
 10
225.92058409352438
 20
156.33355600281953
 40
0.1643557161898226
  0
CIRCLE
  8
_1-9_
  6
CONTINUOUS
 62
    7
 10
228.38587653440277
 20
156.33355600281953
 40
0.1643557161898226
  0
CIRCLE
  8
_1-9_
  6
CONTINUOUS
 62
    7
 10
231.83730327242009
 20
157.81272651855014
 40
0.1643557161898226
  0
CIRCLE
  8
_1-9_
  6
CONTINUOUS
 62
    7
 10
235.78179097301128
 20
158.79884844369792
 40
0.1643557161898226
  0
CIRCLE
  8
_1-9_
  6
CONTINUOUS
 62
    7
 10
233.97389665290993
 20
156.66225506320805
 40
0.1643557161898226
  0
CIRCLE
  8
_1-9_
  6
CONTINUOUS
 62
    7
 10
233.97389665290993
 20
159.78497036884573
 40
0.1643557161898226
  0
CIRCLE
  8
_1-9_
  6
CONTINUOUS
 62
    7
 10
236.93226242835337
 20
158.14142557893862
 40
0.1643557161898226
  0
CIRCLE
  8
_1-9_
  6
CONTINUOUS
 62
    7
 10
231.34424230984618
 20
158.79884844369792
 40
0.1643557161898226
  0
CIRCLE
  8
_1-9_
  6
CONTINUOUS
 62
    7
 10
231.34424230984618
 20
156.16920647262529
 40
0.1643557161898226
  0
CIRCLE
  8
_1-9_
  6
CONTINUOUS
 62
    7
 10
234.30260808528959
 20
158.30579985311516
 40
0.1643557161898226
  0
CIRCLE
  8
_1-9_
  6
CONTINUOUS
 62
    7
 10
229.88072236289727
 20
156.4211991879969
 40
0.1643557161898226
  0
CIRCLE
  8
_1-9_
  6
CONTINUOUS
 62
    7
 10
231.52425478081324
 20
158.06474397790402
 40
0.1643557161898226
  0
CIRCLE
  8
_1-9_
  6
CONTINUOUS
 62
    7
 10
234.81131961664516
 20
156.4211991879969
 40
0.1643557161898226
  0
CIRCLE
  8
_1-9_
  6
CONTINUOUS
 62
    7
 10
230.86684428804509
 20
158.06474397790402
 40
0.1643557161898226
  0
CIRCLE
  8
_1-9_
  6
CONTINUOUS
 62
    7
 10
233.33213672892347
 20
158.06474397790402
 40
0.1643557161898226
  0
CIRCLE
  8
_1-9_
  6
CONTINUOUS
 62
    7
 10
236.78356346694076
 20
159.54391449363459
 40
0.1643557161898226
  0
CIRCLE
  8
_1-9_
  6
CONTINUOUS
 62
    7
 10
240.72805116753199
 20
160.53003641878237
 40
0.1643557161898226
  0
CIRCLE
  8
_1-9_
  6
CONTINUOUS
 62
    7
 10
238.92015684743063
 20
158.39344303829253
 40
0.1643557161898226
  0
CIRCLE
  8
_1-9_
  6
CONTINUOUS
 62
    7
 10
238.92015684743063
 20
161.51615834393019
 40
0.1643557161898226
  0
CIRCLE
  8
_1-9_
  6
CONTINUOUS
 62
    7
 10
241.87852262287404
 20
159.8726135540231
 40
0.1643557161898226
  0
CIRCLE
  8
_1-9_
  6
CONTINUOUS
 62
    7
 10
236.29050250436686
 20
160.53003641878237
 40
0.1643557161898226
  0
CIRCLE
  8
_1-9_
  6
CONTINUOUS
 62
    7
 10
236.29050250436686
 20
157.90039444770974
 40
0.1643557161898226
  0
CIRCLE
  8
_1-9_
  6
CONTINUOUS
 62
    7
 10
239.2488682798103
 20
160.03698782819961
 40
0.1643557161898226
  0
CIRCLE
  8
_1-9_
  6
CONTINUOUS
 62
    7
 10
234.82698255741795
 20
158.39970326580519
 40
0.1643557161898226
  0
CIRCLE
  8
_1-9_
  6
CONTINUOUS
 62
    7
 10
236.47051497533394
 20
160.0432480557123
 40
0.1643557161898226
  0
CIRCLE
  8
_1-9_
  6
CONTINUOUS
 62
    7
 10
239.75757981116587
 20
158.39970326580519
 40
0.1643557161898226
  0
CIRCLE
  8
_1-9_
  6
CONTINUOUS
 62
    7
 10
235.81310448256576
 20
160.0432480557123
 40
0.1643557161898226
  0
CIRCLE
  8
_1-9_
  6
CONTINUOUS
 62
    7
 10
238.27839692344415
 20
160.0432480557123
 40
0.1643557161898226
  0
CIRCLE
  8
_1-9_
  6
CONTINUOUS
 62
    7
 10
241.72982366146147
 20
161.52241857144287
 40
0.1643557161898226
  0
CIRCLE
  8
_1-9_
  6
CONTINUOUS
 62
    7
 10
245.67431136205269
 20
162.50854049659065
 40
0.1643557161898226
  0
CIRCLE
  8
_1-9_
  6
CONTINUOUS
 62
    7
 10
243.86641704195134
 20
160.37194711610078
 40
0.1643557161898226
  0
CIRCLE
  8
_1-9_
  6
CONTINUOUS
 62
    7
 10
243.86641704195134
 20
163.49466242173847
 40
0.1643557161898226
  0
CIRCLE
  8
_1-9_
  6
CONTINUOUS
 62
    7
 10
246.82478281739475
 20
161.85111763183139
 40
0.1643557161898226
  0
CIRCLE
  8
_1-9_
  6
CONTINUOUS
 62
    7
 10
241.23676269888756
 20
162.50854049659065
 40
0.1643557161898226
  0
CIRCLE
  8
_1-9_
  6
CONTINUOUS
 62
    7
 10
241.23676269888756
 20
159.87889852551803
 40
0.1643557161898226
  0
CIRCLE
  8
_1-9_
  6
CONTINUOUS
 62
    7
 10
244.19512847433097
 20
162.0154919060079
 40
0.1643557161898226
  0
CIRCLE
  8
_1-9_
  6
CONTINUOUS
 62
    7
 10
240.26786877139071
 20
160.87282717706998
 40
0.1643557161898226
  0
CIRCLE
  8
_1-9_
  6
CONTINUOUS
 62
    7
 10
241.9114011893067
 20
162.51637196697706
 40
0.1643557161898226
  0
CIRCLE
  8
_1-9_
  6
CONTINUOUS
 62
    7
 10
245.19846602513863
 20
160.87282717706998
 40
0.1643557161898226
  0
CIRCLE
  8
_1-9_
  6
CONTINUOUS
 62
    7
 10
241.25399069653852
 20
162.51637196697706
 40
0.1643557161898226
  0
CIRCLE
  8
_1-9_
  6
CONTINUOUS
 62
    7
 10
243.71928313741691
 20
162.51637196697706
 40
0.1643557161898226
  0
CIRCLE
  8
_1-9_
  6
CONTINUOUS
 62
    7
 10
247.17070987543423
 20
163.99554248270763
 40
0.1643557161898226
  0
CIRCLE
  8
_1-9_
  6
CONTINUOUS
 62
    7
 10
251.11519757602545
 20
164.98166440785545
 40
0.1643557161898226
  0
CIRCLE
  8
_1-9_
  6
CONTINUOUS
 62
    7
 10
249.3073032559241
 20
162.84507102736558
 40
0.1643557161898226
  0
CIRCLE
  8
_1-9_
  6
CONTINUOUS
 62
    7
 10
249.3073032559241
 20
165.96778633300326
 40
0.1643557161898226
  0
CIRCLE
  8
_1-9_
  6
CONTINUOUS
 62
    7
 10
252.26566903136751
 20
164.32424154309615
 40
0.1643557161898226
  0
CIRCLE
  8
_1-9_
  6
CONTINUOUS
 62
    7
 10
246.67764891286032
 20
164.98166440785545
 40
0.1643557161898226
  0
CIRCLE
  8
_1-9_
  6
CONTINUOUS
 62
    7
 10
246.67764891286032
 20
162.35202243678282
 40
0.1643557161898226
  0
CIRCLE
  8
_1-9_
  6
CONTINUOUS
 62
    7
 10
249.63601468830373
 20
164.48861581727269
 40
0.1643557161898226
  0
CIRCLE
  8
_1-9_
  6
CONTINUOUS
 62
    7
 10
245.95606490209175
 20
164.33521549923003
 40
0.1643557161898226
  0
CIRCLE
  8
_1-9_
  6
CONTINUOUS
 62
    7
 10
247.59959732000772
 20
165.97876028913714
 40
0.1643557161898226
  0
CIRCLE
  8
_1-9_
  6
CONTINUOUS
 62
    7
 10
250.88666215583964
 20
164.33521549923003
 40
0.1643557161898226
  0
CIRCLE
  8
_1-9_
  6
CONTINUOUS
 62
    7
 10
246.94218682723957
 20
165.97876028913714
 40
0.1643557161898226
  0
CIRCLE
  8
_1-9_
  6
CONTINUOUS
 62
    7
 10
249.40747926811792
 20
165.97876028913714
 40
0.1643557161898226
  0
CIRCLE
  8
_1-9_
  6
CONTINUOUS
 62
    7
 10
252.85890600613524
 20
167.45793080486771
 40
0.1643557161898226
  0
CIRCLE
  8
_1-9_
  6
CONTINUOUS
 62
    7
 10
256.80339370672647
 20
168.4440527300155
 40
0.1643557161898226
  0
CIRCLE
  8
_1-9_
  6
CONTINUOUS
 62
    7
 10
254.99549938662511
 20
166.30745934952563
 40
0.1643557161898226
  0
CIRCLE
  8
_1-9_
  6
CONTINUOUS
 62
    7
 10
254.99549938662511
 20
169.43017465516331
 40
0.1643557161898226
  0
CIRCLE
  8
_1-9_
  6
CONTINUOUS
 62
    7
 10
257.95386516206855
 20
167.7866298652562
 40
0.1643557161898226
  0
CIRCLE
  8
_1-9_
  6
CONTINUOUS
 62
    7
 10
252.36584504356134
 20
168.4440527300155
 40
0.1643557161898226
  0
CIRCLE
  8
_1-9_
  6
CONTINUOUS
 62
    7
 10
252.36584504356134
 20
165.81441075894287
 40
0.1643557161898226
  0
CIRCLE
  8
_1-9_
  6
CONTINUOUS
 62
    7
 10
255.32421081900475
 20
167.95100413943271
 40
0.1643557161898226
  0
CIRCLE
  8
_1-9_
  6
CONTINUOUS
 62
    7
 10
250.90232509661246
 20
166.31371957703831
 40
0.1643557161898226
  0
CIRCLE
  8
_1-9_
  6
CONTINUOUS
 62
    7
 10
252.54585751452842
 20
167.9572643669454
 40
0.1643557161898226
  0
CIRCLE
  8
_1-9_
  6
CONTINUOUS
 62
    7
 10
255.83292235036032
 20
166.31371957703831
 40
0.1643557161898226
  0
CIRCLE
  8
_1-9_
  6
CONTINUOUS
 62
    7
 10
251.88844702176024
 20
167.9572643669454
 40
0.1643557161898226
  0
CIRCLE
  8
_1-9_
  6
CONTINUOUS
 62
    7
 10
254.35373946263863
 20
167.9572643669454
 40
0.1643557161898226
  0
CIRCLE
  8
_1-9_
  6
CONTINUOUS
 62
    7
 10
257.80516620065595
 20
169.436434882676
 40
0.1643557161898226
  0
CIRCLE
  8
_1-9_
  6
CONTINUOUS
 62
    7
 10
261.74965390124714
 20
170.42255680782378
 40
0.1643557161898226
  0
CIRCLE
  8
_1-9_
  6
CONTINUOUS
 62
    7
 10
259.94175958114579
 20
168.28596342733391
 40
0.1643557161898226
  0
CIRCLE
  8
_1-9_
  6
CONTINUOUS
 62
    7
 10
259.94175958114579
 20
171.40867873297157
 40
0.1643557161898226
  0
CIRCLE
  8
_1-9_
  6
CONTINUOUS
 62
    7
 10
262.90012535658923
 20
169.76513394306448
 40
0.1643557161898226
  0
CIRCLE
  8
_1-9_
  6
CONTINUOUS
 62
    7
 10
257.31210523808204
 20
170.42255680782378
 40
0.1643557161898226
  0
CIRCLE
  8
_1-9_
  6
CONTINUOUS
 62
    7
 10
257.31210523808204
 20
167.79291483675115
 40
0.1643557161898226
  0
CIRCLE
  8
_1-9_
  6
CONTINUOUS
 62
    7
 10
260.27047101352548
 20
169.92950821724099
 40
0.1643557161898226
  0
CIRCLE
  8
_1-9_
  6
CONTINUOUS
 62
    7
 10
258.56902530512173
 20
169.77610789919834
 40
0.1643557161898226
  0
CIRCLE
  8
_1-9_
  6
CONTINUOUS
 62
    7
 10
260.21255772303772
 20
171.41965268910545
 40
0.1643557161898226
  0
CIRCLE
  8
_1-9_
  6
CONTINUOUS
 62
    7
 10
263.49962255886965
 20
169.77610789919834
 40
0.1643557161898226
  0
CIRCLE
  8
_1-9_
  6
CONTINUOUS
 62
    7
 10
259.55514723026954
 20
171.41965268910545
 40
0.1643557161898226
  0
CIRCLE
  8
_1-9_
  6
CONTINUOUS
 62
    7
 10
262.02043967114793
 20
171.41965268910545
 40
0.1643557161898226
  0
CIRCLE
  8
_1-9_
  6
CONTINUOUS
 62
    7
 10
265.47186640916522
 20
172.89882320483602
 40
0.1643557161898226
  0
CIRCLE
  8
_1-9_
  6
CONTINUOUS
 62
    7
 10
269.4163479237609
 20
173.88494512998383
 40
0.1643557161898226
  0
CIRCLE
  8
_1-9_
  6
CONTINUOUS
 62
    7
 10
267.60845360365954
 20
171.74835174949396
 40
0.1643557161898226
  0
CIRCLE
  8
_1-9_
  6
CONTINUOUS
 62
    7
 10
267.60845360365954
 20
174.87106705513162
 40
0.1643557161898226
  0
CIRCLE
  8
_1-9_
  6
CONTINUOUS
 62
    7
 10
270.56681937910292
 20
173.22752226522454
 40
0.1643557161898226
  0
CIRCLE
  8
_1-9_
  6
CONTINUOUS
 62
    7
 10
264.97880544659131
 20
173.88494512998383
 40
0.1643557161898226
  0
CIRCLE
  8
_1-9_
  6
CONTINUOUS
 62
    7
 10
264.97880544659131
 20
171.2553031589112
 40
0.1643557161898226
  0
CIRCLE
  8
_1-9_
  6
CONTINUOUS
 62
    7
 10
267.93717740803032
 20
173.39189653940105
 40
0.1643557161898226
  0
CIRCLE
  8
_1-9_
  6
CONTINUOUS
 62
    7
 10
265.24646728873131
 20
172.00191570773933
 40
0.1643557161898226
  0
CIRCLE
  8
_1-9_
  6
CONTINUOUS
 62
    7
 10
266.8899997066473
 20
173.64546049764641
 40
0.1643557161898226
  0
CIRCLE
  8
_1-9_
  6
CONTINUOUS
 62
    7
 10
270.17706454247923
 20
172.00191570773933
 40
0.1643557161898226
  0
CIRCLE
  8
_1-9_
  6
CONTINUOUS
 62
    7
 10
266.23258921387912
 20
173.64546049764641
 40
0.1643557161898226
  0
CIRCLE
  8
_1-9_
  6
CONTINUOUS
 62
    7
 10
268.69788165475751
 20
173.64546049764641
 40
0.1643557161898226
  0
CIRCLE
  8
_1-9_
  6
CONTINUOUS
 62
    7
 10
272.1493083927748
 20
175.12463101337698
 40
0.1643557161898226
  0
CIRCLE
  8
_1-9_
  6
CONTINUOUS
 62
    7
 10
276.093796093366
 20
176.1107529385248
 40
0.1643557161898226
  0
CIRCLE
  8
_1-9_
  6
CONTINUOUS
 62
    7
 10
274.2859017732647
 20
173.97415955803493
 40
0.1643557161898226
  0
CIRCLE
  8
_1-9_
  6
CONTINUOUS
 62
    7
 10
274.2859017732647
 20
177.09687486367261
 40
0.1643557161898226
  0
CIRCLE
  8
_1-9_
  6
CONTINUOUS
 62
    7
 10
277.24426754870808
 20
175.4533300737655
 40
0.1643557161898226
  0
CIRCLE
  8
_1-9_
  6
CONTINUOUS
 62
    7
 10
271.65624743020089
 20
176.1107529385248
 40
0.1643557161898226
  0
CIRCLE
  8
_1-9_
  6
CONTINUOUS
 62
    7
 10
271.65624743020089
 20
173.48111096745214
 40
0.1643557161898226
  0
CIRCLE
  8
_1-9_
  6
CONTINUOUS
 62
    7
 10
274.61461320564433
 20
175.61770434794204
 40
0.1643557161898226
  0
CIRCLE
  8
_1-9_
  6
CONTINUOUS
 62
    7
 10
268.95615934162407
 20
173.7331160548149
 40
0.1643557161898226
  0
CIRCLE
  8
_1-9_
  6
CONTINUOUS
 62
    7
 10
270.59969175954001
 20
175.37666084472201
 40
0.1643557161898226
  0
CIRCLE
  8
_1-9_
  6
CONTINUOUS
 62
    7
 10
273.88675659537193
 20
173.7331160548149
 40
0.1643557161898226
  0
CIRCLE
  8
_1-9_
  6
CONTINUOUS
 62
    7
 10
269.94228126677189
 20
175.37666084472201
 40
0.1643557161898226
  0
CIRCLE
  8
_1-9_
  6
CONTINUOUS
 62
    7
 10
272.40757370765022
 20
175.37666084472201
 40
0.1643557161898226
  0
CIRCLE
  8
_1-9_
  6
CONTINUOUS
 62
    7
 10
275.85900044566756
 20
176.85583136045256
 40
0.1643557161898226
  0
CIRCLE
  8
_1-9_
  6
CONTINUOUS
 62
    7
 10
279.80348814625881
 20
177.84195328560037
 40
0.1643557161898226
  0
CIRCLE
  8
_1-9_
  6
CONTINUOUS
 62
    7
 10
277.99559382615746
 20
175.70535990511053
 40
0.1643557161898226
  0
CIRCLE
  8
_1-9_
  6
CONTINUOUS
 62
    7
 10
277.99559382615746
 20
178.82807521074818
 40
0.1643557161898226
  0
CIRCLE
  8
_1-9_
  6
CONTINUOUS
 62
    7
 10
280.95395960160084
 20
177.1845304208411
 40
0.1643557161898226
  0
CIRCLE
  8
_1-9_
  6
CONTINUOUS
 62
    7
 10
275.36593948309365
 20
177.84195328560037
 40
0.1643557161898226
  0
CIRCLE
  8
_1-9_
  6
CONTINUOUS
 62
    7
 10
275.36593948309365
 20
175.21231131452777
 40
0.1643557161898226
  0
CIRCLE
  8
_1-9_
  6
CONTINUOUS
 62
    7
 10
278.32430525853704
 20
177.34890469501761
 40
0.1643557161898226
  0
CIRCLE
  8
_1-9_
  6
CONTINUOUS
 62
    7
 10
275.38630378049652
 20
176.4535436968124
 40
0.1643557161898226
  0
CIRCLE
  8
_1-9_
  6
CONTINUOUS
 62
    7
 10
277.02983619841245
 20
178.09708848671949
 40
0.1643557161898226
  0
CIRCLE
  8
_1-9_
  6
CONTINUOUS
 62
    7
 10
280.31690103424444
 20
176.4535436968124
 40
0.1643557161898226
  0
CIRCLE
  8
_1-9_
  6
CONTINUOUS
 62
    7
 10
276.37242570564433
 20
178.09708848671949
 40
0.1643557161898226
  0
CIRCLE
  8
_1-9_
  6
CONTINUOUS
 62
    7
 10
278.83771814652272
 20
178.09708848671949
 40
0.1643557161898226
  0
CIRCLE
  8
_1-9_
  6
CONTINUOUS
 62
    7
 10
282.28914488454006
 20
179.57625900245006
 40
0.1643557161898226
  0
CIRCLE
  8
_1-9_
  6
CONTINUOUS
 62
    7
 10
281.7960839219661
 20
180.56238092759787
 40
0.1643557161898226
  0
CIRCLE
  8
_1-9_
  6
CONTINUOUS
 62
    7
 10
281.7960839219661
 20
177.93273895652521
 40
0.1643557161898226
  0
CIRCLE
  8
_1-9_
  6
CONTINUOUS
 62
    7
 10
264.00991151909449
 20
176.20623996607969
 40
0.1643557161898226
  0
CIRCLE
  8
_1-9_
  6
CONTINUOUS
 62
    7
 10
265.65344393701048
 20
177.84978475598678
 40
0.1643557161898226
  0
CIRCLE
  8
_1-9_
  6
CONTINUOUS
 62
    7
 10
268.94050877284241
 20
176.20623996607969
 40
0.1643557161898226
  0
CIRCLE
  8
_1-9_
  6
CONTINUOUS
 62
    7
 10
264.9960334442423
 20
177.84978475598678
 40
0.1643557161898226
  0
CIRCLE
  8
_1-9_
  6
CONTINUOUS
 62
    7
 10
267.46132588512069
 20
177.84978475598678
 40
0.1643557161898226
  0
CIRCLE
  8
_1-9_
  6
CONTINUOUS
 62
    7
 10
270.91275262313798
 20
179.32895527171735
 40
0.1643557161898226
  0
CIRCLE
  8
_1-9_
  6
CONTINUOUS
 62
    7
 10
274.85724032372923
 20
180.31507719686516
 40
0.1643557161898226
  0
CIRCLE
  8
_1-9_
  6
CONTINUOUS
 62
    7
 10
273.04934600362787
 20
178.17848381637532
 40
0.1643557161898226
  0
CIRCLE
  8
_1-9_
  6
CONTINUOUS
 62
    7
 10
273.04934600362787
 20
181.30119912201297
 40
0.1643557161898226
  0
CIRCLE
  8
_1-9_
  6
CONTINUOUS
 62
    7
 10
276.00771177907126
 20
179.65765433210589
 40
0.1643557161898226
  0
CIRCLE
  8
_1-9_
  6
CONTINUOUS
 62
    7
 10
270.41969166056407
 20
180.31507719686516
 40
0.1643557161898226
  0
CIRCLE
  8
_1-9_
  6
CONTINUOUS
 62
    7
 10
270.41969166056407
 20
177.6854352257925
 40
0.1643557161898226
  0
CIRCLE
  8
_1-9_
  6
CONTINUOUS
 62
    7
 10
273.37805743600751
 20
179.8220286062824
 40
0.1643557161898226
  0
CIRCLE
  8
_1-9_
  6
CONTINUOUS
 62
    7
 10
256.59052741330902
 20
171.75461197700662
 40
0.1643557161898226
  0
CIRCLE
  8
_1-9_
  6
CONTINUOUS
 62
    7
 10
258.23405983122501
 20
173.39815676691373
 40
0.1643557161898226
  0
CIRCLE
  8
_1-9_
  6
CONTINUOUS
 62
    7
 10
261.52112466705694
 20
171.75461197700662
 40
0.1643557161898226
  0
CIRCLE
  8
_1-9_
  6
CONTINUOUS
 62
    7
 10
257.57664933845683
 20
173.39815676691373
 40
0.1643557161898226
  0
CIRCLE
  8
_1-9_
  6
CONTINUOUS
 62
    7
 10
260.04194177933522
 20
173.39815676691373
 40
0.1643557161898226
  0
CIRCLE
  8
_1-9_
  6
CONTINUOUS
 62
    7
 10
263.49336851735251
 20
174.8773272826443
 40
0.1643557161898226
  0
CIRCLE
  8
_1-9_
  6
CONTINUOUS
 62
    7
 10
267.43785621794376
 20
175.86344920779209
 40
0.1643557161898226
  0
CIRCLE
  8
_1-9_
  6
CONTINUOUS
 62
    7
 10
265.62996189784241
 20
173.72685582730224
 40
0.1643557161898226
  0
CIRCLE
  8
_1-9_
  6
CONTINUOUS
 62
    7
 10
265.62996189784241
 20
176.8495711329399
 40
0.1643557161898226
  0
CIRCLE
  8
_1-9_
  6
CONTINUOUS
 62
    7
 10
268.58832767328579
 20
175.20602634303282
 40
0.1643557161898226
  0
CIRCLE
  8
_1-9_
  6
CONTINUOUS
 62
    7
 10
263.0003075547786
 20
175.86344920779209
 40
0.1643557161898226
  0
CIRCLE
  8
_1-9_
  6
CONTINUOUS
 62
    7
 10
263.0003075547786
 20
173.23380723671949
 40
0.1643557161898226
  0
CIRCLE
  8
_1-9_
  6
CONTINUOUS
 62
    7
 10
265.95867333022204
 20
175.37040061720933
 40
0.1643557161898226
  0
ENDSEC
  0
EOF
