  0
SECTION
  2
HEADER
  9
$ACADVER
  1
AC1009
  9
$INSBASE
 10
0
 20
0
 30
0
  9
$EXTMIN
 10
0
 20
0
  9
$EXTMAX
 10
420
 20
297
  9
$LIMMIN
 10
0
 20
0
  9
$LIMMAX
 10
420
 20
297
  9
$LTSCALE
 40
1
  0
ENDSEC
  0
SECTION
  2
TABLES
  0
TABLE
  2
LTYPE
 70
     9
  0
LTYPE
  2
CONTINUOUS
 70
    64
  3
実線
 72
    65
 73
     0
 40
0.0
  0
LTYPE
  2
DASHED1
 70
    64
  3
--  --  --  --  --  --  --  --  
 72
    65
 73
     2
 40
2.5
 49
1.25
 49
-1.25
  0
LTYPE
  2
DASHED2
 70
    64
  3
----    ----    ----    ----    
 72
    65
 73
     2
 40
5.0
 49
2.5
 49
-2.5
  0
LTYPE
  2
DASHED3
 70
    64
  3
------  ------  ------  ------  
 72
    65
 73
     2
 40
5.0
 49
3.75
 49
-1.25
  0
LTYPE
  2
CENTER1
 70
    64
  3
----- - ----- - ----- - ----- - 
 72
    65
 73
     4
 40
10.0
 49
6.25
 49
-1.25
 49
1.25
 49
-1.25
  0
LTYPE
  2
CENTER2
 70
    64
  3
----------  --  ----------  --  
 72
    65
 73
     4
 40
20.0
 49
12.5
 49
-2.5
 49
2.5
 49
-2.5
  0
LTYPE
  2
PHANTOM1
 70
    64
  3
--- - - --- - - --- - - --- - - 
 72
    65
 73
     6
 40
10.0
 49
3.25
 49
-1.25
 49
1.25
 49
-1.25
 49
1.25
 49
-1.25
  0
LTYPE
  2
PHANTOM2
 70
    64
  3
--------  -  -  --------  -  -  
 72
    65
 73
     6
 40
20.0
 49
10.0
 49
-2.5
 49
1.25
 49
-2.5
 49
1.25
 49
-2.5
  0
LTYPE
  2
DOT
 70
    64
  3
-   -   -   -   -   -   -   -   
 72
    65
 73
     2
 40
2.5
 49
0.625
 49
-1.875
  0
LTYPE
  2
DUMMY
 70
    64
  3
ダミー
 72
    65
 73
     0
 40
0.0
  0
LTYPE
  2
RAND1
 70
    64
  3
ランダム線1
 72
    65
 73
     4
 40
10.0
 49
1.0
 49
-2.0
 49
3.0
 49
-4.0
  0
LTYPE
  2
RAND2
 70
    64
  3
ランダム線2
 72
    65
 73
     4
 40
14.0
 49
2.0
 49
-3.0
 49
4.0
 49
-5.0
  0
LTYPE
  2
RAND3
 70
    64
  3
ランダム線3
 72
    65
 73
     4
 40
18.0
 49
3.0
 49
-4.0
 49
5.0
 49
-6.0
  0
LTYPE
  2
RAND4
 70
    64
  3
ランダム線4
 72
    65
 73
     4
 40
22.0
 49
4.0
 49
-5.0
 49
6.0
 49
-7.0
  0
LTYPE
  2
RAND5
 70
    64
  3
ランダム線5
 72
    65
 73
     4
 40
26.0
 49
5.0
 49
-6.0
 49
7.0
 49
-8.0
  0
LTYPE
  2
LONG1
 70
    64
  3
----------  --  ----------  --  
 72
    65
 73
     4
 40
40.0
 49
32.5
 49
-2.5
 49
2.5
 49
-2.5
  0
LTYPE
  2
LONG2
 70
    64
  3
--------  -  -  --------  -  -  
 72
    65
 73
     6
 40
40.0
 49
30.0
 49
-2.5
 49
1.25
 49
-2.5
 49
1.25
 49
-2.5
  0
LTYPE
  2
LONG3
 70
    64
  3
+++++++++++++++..+++++++++++++++
 72
    65
 73
     2
 40
40.0
 49
37.5
 49
-2.5
  0
LTYPE
  2
LONG4
 70
    64
  3
+++++++++++++++..+++++++++++++++
 72
    65
 73
     2
 40
80.0
 49
75.0
 49
-5.0
  0
LTYPE
  2
LONG5
 70
    64
  3
----------  --  ----------  --  
 72
    65
 73
     4
 40
60.0
 49
37.5
 49
-7.5
 49
7.5
 49
-7.5
  0
LTYPE
  2
dashed
 70
   64
  3
-------   -------------   ------
 72
   65
 73
    2
 40
7.5
 49
6
 49
-1.5
  0
LTYPE
  2
dashed_spaced
 70
   64
  3
----        --------        ----
 72
   65
 73
    2
 40
12
 49
6
 49
-6
  0
LTYPE
  2
long_dashed_dotted
 70
   64
  3
------------- --- --------------
 72
   65
 73
    4
 40
15.25
 49
12
 49
-1.5
 49
0.25
 49
-1.5
  0
LTYPE
  2
long_dashed_double-dotted
 70
   64
  3
----------- --- --- ------------
 72
   65
 73
    6
 40
17
 49
12
 49
-1.5
 49
0.25
 49
-1.5
 49
0.25
 49
-1.5
  0
LTYPE
  2
long_dashed_triplicate-dotted
 70
   64
  3
--------- --- --- --- ----------
 72
   65
 73
    8
 40
18.75
 49
12
 49
-1.5
 49
0.25
 49
-1.5
 49
0.25
 49
-1.5
 49
0.25
 49
-1.5
  0
LTYPE
  2
dotted
 70
   64
  3
   -       -       -       -    
 72
   65
 73
    2
 40
1.75
 49
0.25
 49
-1.5
  0
LTYPE
  2
chain
 70
   64
  3
-------------- -- --------------
 72
   65
 73
    4
 40
18.5
 49
12
 49
-1.5
 49
3.5
 49
-1.5
  0
LTYPE
  2
chain_double_dash
 70
   64
  3
------------ -- -- -------------
 72
   65
 73
    6
 40
23.5
 49
12
 49
-1.5
 49
3.5
 49
-1.5
 49
3.5
 49
-1.5
  0
LTYPE
  2
dashed_dotted
 70
   64
  3
-----------     -     ----------
 72
   65
 73
    4
 40
9.25
 49
6
 49
-1.5
 49
0.25
 49
-1.5
  0
LTYPE
  2
double-dashed_dotted
 70
   64
  3
------   -----------   -   -----
 72
   65
 73
    6
 40
16.75
 49
6
 49
-1.5
 49
6
 49
-1.5
 49
0.25
 49
-1.5
  0
LTYPE
  2
dashed_double-dotted
 70
   64
  3
---------    -    -    ---------
 72
   65
 73
    6
 40
11
 49
6
 49
-1.5
 49
0.25
 49
-1.5
 49
0.25
 49
-1.5
  0
LTYPE
  2
double-dashed_double-dotted
 70
   64
  3
-----   ---------   -   -   ----
 72
   65
 73
    8
 40
18.5
 49
6
 49
-1.5
 49
6
 49
-1.5
 49
0.25
 49
-1.5
 49
0.25
 49
-1.5
  0
LTYPE
  2
dashed_triplicate-dotted
 70
   64
  3
-------    -    -    -    ------
 72
   65
 73
    8
 40
12.75
 49
6
 49
-1.5
 49
0.25
 49
-1.5
 49
0.25
 49
-1.5
 49
0.25
 49
-1.5
  0
LTYPE
  2
double-dashed_triplicate-dotted
 70
   64
  3
-----  ---------  -  -  -  -----
 72
   65
 73
   10
 40
20.25
 49
6
 49
-1.5
 49
6
 49
-1.5
 49
0.25
 49
-1.5
 49
0.25
 49
-1.5
 49
0.25
 49
-1.5
  0
LTYPE
  2
undefined
 70
   64
  3
--------------------------------
 72
   65
 73
    0
 40
0
  0
ENDTAB
  0
TABLE
  2
STYLE
  5
3
100
AcDbSymbolTable
 70
     1
  0
STYLE
  5
10
100
AcDbSymbolTableRecord
100
AcDbTextStyleTableRecord
  2
STANDARD
 70
     0
 40
0.0
 41
1.0
 50
0.0
 71
     0
 42
0.2
  3
txt
  4
bigfont.shx
  0
STYLE
  5
26
100
AcDbSymbolTableRecord
100
AcDbTextStyleTableRecord
  2
TATEGAKI
 70
    68
 40
0.0
 41
1.0
 50
0.0
 71
     0
 42
1.0
  3
txt
  4
bigfont.shx
  0
ENDTAB
  0
TABLE
  2
LAYER
 70
   12
  0
LAYER
  2
_0-0_
 70
   64
 62
    7
  6
CONTINUOUS
  0
LAYER
  2
_1-0_
 70
   64
 62
    7
  6
CONTINUOUS
  0
LAYER
  2
_1-1_
 70
   64
 62
    7
  6
CONTINUOUS
  0
LAYER
  2
_1-2_
 70
   64
 62
    7
  6
CONTINUOUS
  0
LAYER
  2
_1-3_
 70
   64
 62
    7
  6
CONTINUOUS
  0
LAYER
  2
_1-4_
 70
   64
 62
    7
  6
CONTINUOUS
  0
LAYER
  2
_1-5_
 70
   64
 62
    7
  6
CONTINUOUS
  0
LAYER
  2
_1-6_
 70
   64
 62
    7
  6
CONTINUOUS
  0
LAYER
  2
_1-b_
 70
   64
 62
    7
  6
CONTINUOUS
  0
LAYER
  2
_1-c_
 70
   64
 62
    7
  6
CONTINUOUS
  0
LAYER
  2
_1-d_
 70
   64
 62
    7
  6
CONTINUOUS
  0
LAYER
  2
ADD_LINE
 70
   64
 62
    7
  6
CONTINUOUS
  0
ENDTAB
  0
ENDSEC
  0
SECTION
  2
BLOCKS
  0
ENDSEC
  0
SECTION
  2
ENTITIES
  0
LINE
  8
_0-0_
  6
CONTINUOUS
 62
    5
 10
6.7567526327597136
 20
280.13513513513516
 11
406.75677325274495
 21
280.13513513513516
  0
LINE
  8
_0-0_
  6
CONTINUOUS
 62
    5
 10
406.75677325274495
 20
10.13513513513513
 11
6.7567526327597136
 21
10.13513513513513
  0
LINE
  8
_0-0_
  6
CONTINUOUS
 62
    5
 10
406.75677325274495
 20
30.135133073136615
 11
6.7567402607685949
 21
30.135133073136615
  0
LINE
  8
_0-0_
  6
CONTINUOUS
 62
    5
 10
371.75678150073907
 20
10.13513513513513
 11
371.75678150073907
 21
30.135133073136615
  0
LINE
  8
_0-0_
  6
CONTINUOUS
 62
    5
 10
137.02703939901818
 20
30.135133073136615
 11
137.02703939901818
 21
10.13513513513513
  0
LINE
  8
_0-0_
  6
CONTINUOUS
 62
    5
 10
214.86486486486487
 20
30.135133073136615
 11
214.86486486486487
 21
10.13513513513513
  0
LINE
  8
_0-0_
  6
CONTINUOUS
 62
    5
 10
396.48648648648651
 20
25.945945945945951
 11
383.91891891891896
 21
13.378379924877265
  0
LINE
  8
_1-0_
  6
CONTINUOUS
 62
    7
 10
97.829540355785483
 20
87.685435527079818
 11
235.13513513513516
 21
149.47297792176943
  0
LINE
  8
_1-2_
  6
CONTINUOUS
 62
    3
 10
207.60255555848818
 20
160.91940802496833
 11
209.46780642947635
 21
155.8517785974451
  0
LINE
  8
_1-2_
  6
CONTINUOUS
 62
    3
 10
226.84075432854732
 20
168.00044291728253
 11
225.59727024387669
 21
171.37886253563136
  0
LINE
  8
_1-2_
  6
CONTINUOUS
 62
    3
 10
207.84987166121201
 20
168.30356907200169
 11
209.71512253220018
 21
163.23593964447846
  0
LINE
  8
_1-3_
  6
CONTINUOUS
 62
    7
 10
213.92694421716641
 20
173.37418014938768
 11
212.58530075485643
 21
176.05745470201649
  0
LINE
  8
_1-3_
  6
CONTINUOUS
 62
    7
 10
212.58530075485643
 20
176.05745470201649
 11
228.68499755859375
 21
184.10730310388516
  0
LINE
  8
_1-3_
  6
CONTINUOUS
 62
    7
 10
228.68499755859375
 20
184.10730310388516
 11
230.02664102090372
 21
181.42402855125636
  0
LINE
  8
_1-3_
  6
CONTINUOUS
 62
    7
 10
230.02664102090372
 20
181.42402855125636
 11
213.92694421716641
 21
173.37418014938768
  0
LINE
  8
_1-3_
  6
CONTINUOUS
 62
    7
 10
212.58530075485643
 20
176.05745470201649
 11
230.02664102090372
 21
181.42402855125636
  0
LINE
  8
_1-3_
  6
CONTINUOUS
 62
    3
 10
211.50861585462417
 20
176.35244008657097
 11
212.11145349451016
 21
172.2831561114337
  0
LINE
  8
_1-3_
  6
CONTINUOUS
 62
    3
 10
212.11145349451016
 20
172.2831561114337
 11
212.71431587837839
 21
173.48886850717906
  0
LINE
  8
_1-1_
  6
DASHED1
 62
    3
 10
97.501237199113177
 20
88.41498091414168
 11
234.52294426995357
 21
150.07477631440034
  0
LINE
  8
_1-3_
  6
CONTINUOUS
 62
    3
 10
211.50861585462417
 20
176.35244008657097
 11
233.45261857316302
 21
187.32444144584039
  0
LINE
  8
_1-3_
  6
CONTINUOUS
 62
    3
 10
233.45261857316302
 20
187.32444144584039
 11
234.25630311708193
 21
187.72628371779984
  0
LINE
  8
_1-3_
  6
CONTINUOUS
 62
    3
 10
234.25630311708193
 20
187.72628371779984
 11
234.25630311708193
 21
217.32444144584039
  0
LINE
  8
_1-3_
  6
CONTINUOUS
 62
    7
 10
229.65629783836573
 20
186.85289537584461
 11
227.25630476668076
 21
186.85289537584461
  0
LINE
  8
_1-3_
  6
CONTINUOUS
 62
    7
 10
229.65629783836573
 20
191.21058283625425
 11
229.65629783836573
 21
199.21058448585305
  0
LINE
  8
_1-3_
  6
CONTINUOUS
 62
    7
 10
229.65629783836573
 20
199.21058448585305
 11
233.65631103515625
 21
199.21058448585305
  0
LINE
  8
_1-3_
  6
CONTINUOUS
 62
    7
 10
233.65631103515625
 20
199.21058448585305
 11
233.65631103515625
 21
191.21058283625425
  0
LINE
  8
_1-3_
  6
CONTINUOUS
 62
    7
 10
233.65631103515625
 20
191.21058283625425
 11
229.65629783836573
 21
191.21058283625425
  0
LINE
  8
_1-3_
  6
CONTINUOUS
 62
    7
 10
233.65631103515625
 20
199.21058448585305
 11
229.65629783836573
 21
191.21058283625425
  0
LINE
  8
_1-3_
  6
CONTINUOUS
 62
    7
 10
229.65629783836573
 20
186.85289537584461
 11
229.65629783836573
 21
233.22472649651607
  0
LINE
  8
_1-3_
  6
CONTINUOUS
 62
    7
 10
227.25630476668076
 20
186.85289537584461
 11
227.25630476668076
 21
233.22472649651607
  0
LINE
  8
_1-2_
  6
CONTINUOUS
 62
    7
 10
65.791502256651199
 20
172.59313634923987
 11
113.83278511665964
 21
172.59313634923987
  0
LINE
  8
_1-2_
  6
CONTINUOUS
 62
    7
 10
98.63717156487543
 20
179.08588306323904
 11
111.46962346257391
 21
179.08588306323904
  0
LINE
  8
_1-2_
  6
CONTINUOUS
 62
    7
 10
142.10163425754857
 20
94.925128833667657
 11
111.46962346257391
 21
179.08588306323904
  0
LINE
  8
_1-2_
  6
CONTINUOUS
 62
    7
 10
64.531464447846304
 20
184.38980514938768
 11
109.53915982633025
 21
184.38980514938768
  0
LINE
  8
_1-2_
  6
CONTINUOUS
 62
    7
 10
111.46962346257391
 20
179.08588306323904
 11
109.53915982633025
 21
184.38980514938768
  0
LINE
  8
_1-2_
  6
CONTINUOUS
 62
    7
 10
225.30680063608531
 20
181.33439347550677
 11
206.22943775073904
 21
233.74902673669766
  0
LINE
  8
_1-2_
  6
CONTINUOUS
 62
    7
 10
211.91124993401607
 20
173.63456107474664
 11
196.60123258023648
 21
215.69848962732266
  0
LINE
  8
_1-2_
  6
CONTINUOUS
 62
    7
 10
209.60085482210727
 20
166.71161548511404
 11
198.75240016627959
 21
196.51751131624789
  0
LINE
  8
_1-2_
  6
CONTINUOUS
 62
    7
 10
198.75240016627959
 20
196.51751131624789
 11
210.68402264569258
 21
158.58785680822425
  0
LINE
  8
_1-2_
  6
CONTINUOUS
 62
    7
 10
205.8097674395587
 20
150.46409813133448
 11
195.50780837600297
 21
178.76850437473607
  0
LINE
  8
_1-2_
  6
CONTINUOUS
 62
    7
 10
205.8097674395587
 20
150.46409813133448
 11
218.53699555268159
 21
155.87993724926099
  0
LINE
  8
_1-2_
  6
CONTINUOUS
 62
    7
 10
206.22943775073904
 20
233.74902673669766
 11
199.85761487806167
 21
233.74902673669766
  0
LINE
  8
_1-2_
  6
CONTINUOUS
 62
    7
 10
196.60123258023648
 20
215.69848962732266
 11
192.55669258736276
 21
215.69848962732266
  0
LINE
  8
_1-2_
  6
CONTINUOUS
 62
    7
 10
198.75240016627959
 20
196.51751131624789
 11
195.47706397804055
 21
196.51751131624789
  0
LINE
  8
_1-2_
  6
CONTINUOUS
 62
    7
 10
195.50780837600297
 20
178.76850437473607
 11
191.09651307801943
 21
178.76850437473607
  0
LINE
  8
_1-0_
  6
CONTINUOUS
 62
    7
 10
235.13513513513516
 20
233.22472649651607
 11
235.13513513513516
 21
149.47297792176943
  0
LINE
  8
_1-0_
  6
CONTINUOUS
 62
    7
 10
237.5351282068201
 20
233.22472649651607
 11
237.5351282068201
 21
150.552978515625
  0
LINE
  8
_1-0_
  6
CONTINUOUS
 62
    7
 10
107.5141494338577
 20
66.16409095557961
 11
254.69114561338685
 21
132.39376583614865
  0
LINE
  8
_1-0_
  6
CONTINUOUS
 62
    7
 10
99.30685507284629
 20
84.402521494272591
 11
246.48386362436656
 21
150.63219637484164
  0
LINE
  8
_1-0_
  6
CONTINUOUS
 62
    7
 10
235.13513513513516
 20
149.47297792176943
 11
245.00654890730576
 21
153.91511659364443
  0
LINE
  8
_1-0_
  6
CONTINUOUS
 62
    7
 10
254.64574040593328
 20
80.787073083826016
 11
234.6457239099451
 21
80.787073083826016
  0
LINE
  8
_1-0_
  6
CONTINUOUS
 62
    7
 10
234.6457239099451
 20
120.78706895982897
 11
254.64574040593328
 21
120.78706895982897
  0
LINE
  8
_1-0_
  6
CONTINUOUS
 62
    7
 10
243.04573677681589
 20
119.18707357870566
 11
234.6457239099451
 21
119.18707357870566
  0
LINE
  8
_1-0_
  6
CONTINUOUS
 62
    7
 10
246.2457275390625
 20
119.18707357870566
 11
254.64574040593328
 21
119.18707357870566
  0
LINE
  8
_1-0_
  6
CONTINUOUS
 62
    7
 10
245.24572423986487
 20
83.387071764146967
 11
245.24572423986487
 21
118.18707027950803
  0
LINE
  8
_1-0_
  6
CONTINUOUS
 62
    7
 10
246.2457275390625
 20
82.387074650944896
 11
254.64574040593328
 21
82.387074650944896
  0
LINE
  8
_1-0_
  6
CONTINUOUS
 62
    7
 10
243.04573677681589
 20
82.387074650944896
 11
234.6457239099451
 21
82.387074650944896
  0
LINE
  8
_1-0_
  6
CONTINUOUS
 62
    7
 10
244.04574007601352
 20
83.387071764146967
 11
244.04574007601352
 21
118.18707027950803
  0
LINE
  8
_1-0_
  6
CONTINUOUS
 62
    7
 10
234.6457239099451
 20
80.787073083826016
 11
234.6457239099451
 21
82.387074650944896
  0
LINE
  8
_1-0_
  6
CONTINUOUS
 62
    7
 10
254.64574040593328
 20
120.78706895982897
 11
254.64574040593328
 21
119.18707357870566
  0
LINE
  8
_1-0_
  6
CONTINUOUS
 62
    7
 10
254.64574040593328
 20
82.387074650944896
 11
254.64574040593328
 21
80.787073083826016
  0
LINE
  8
_1-0_
  6
CONTINUOUS
 62
    7
 10
245.00654890730576
 20
153.91511659364443
 11
254.69114561338685
 21
132.39376583614865
  0
LINE
  8
_1-0_
  6
CONTINUOUS
 62
    7
 10
234.6457239099451
 20
119.18707357870566
 11
234.6457239099451
 21
120.78706895982897
  0
LINE
  8
_1-0_
  6
CONTINUOUS
 62
    7
 10
105.87269551045186
 20
69.811774588919974
 11
253.04967931798987
 21
136.04144946948904
  0
LINE
  8
_1-0_
  6
CONTINUOUS
 62
    7
 10
100.94831518224768
 20
80.754837860932227
 11
248.12530517578125
 21
146.98451274150128
  0
LINE
  8
_1-0_
  6
DASHED1
 62
    7
 10
99.495620727539062
 20
83.983036762959259
 11
246.67261072107266
 21
150.21271164352831
  0
LINE
  8
_1-0_
  6
DASHED1
 62
    7
 10
107.32537759316935
 20
66.583575686892956
 11
254.50237377269849
 21
132.81325056746201
  0
LINE
  8
_1-0_
  6
CONTINUOUS
 62
    4
 10
97.850077861064193
 20
87.694677404455248
 11
100.57263967153189
 21
84.972127965978672
  0
LINE
  8
_1-0_
  6
CONTINUOUS
 62
    4
 10
99.410594218486068
 20
88.39691162109375
 11
102.1331498429582
 21
85.674355996621628
  0
LINE
  8
_1-0_
  6
CONTINUOUS
 62
    4
 10
100.97109820391681
 20
89.099133465741133
 11
103.69366001438451
 21
86.37658402726457
  0
LINE
  8
_1-0_
  6
CONTINUOUS
 62
    4
 10
102.53160218934755
 20
89.801367682379649
 11
105.25415781381969
 21
87.078812057907527
  0
LINE
  8
_1-0_
  6
CONTINUOUS
 62
    4
 10
104.09211854676943
 20
90.503595713022591
 11
106.81466179925043
 21
87.781040088550469
  0
LINE
  8
_1-0_
  6
CONTINUOUS
 62
    4
 10
105.65262253220017
 20
91.205823743665547
 11
108.37517815667231
 21
88.483268119193411
  0
LINE
  8
_1-0_
  6
CONTINUOUS
 62
    4
 10
107.21313888962204
 20
91.908057960304063
 11
109.93568214210305
 21
89.185502335831927
  0
LINE
  8
_1-0_
  6
CONTINUOUS
 62
    4
 10
108.77364287505279
 20
92.610279804951446
 11
111.49618612753379
 21
89.88772418047931
  0
LINE
  8
_1-0_
  6
CONTINUOUS
 62
    4
 10
110.33413448849241
 20
93.312501649598829
 11
113.05669011296453
 21
90.589952211122267
  0
LINE
  8
_1-0_
  6
CONTINUOUS
 62
    4
 10
111.89465084591428
 20
94.014735866237331
 11
114.61720647038641
 21
91.292180241765209
  0
LINE
  8
_1-0_
  6
CONTINUOUS
 62
    4
 10
113.45515483134503
 20
94.716963896880287
 11
116.17771045581715
 21
91.994408272408151
  0
LINE
  8
_1-0_
  6
CONTINUOUS
 62
    4
 10
115.01565881677577
 20
95.419191927523229
 11
117.73821444124789
 21
92.696636303051108
  0
LINE
  8
_1-0_
  6
CONTINUOUS
 62
    4
 10
116.57617517419764
 20
96.121426144161745
 11
119.29871842667863
 21
93.398870519689623
  0
LINE
  8
_1-0_
  6
CONTINUOUS
 62
    4
 10
118.13667915962839
 20
96.823647988809128
 11
120.85923478410051
 21
94.101098550332566
  0
LINE
  8
_1-0_
  6
CONTINUOUS
 62
    4
 10
119.69718314505913
 20
97.525882205447644
 11
122.41973876953125
 21
94.803326580975508
  0
LINE
  8
_1-0_
  6
CONTINUOUS
 62
    4
 10
121.257699502481
 20
98.228110236090586
 11
123.98024275496201
 21
95.505554611618464
  0
LINE
  8
_1-0_
  6
CONTINUOUS
 62
    4
 10
122.81820348791175
 20
98.930338266733543
 11
125.54075911238388
 21
96.207782642261407
  0
LINE
  8
_1-0_
  6
CONTINUOUS
 62
    4
 10
124.37870747334249
 20
99.632566297376485
 11
127.10125072582349
 21
96.910010672904349
  0
LINE
  8
_1-0_
  6
CONTINUOUS
 62
    4
 10
125.9391990867821
 20
100.33478814202387
 11
128.66175471125422
 21
97.612238703547305
  0
LINE
  8
_1-0_
  6
CONTINUOUS
 62
    4
 10
127.49971544420397
 20
101.03702235866238
 11
130.22227106867609
 21
98.314466734190248
  0
LINE
  8
_1-0_
  6
CONTINUOUS
 62
    4
 10
129.06021942963471
 20
101.73925038930533
 11
131.78277505410685
 21
99.016694764833204
  0
LINE
  8
_1-0_
  6
CONTINUOUS
 62
    4
 10
130.62073578705659
 20
102.44147841994827
 11
133.34329141152872
 21
99.718922795476146
  0
LINE
  8
_1-0_
  6
CONTINUOUS
 62
    4
 10
132.18123977248734
 20
103.14370645059122
 11
134.90379539695948
 21
100.42115082611909
  0
LINE
  8
_1-0_
  6
CONTINUOUS
 62
    4
 10
133.74175612990922
 20
103.84594066722974
 11
136.46429938239021
 21
101.12337885676205
  0
LINE
  8
_1-0_
  6
CONTINUOUS
 62
    4
 10
135.30224774334883
 20
104.54816251187712
 11
138.02480336782097
 21
101.82560688740499
  0
LINE
  8
_1-0_
  6
CONTINUOUS
 62
    4
 10
136.86275172877956
 20
105.25038435652449
 11
139.58530735325169
 21
102.52783491804793
  0
LINE
  8
_1-0_
  6
CONTINUOUS
 62
    4
 10
138.42325571421031
 20
105.95261857316301
 11
141.14581133868245
 21
103.23006294869089
  0
LINE
  8
_1-0_
  6
CONTINUOUS
 62
    4
 10
139.98375969964104
 20
106.65484041781039
 11
142.70631532411318
 21
103.9322971653294
  0
LINE
  8
_1-0_
  6
CONTINUOUS
 62
    4
 10
141.54428842905406
 20
107.35707463444891
 11
144.26683168153505
 21
104.63451900997678
  0
LINE
  8
_1-0_
  6
CONTINUOUS
 62
    4
 10
143.10479241448479
 20
108.05929647909629
 11
145.82733566696581
 21
105.33674085462417
  0
LINE
  8
_1-0_
  6
CONTINUOUS
 62
    4
 10
144.66529639991555
 20
108.76153069573481
 11
147.38785202438768
 21
106.03897507126267
  0
LINE
  8
_1-0_
  6
CONTINUOUS
 62
    4
 10
146.2258003853463
 20
109.46376491237332
 11
148.94835600981841
 21
106.74120928790119
  0
LINE
  8
_1-0_
  6
CONTINUOUS
 62
    4
 10
147.78630437077703
 20
110.1659867570207
 11
150.50885999524917
 21
107.44343113254857
  0
LINE
  8
_1-0_
  6
CONTINUOUS
 62
    4
 10
149.34680835620779
 20
110.86820860166809
 11
152.0693639806799
 21
108.14566534918708
  0
LINE
  8
_1-0_
  6
CONTINUOUS
 62
    4
 10
150.90731234163852
 20
111.57044281830659
 11
153.62986796611065
 21
108.84788719383447
  0
LINE
  8
_1-0_
  6
CONTINUOUS
 62
    4
 10
152.46782869906039
 20
112.2726770349451
 11
155.19037195154138
 21
109.55012141047298
  0
LINE
  8
_1-0_
  6
CONTINUOUS
 62
    4
 10
154.02833268449115
 20
112.97489887959249
 11
156.75088830896325
 21
110.25234325512037
  0
LINE
  8
_1-0_
  6
CONTINUOUS
 62
    4
 10
155.58884904191302
 20
113.677133096231
 11
158.31139229439401
 21
110.95457747175888
  0
LINE
  8
_1-0_
  6
CONTINUOUS
 62
    4
 10
157.14935302734375
 20
114.37935494087839
 11
159.87189627982477
 21
111.65679931640625
  0
LINE
  8
_1-0_
  6
CONTINUOUS
 62
    4
 10
158.70985701277451
 20
115.0815891575169
 11
161.43241263724664
 21
112.35903353304477
  0
LINE
  8
_1-0_
  6
CONTINUOUS
 62
    4
 10
160.27036099820523
 20
115.78381100216428
 11
162.99291662267737
 21
113.06125537769215
  0
LINE
  8
_1-0_
  6
CONTINUOUS
 62
    4
 10
161.83087735562711
 20
116.4860452188028
 11
164.55342060810813
 21
113.76348959433066
  0
LINE
  8
_1-0_
  6
CONTINUOUS
 62
    4
 10
163.39136896906672
 20
117.18826706345017
 11
166.11392459353885
 21
114.46571143897805
  0
LINE
  8
_1-0_
  6
CONTINUOUS
 62
    4
 10
164.95187295449747
 20
117.89050128008869
 11
167.67442857896961
 21
115.16794565561656
  0
LINE
  8
_1-0_
  6
CONTINUOUS
 62
    4
 10
166.51238931191935
 20
118.5927354967272
 11
169.23493256440034
 21
115.87017987225508
  0
LINE
  8
_1-0_
  6
CONTINUOUS
 62
    4
 10
168.07290566934122
 20
119.29495734137458
 11
170.79543654983109
 21
116.57240171690246
  0
LINE
  8
_1-0_
  6
CONTINUOUS
 62
    4
 10
169.63340965477198
 20
119.9971915580131
 11
172.35595290725297
 21
117.27462356154983
  0
LINE
  8
_1-0_
  6
CONTINUOUS
 62
    4
 10
171.19391364020271
 20
120.69941340266048
 11
173.91646926467484
 21
117.97685777818835
  0
LINE
  8
_1-0_
  6
CONTINUOUS
 62
    4
 10
172.75441762563347
 20
121.401647619299
 11
175.47697325010557
 21
118.67909199482686
  0
LINE
  8
_1-0_
  6
CONTINUOUS
 62
    4
 10
174.31492161106419
 20
122.10386946394638
 11
177.03747723553633
 21
119.38131383947425
  0
LINE
  8
_1-0_
  6
CONTINUOUS
 62
    4
 10
175.87542559649495
 20
122.80609130859375
 11
178.59798122096706
 21
120.08353568412163
  0
LINE
  8
_1-0_
  6
CONTINUOUS
 62
    4
 10
177.43592958192568
 20
123.50832552523227
 11
180.15848520639781
 21
120.78576990076014
  0
LINE
  8
_1-0_
  6
CONTINUOUS
 62
    4
 10
178.99643356735643
 20
124.21055974187078
 11
181.71898919182857
 21
121.48800411739866
  0
LINE
  8
_1-0_
  6
CONTINUOUS
 62
    4
 10
180.55694992477831
 20
124.91278158651816
 11
183.2794931772593
 21
122.19022596204604
  0
LINE
  8
_1-0_
  6
CONTINUOUS
 62
    4
 10
182.11745391020904
 20
125.61501580315668
 11
184.84000953468117
 21
122.89246017868454
  0
LINE
  8
_1-0_
  6
CONTINUOUS
 62
    4
 10
183.67795789563979
 20
126.31723764780406
 11
186.40051352011193
 21
123.59468202333193
  0
LINE
  8
_1-0_
  6
CONTINUOUS
 62
    4
 10
185.23847425306167
 20
127.01947186444258
 11
187.9610298775338
 21
124.29691623997044
  0
LINE
  8
_1-0_
  6
CONTINUOUS
 62
    4
 10
186.7989782384924
 20
127.72169370908996
 11
189.52153386296453
 21
124.99913808461783
  0
LINE
  8
_1-0_
  6
CONTINUOUS
 62
    4
 10
188.35948222392315
 20
128.42392792572846
 11
191.08203784839529
 21
125.70137230125634
  0
LINE
  8
_1-0_
  6
CONTINUOUS
 62
    4
 10
189.91998620935391
 20
129.12614977037586
 11
192.64254183382602
 21
126.40359414590372
  0
LINE
  8
_1-0_
  6
CONTINUOUS
 62
    4
 10
191.48049019478464
 20
129.82838398701438
 11
194.20304581925677
 21
127.10582836254224
  0
LINE
  8
_1-0_
  6
CONTINUOUS
 62
    4
 10
193.04100655220651
 20
130.53061820365289
 11
195.7635498046875
 21
127.80805020718962
  0
LINE
  8
_1-0_
  6
CONTINUOUS
 62
    4
 10
194.60151053763727
 20
131.23284004830026
 11
197.32405379011826
 21
128.51028442382812
  0
LINE
  8
_1-0_
  6
CONTINUOUS
 62
    4
 10
196.16202689505914
 20
131.93507426493878
 11
198.88457014754013
 21
129.21250626847552
  0
LINE
  8
_1-0_
  6
CONTINUOUS
 62
    4
 10
197.72253088048987
 20
132.63729610958615
 11
200.44507413297086
 21
129.91474048511404
  0
LINE
  8
_1-0_
  6
CONTINUOUS
 62
    4
 10
199.28303486592063
 20
133.33953032622466
 11
202.00559049039273
 21
130.61697470175255
  0
LINE
  8
_1-0_
  6
CONTINUOUS
 62
    4
 10
200.84353885135135
 20
134.04175217087206
 11
203.56609447582349
 21
131.31919654639992
  0
LINE
  8
_1-0_
  6
CONTINUOUS
 62
    4
 10
202.40405520877323
 20
134.74398638751057
 11
205.12662320523648
 21
132.02143076303844
  0
LINE
  8
_1-0_
  6
CONTINUOUS
 62
    4
 10
203.96454682221284
 20
135.44620823215794
 11
206.68710244668497
 21
132.72365260768581
  0
LINE
  8
_1-0_
  6
CONTINUOUS
 62
    4
 10
205.52505080764359
 20
136.14843007680534
 11
208.24760643211573
 21
133.4258744523332
  0
LINE
  8
_1-0_
  6
CONTINUOUS
 62
    4
 10
207.08555479307432
 20
136.85066429344386
 11
209.80811041754646
 21
134.12810866897172
  0
LINE
  8
_1-0_
  6
CONTINUOUS
 62
    4
 10
208.64605877850508
 20
137.55289851008234
 11
211.36863914695948
 21
134.83034288561024
  0
LINE
  8
_1-0_
  6
CONTINUOUS
 62
    4
 10
210.20658750791807
 20
138.25512035472974
 11
212.92914313239021
 21
135.5325647302576
  0
LINE
  8
_1-0_
  6
CONTINUOUS
 62
    4
 10
211.76709149334883
 20
138.95735457136826
 11
214.48964711782097
 21
136.23479894689612
  0
LINE
  8
_1-0_
  6
CONTINUOUS
 62
    4
 10
213.32759547877959
 20
139.65957641601562
 11
216.05015110325169
 21
136.93702079154352
  0
LINE
  8
_1-0_
  6
CONTINUOUS
 62
    4
 10
214.88809946421031
 20
140.36181063265414
 11
217.61065508868245
 21
137.63924263619089
  0
LINE
  8
_1-0_
  6
CONTINUOUS
 62
    4
 10
216.44860344964107
 20
141.06403247730154
 11
219.17115907411318
 21
138.3414768528294
  0
LINE
  8
_1-0_
  6
CONTINUOUS
 62
    4
 10
218.0091074350718
 20
141.76626669394005
 11
220.73166305954393
 21
139.04371106946792
  0
LINE
  8
_1-0_
  6
CONTINUOUS
 62
    4
 10
219.56961142050255
 20
142.46848853858742
 11
222.29219178895693
 21
139.74594528610643
  0
LINE
  8
_1-0_
  6
CONTINUOUS
 62
    4
 10
221.13014014991555
 20
143.17072275522594
 11
223.85267103040542
 21
140.44815475876268
  0
LINE
  8
_1-0_
  6
CONTINUOUS
 62
    4
 10
222.6906441353463
 20
143.87295697186445
 11
225.41319975981841
 21
141.1503889754012
  0
LINE
  8
_1-0_
  6
CONTINUOUS
 62
    4
 10
224.25114812077703
 20
144.57517881651182
 11
226.97370374524917
 21
141.85262319203972
  0
LINE
  8
_1-0_
  6
CONTINUOUS
 62
    4
 10
225.81165210620779
 20
145.27741303315034
 11
228.53420773067992
 21
142.55485740867823
  0
LINE
  8
_1-0_
  6
CONTINUOUS
 62
    4
 10
227.37215609163852
 20
145.97963487779774
 11
230.09471171611065
 21
143.25706688133448
  0
LINE
  8
_1-0_
  6
CONTINUOUS
 62
    4
 10
228.93266007706927
 20
146.6818567224451
 11
231.65521570154141
 21
143.95930109797297
  0
LINE
  8
_1-0_
  6
CONTINUOUS
 62
    4
 10
230.4931640625
 20
147.38409093908362
 11
233.21571968697214
 21
144.66153531461148
  0
LINE
  8
_1-0_
  6
CONTINUOUS
 62
    4
 10
232.05366804793076
 20
148.08631278373102
 11
234.77622367240289
 21
145.36375715925888
  0
LINE
  8
_1-0_
  6
CONTINUOUS
 62
    4
 10
233.61417203336151
 20
148.7885470003695
 11
236.33672765783362
 21
146.0659913758974
  0
LINE
  8
_1-0_
  6
CONTINUOUS
 62
    4
 10
235.17467601879224
 20
149.49078121700802
 11
237.89723164326438
 21
146.76821322054477
  0
LINE
  8
_1-0_
  6
CONTINUOUS
 62
    4
 10
236.73520474820526
 20
150.19300306165542
 11
239.45776037267737
 21
147.47044743718328
  0
LINE
  8
_1-0_
  6
CONTINUOUS
 62
    4
 10
238.29570873363599
 20
150.89523727829393
 11
241.01826435810813
 21
148.1726816538218
  0
LINE
  8
_1-0_
  6
CONTINUOUS
 62
    4
 10
239.85621271906675
 20
151.5974591229413
 11
242.57876834353885
 21
148.87489112647805
  0
LINE
  8
_1-0_
  6
CONTINUOUS
 62
    4
 10
241.41671670449747
 20
152.29969333957982
 11
244.13927232896961
 21
149.57712534311656
  0
LINE
  8
_1-0_
  6
CONTINUOUS
 62
    4
 10
242.97722068992823
 20
153.00191518422722
 11
245.69977631440034
 21
150.27935955975508
  0
LINE
  8
_1-0_
  6
CONTINUOUS
 62
    4
 10
244.53772467535896
 20
153.70414940086573
 11
245.562744140625
 21
152.67912993559966
  0
LINE
  8
_1-0_
  6
CONTINUOUS
 62
    4
 10
244.99924943253802
 20
149.96412122571792
 11
246.23046050200594
 21
151.19531992319469
  0
LINE
  8
_1-0_
  6
CONTINUOUS
 62
    4
 10
240.88519122149495
 20
148.11280121674409
 11
245.52822628536742
 21
152.75582390862544
  0
LINE
  8
_1-0_
  6
CONTINUOUS
 62
    4
 10
236.77108352248734
 20
146.26145646378802
 11
243.94874366554055
 21
153.43910423485011
  0
LINE
  8
_1-0_
  6
CONTINUOUS
 62
    4
 10
232.65700056746201
 20
144.41011171083193
 11
239.83468545449747
 21
151.58777185388513
  0
LINE
  8
_1-0_
  6
CONTINUOUS
 62
    4
 10
228.54294235641893
 20
142.55877932986698
 11
235.72057775548987
 21
149.73642710092906
  0
LINE
  8
_1-0_
  6
CONTINUOUS
 62
    4
 10
224.42883465741133
 20
140.70744694890203
 11
231.6065195444468
 21
147.88510709195523
  0
LINE
  8
_1-0_
  6
CONTINUOUS
 62
    4
 10
220.31477644636826
 20
138.85610219594597
 11
227.49243658942146
 21
146.03376233899917
  0
LINE
  8
_1-0_
  6
CONTINUOUS
 62
    4
 10
216.20069349134292
 20
137.00476981498102
 11
223.37837837837839
 21
144.18242995803422
  0
LINE
  8
_1-0_
  6
CONTINUOUS
 62
    4
 10
212.08661053631758
 20
135.15343743401604
 11
219.26427067937078
 21
142.33108520507812
  0
LINE
  8
_1-0_
  6
CONTINUOUS
 62
    4
 10
207.97252758129224
 20
133.30209268105997
 11
215.15021246832771
 21
140.47975282411318
  0
LINE
  8
_1-0_
  6
CONTINUOUS
 62
    4
 10
203.85846937024917
 20
131.45076030009503
 11
211.0361047693201
 21
138.62840807115711
  0
LINE
  8
_1-0_
  6
CONTINUOUS
 62
    4
 10
199.74441115920609
 20
129.59942791913008
 11
206.92205893026818
 21
136.77708806218328
  0
LINE
  8
_1-0_
  6
CONTINUOUS
 62
    4
 10
195.63032820418076
 20
127.74809553816513
 11
202.80800071922511
 21
134.92576805320948
  0
LINE
  8
_1-0_
  6
CONTINUOUS
 62
    4
 10
191.51625762114654
 20
125.89676315720017
 11
198.69390539220862
 21
133.07442330025339
  0
LINE
  8
_1-0_
  6
CONTINUOUS
 62
    4
 10
187.4021746661212
 20
124.04543077623522
 11
194.57984718116555
 21
131.22309091928844
  0
LINE
  8
_1-0_
  6
CONTINUOUS
 62
    4
 10
183.28807933910474
 20
122.19408602327914
 11
190.46572711016682
 21
129.37173379434122
  0
LINE
  8
_1-0_
  6
CONTINUOUS
 62
    4
 10
179.17402112806167
 20
120.34275364231419
 11
186.35166889912375
 21
127.52041378536741
  0
LINE
  8
_1-0_
  6
CONTINUOUS
 62
    4
 10
175.05993817303633
 20
118.49142126134925
 11
182.23759831608953
 21
125.66908140440246
  0
LINE
  8
_1-0_
  6
CONTINUOUS
 62
    4
 10
170.94587996199326
 20
116.6400888803843
 11
178.12352773305534
 21
123.8177490234375
  0
LINE
  8
_1-0_
  6
CONTINUOUS
 62
    4
 10
166.83180937895904
 20
114.78876887141048
 11
174.00945715002112
 21
121.96641664247255
  0
LINE
  8
_1-0_
  6
CONTINUOUS
 62
    4
 10
162.71773879592484
 20
112.9374241184544
 11
169.89538656698693
 21
120.1150842615076
  0
LINE
  8
_1-0_
  6
CONTINUOUS
 62
    4
 10
158.60365584089951
 20
111.08610410948059
 11
165.78131598395271
 21
118.26373950855152
  0
LINE
  8
_1-0_
  6
CONTINUOUS
 62
    4
 10
154.48957288587417
 20
109.23475935652451
 11
161.66723302892737
 21
116.41240712758658
  0
LINE
  8
_1-0_
  6
CONTINUOUS
 62
    4
 10
150.37551467483109
 20
107.38342697555954
 11
157.55316244589318
 21
114.56107474662163
  0
LINE
  8
_1-0_
  6
CONTINUOUS
 62
    4
 10
146.26143171980576
 20
105.5320945945946
 11
153.43907949086784
 21
112.70974236565668
  0
LINE
  8
_1-0_
  6
CONTINUOUS
 62
    4
 10
142.14736113677154
 20
103.68076221362965
 11
149.32500890783362
 21
110.85840998469173
  0
LINE
  8
_1-0_
  6
CONTINUOUS
 62
    4
 10
138.03329055373734
 20
101.82942364666914
 11
145.21095069679055
 21
109.00707760372678
  0
LINE
  8
_1-0_
  6
CONTINUOUS
 62
    4
 10
133.91921997070313
 20
99.978097451699753
 11
141.09686774176521
 21
107.15574522276184
  0
LINE
  8
_1-0_
  6
CONTINUOUS
 62
    4
 10
129.80513701567779
 20
98.126752698743672
 11
136.98279715873102
 21
105.30440046980574
  0
LINE
  8
_1-0_
  6
CONTINUOUS
 62
    4
 10
125.69106643264359
 20
96.275426503774284
 11
132.86871420370568
 21
103.45306808884079
  0
LINE
  8
_1-0_
  6
CONTINUOUS
 62
    4
 10
121.57699584960937
 20
94.424087936813777
 11
128.75463124868034
 21
101.60173570787585
  0
LINE
  8
_1-0_
  6
CONTINUOUS
 62
    4
 10
117.46290052259292
 20
92.572749369853256
 11
124.64056066564612
 21
99.750397140915339
  0
LINE
  8
_1-0_
  6
CONTINUOUS
 62
    4
 10
113.34884231154983
 20
90.721416988888308
 11
120.52649008261191
 21
97.899064759950392
  0
LINE
  8
_1-0_
  6
CONTINUOUS
 62
    4
 10
109.23477172851562
 20
88.87008460792336
 11
116.41240712758658
 21
96.04773237898543
  0
LINE
  8
_1-0_
  6
CONTINUOUS
 62
    4
 10
105.12068877349029
 20
87.018746040962839
 11
112.29833654455237
 21
94.196393812024922
  0
LINE
  8
_1-0_
  6
CONTINUOUS
 62
    4
 10
101.00660581846496
 20
85.167413659997891
 11
108.18425358952703
 21
92.345055245064401
  0
LINE
  8
_1-0_
  6
CONTINUOUS
 62
    4
 10
98.894750234243034
 20
85.318296277845235
 11
104.07017063450169
 21
90.493722864099453
  0
LINE
  8
_1-0_
  6
CONTINUOUS
 62
    4
 10
98.192522203600092
 20
86.87881263526711
 11
99.956087679476354
 21
88.642384297138946
  0
LINE
  8
_1-0_
  6
CONTINUOUS
 62
    3
 10
227.08807043127112
 20
175.38460396431589
 11
225.84458634660052
 21
178.76302358266472
  0
LINE
  8
_0-0_
  6
CONTINUOUS
 62
    5
 10
137.02703939901818
 20
20.135134104135886
 11
214.86486486486487
 21
20.135134104135886
  0
ARC
  8
_1-2_
  6
CONTINUOUS
 62
    3
 10
241.21423669763516
 20
128.94966331688133
 40
41.612016832506335
 50
110.20719909667969
 51
139.72184753417969
  0
ARC
  8
_1-2_
  6
CONTINUOUS
 62
    3
 10
246.38028531461151
 20
114.91420848949537
 40
60.168024011560391
 50
110.20719909667969
 51
130.12748718261719
  0
ARC
  8
_1-2_
  6
CONTINUOUS
 62
    3
 10
241.46155280035896
 20
136.33382436391472
 40
41.612016832506335
 50
110.20721435546875
 51
139.72186279296875
  0
ARC
  8
_1-2_
  6
CONTINUOUS
 62
    3
 10
246.62760141733531
 20
122.29836953652872
 40
60.168024011560391
 50
110.20721435546875
 51
130.12750244140625
  0
ARC
  8
_1-0_
  6
CONTINUOUS
 62
    7
 10
243.04573677681589
 20
118.18707027950803
 40
0.9999999162313101
 50
0
 51
90
  0
ARC
  8
_1-0_
  6
CONTINUOUS
 62
    7
 10
246.2457275390625
 20
118.18707027950803
 40
0.9999999162313101
 50
90
 51
180
  0
ARC
  8
_1-0_
  6
CONTINUOUS
 62
    7
 10
246.2457275390625
 20
83.387071764146967
 40
0.9999999162313101
 50
180
 51
270
  0
ARC
  8
_1-0_
  6
CONTINUOUS
 62
    7
 10
243.04573677681589
 20
83.387071764146967
 40
0.9999999162313101
 50
270
 51
0
  0
TEXT
  8
_0-0_
 62
    7
 10
141.89189395389042
 20
14.594594594594582
 40
2.5
 41
1
 50
0
  1
縮尺
  0
TEXT
  8
_0-0_
 62
    7
 10
377.10214563318203
 20
22.865493362014362
 40
2.5
 41
1
 50
0
  1
ＮＯ
  0
TEXT
  8
_0-0_
 62
    7
 10
14.594594336844779
 20
24.324324324324323
 40
2.5
 41
1
 50
0
  1
和形
  0
TEXT
  8
_0-0_
 62
    7
 10
383.23801896378802
 20
18.523427086907475
 40
3
 41
1
 50
0
  1
Ｊ
  0
TEXT
  8
_1-0_
 62
    7
 10
169.90681828679266
 20
13.3181144095756
 40
2.5
 41
1
 50
0
  1
1/5
  0
TEXT
  8
_1-6_
 62
    7
 10
177.55662041741448
 20
231.8918918918919
 40
2.5
 41
1
 50
0
  1
雨押え板　15ｘ90
  0
TEXT
  8
_1-6_
 62
    7
 10
179.92330396497573
 20
214.05405405405406
 40
2.5
 41
1
 50
0
  1
水切鉄板
  0
TEXT
  8
_1-6_
 62
    7
 10
186.1358642578125
 20
194.59459459459461
 40
2.5
 41
1
 50
0
  1
のし瓦
  0
TEXT
  8
_1-6_
 62
    7
 10
39.721904445338907
 20
15.395235628695104
 40
2.5
 41
1
 50
0
  1
壁際　　5
  0
TEXT
  8
_1-6_
 62
    7
 10
25.556194717819636
 20
20.211577544341225
 40
2.5
 41
1
 50
0
  1
鉄骨
  0
LINE
  8
_1-3_
  6
DASHED1
 62
    3
 10
234.52294426995357
 20
150.07477631440034
 11
234.52294426995357
 21
227.32444144584039
  0
POINT
  8
_1-3_
 62
    7
 10
294.50855870264502
 20
227.32444144584039
  0
POINT
  8
_1-3_
 62
    7
 10
294.50855870264502
 20
217.32444144584039
  0
LINE
  8
_1-3_
  6
CONTINUOUS
 62
    7
 10
294.50855870264502
 20
227.32444144584039
 11
294.50855870264502
 21
217.32444144584039
  0
TEXT
  8
_1-3_
 62
    7
 10
294.00855870264502
 20
221.07444144584039
 40
2.5
 41
1
 50
90
  1
50
  0
POINT
  8
_1-3_
 62
    7
 10
294.50855870264502
 20
187.72628371779984
  0
LINE
  8
_1-3_
  6
CONTINUOUS
 62
    7
 10
294.50855870264502
 20
187.72628371779984
 11
250.84639854263969
 21
187.72628371779984
  0
LINE
  8
_1-3_
  6
CONTINUOUS
 62
    7
 10
294.50855870264502
 20
217.32444144584039
 11
250.84639854263969
 21
217.32444144584039
  0
LINE
  8
_1-3_
  6
CONTINUOUS
 62
    7
 10
294.50855870264502
 20
227.32444144584039
 11
250.84639854263969
 21
227.32444144584039
  0
POINT
  8
_1-3_
 62
    7
 10
280.87654796083069
 20
150.07477631440034
  0
POINT
  8
_1-3_
 62
    7
 10
280.87654796083069
 20
227.32444144584039
  0
LINE
  8
_1-3_
  6
CONTINUOUS
 62
    7
 10
280.87654796083069
 20
150.07477631440034
 11
250.84639854263969
 21
150.07477631440034
  0
LINE
  8
_1-3_
  6
CONTINUOUS
 62
    7
 10
280.87654796083069
 20
227.32444144584039
 11
250.84639854263969
 21
227.32444144584039
  0
LINE
  8
_1-3_
  6
CONTINUOUS
 62
    7
 10
280.87654796083069
 20
150.07477631440034
 11
280.87654796083069
 21
227.32444144584039
  0
TEXT
  8
_1-3_
 62
    7
 10
279.65910947090401
 20
165.48540251826546
 40
2.5
 41
1
 50
90
  1
300　以上
  0
TEXT
  8
_1-0_
 62
    7
 10
282.49979928073287
 20
170.09587044332656
 40
2.5
 41
1
 50
0
  1
下葺き材立上がり寸法
  0
TEXT
  8
_1-0_
 62
    7
 10
296.90615474486503
 20
201.34345835144421
 40
2.5
 41
1
 50
0
  1
水切り鉄板立上がり寸法
  0
LINE
  8
_1-3_
  6
CONTINUOUS
 62
    7
 10
294.50855870264502
 20
217.32444144584039
 11
294.50855870264502
 21
187.72628371779984
  0
TEXT
  8
_1-3_
 62
    7
 10
294.00855870264502
 20
200.6503625818201
 40
2.5
 41
1
 50
90
  1
150
  0
TEXT
  8
_1-3_
 62
    7
 10
297.47758621143396
 20
222.83438434640922
 40
3
 41
1
 50
0
  1
下葺き材立上げ長さは、300ｍｍ以上かつ
  0
TEXT
  8
_1-3_
 62
    7
 10
297.86420928470255
 20
217.18731271423016
 40
3
 41
1
 50
0
  1
雨押え板上端より50mm以上とする
  0
TEXT
  8
_1-6_
 62
    7
 10
394.32641519082563
 20
15.842900662808802
 40
2.5
 41
1
 50
0
  1
40
  0
LINE
  8
ADD_LINE
  6
DOT
 62
    4
 10
227.75152250954699
 20
148.64742563158549
 11
227.75152250954699
 21
146.47944744144328
  0
LINE
  8
_1-1_
  6
CONTINUOUS
 62
    7
 10
102.71326845329087
 20
94.927423977490648
 11
103.94436817483859
 21
92.191655066489801
  0
LINE
  8
_1-1_
  6
CONTINUOUS
 62
    7
 10
142.42745896215911
 20
109.50904035338803
 11
141.19634686862025
 21
112.24480926438888
  0
LINE
  8
_1-1_
  6
CONTINUOUS
 62
    7
 10
141.19634686862025
 20
112.24480926438888
 11
145.57358207501807
 21
114.214566344467
  0
LINE
  8
_1-1_
  6
CONTINUOUS
 62
    7
 10
145.57358207501807
 20
114.214566344467
 11
146.80466942457463
 21
111.47879743346616
  0
LINE
  8
_1-1_
  6
CONTINUOUS
 62
    7
 10
146.80466942457463
 20
111.47879743346616
 11
142.42745896215911
 21
109.50904035338803
  0
LINE
  8
_1-1_
  6
CONTINUOUS
 62
    7
 10
185.28777258388629
 20
128.79618272036438
 11
184.05666049034744
 21
131.53195163136522
  0
LINE
  8
_1-1_
  6
CONTINUOUS
 62
    7
 10
189.66498304630187
 20
130.76593980044251
 11
185.28777258388629
 21
128.79618272036438
  0
LINE
  8
_1-1_
  6
CONTINUOUS
 62
    7
 10
228.14808620561348
 20
148.08334983132301
 11
226.91697411207463
 21
150.81909399834157
  0
LINE
  8
_1-1_
  6
CONTINUOUS
 62
    7
 10
232.52529666802906
 20
150.05309453940998
 11
228.14808620561348
 21
148.08334983132301
  0
LINE
  8
_1-1_
  6
CONTINUOUS
 62
    7
 10
226.91697411207463
 20
150.81909399834157
 11
232.52532141201129
 21
150.05306979542772
  0
LINE
  8
_1-1_
  6
CONTINUOUS
 62
    7
 10
184.05666049034744
 20
131.53195163136522
 11
189.66498304630187
 21
130.76593980044251
  0
LINE
  8
_1-1_
  6
CONTINUOUS
 62
    7
 10
141.19634686862025
 20
112.24480926438888
 11
146.80466942457463
 21
111.47879743346616
  0
LINE
  8
_1-b_
  6
CONTINUOUS
 62
    3
 10
103.58195543861603
 20
93.144941727173915
 11
105.27116524779044
 21
93.766683769509228
  0
LINE
  8
_1-b_
  6
CONTINUOUS
 62
    3
 10
102.89111582580986
 20
95.02183464181708
 11
103.58195543861603
 21
93.144941727173915
  0
LINE
  8
ADD_LINE
  6
DOT
 62
    3
 10
102.71326845329087
 20
94.927436349481781
 11
102.71326845329087
 21
94.544399504042588
  0
LINE
  8
_1-1_
  6
CONTINUOUS
 62
    7
 10
142.42745896215911
 20
109.50904035338803
 11
141.19637161260255
 21
112.24480926438888
  0
LINE
  8
_1-1_
  6
CONTINUOUS
 62
    7
 10
141.19637161260255
 20
112.24480926438888
 11
145.57358207501807
 21
114.214566344467
  0
LINE
  8
_1-1_
  6
CONTINUOUS
 62
    7
 10
145.57358207501807
 20
114.214566344467
 11
146.80469416855692
 21
111.47879743346616
  0
LINE
  8
_1-1_
  6
CONTINUOUS
 62
    7
 10
146.80469416855692
 20
111.47879743346616
 11
142.42745896215911
 21
109.50904035338803
  0
LINE
  8
_1-1_
  6
CONTINUOUS
 62
    7
 10
141.19637161260255
 20
112.24480926438888
 11
146.80469416855692
 21
111.47879743346616
  0
LINE
  8
ADD_LINE
  6
DOT
 62
    3
 10
146.47347122197755
 20
117.5583815036203
 11
151.53500125787281
 21
106.31054660206834
  0
LINE
  8
_1-b_
  6
CONTINUOUS
 62
    3
 10
146.44226906034322
 20
112.43208409415027
 11
148.1314664975265
 21
113.05382613648558
  0
LINE
  8
_1-b_
  6
CONTINUOUS
 62
    3
 10
145.75144181952822
 20
114.30897700879343
 11
146.44226906034322
 21
112.43208409415027
  0
LINE
  8
ADD_LINE
  6
DOT
 62
    3
 10
145.57358207501807
 20
114.21457871645813
 11
145.57358207501807
 21
114.67336926359707
  0
LINE
  8
ADD_LINE
  6
DOT
 62
    3
 10
145.57358207501807
 20
114.21457871645813
 11
145.57358207501807
 21
113.83154187101894
  0
LINE
  8
_1-1_
  6
CONTINUOUS
 62
    7
 10
141.19637161260255
 20
112.24482163638001
 11
145.57358207501807
 21
114.21457871645813
  0
LINE
  8
_1-1_
  6
CONTINUOUS
 62
    7
 10
185.28777258388629
 20
128.79618272036438
 11
184.05666049034744
 21
131.53195163136522
  0
LINE
  8
_1-1_
  6
CONTINUOUS
 62
    7
 10
184.05666049034744
 20
131.53195163136522
 11
188.43389569674525
 21
133.50170871144334
  0
LINE
  8
_1-1_
  6
CONTINUOUS
 62
    7
 10
188.43389569674525
 20
133.50170871144334
 11
189.66498304630187
 21
130.76593980044251
  0
LINE
  8
_1-1_
  6
CONTINUOUS
 62
    7
 10
189.66498304630187
 20
130.76593980044251
 11
185.28777258388629
 21
128.79618272036438
  0
LINE
  8
_1-1_
  6
CONTINUOUS
 62
    7
 10
184.05666049034744
 20
131.53195163136522
 11
189.66498304630187
 21
130.76593980044251
  0
LINE
  8
_1-b_
  6
CONTINUOUS
 62
    3
 10
132.91760425882296
 20
113.09671982973938
 11
188.61173069727312
 21
133.59611937576977
  0
LINE
  8
_1-b_
  6
CONTINUOUS
 62
    3
 10
189.30258268207041
 20
131.71922646112662
 11
190.99180486323598
 21
132.34096850346194
  0
LINE
  8
_1-b_
  6
CONTINUOUS
 62
    3
 10
188.61173069727312
 20
133.59611937576977
 11
189.30258268207041
 21
131.71922646112662
  0
LINE
  8
_1-b_
  6
CONTINUOUS
 62
    3
 10
133.63389305738716
 20
116.3440087140827
 11
187.8322705119902
 21
136.29286702674108
  0
LINE
  8
_1-b_
  6
CONTINUOUS
 62
    3
 10
132.6850355695282
 20
114.28981279453033
 11
133.10236757438463
 21
113.15596929526936
  0
LINE
  8
_1-1_
  6
CONTINUOUS
 62
    7
 10
184.05666049034744
 20
131.53195163136522
 11
188.43389569674525
 21
133.50170871144334
  0
LINE
  8
_1-1_
  6
CONTINUOUS
 62
    7
 10
188.43389569674525
 20
133.50170871144334
 11
189.66498304630187
 21
130.76593980044251
  0
LINE
  8
_1-1_
  6
CONTINUOUS
 62
    7
 10
228.14808620561348
 20
148.08332508734074
 11
226.91697411207463
 21
150.81909399834157
  0
LINE
  8
_1-1_
  6
CONTINUOUS
 62
    7
 10
232.52529666802906
 20
150.05306979542772
 11
228.14808620561348
 21
148.08332508734074
  0
LINE
  8
_1-1_
  6
CONTINUOUS
 62
    7
 10
226.91697411207463
 20
150.81909399834157
 11
232.52529666802906
 21
150.05306979542772
  0
LINE
  8
_1-1_
  6
CONTINUOUS
 62
    7
 10
184.05666049034744
 20
131.53195163136522
 11
189.66498304630187
 21
130.76593980044251
  0
LINE
  8
_1-1_
  6
CONTINUOUS
 62
    7
 10
184.05668523432973
 20
131.53195163136522
 11
188.43389569674525
 21
133.50170871144334
  0
LINE
  8
_1-1_
  6
CONTINUOUS
 62
    7
 10
188.43389569674525
 20
133.50170871144334
 11
189.66500779028411
 21
130.76593980044251
  0
LINE
  8
_1-1_
  6
CONTINUOUS
 62
    7
 10
184.05668523432973
 20
131.53195163136522
 11
189.66500779028411
 21
130.76593980044251
  0
LINE
  8
_1-b_
  6
CONTINUOUS
 62
    3
 10
189.30258268207041
 20
131.71922646112662
 11
190.99178011925369
 21
132.34096850346194
  0
LINE
  8
_1-b_
  6
CONTINUOUS
 62
    3
 10
188.61175544125541
 20
133.59611937576977
 11
189.30258268207041
 21
131.71922646112662
  0
LINE
  8
_1-1_
  6
CONTINUOUS
 62
    7
 10
184.05668523432973
 20
131.53196400335636
 11
188.43389569674525
 21
133.50172108343449
  0
LINE
  8
_1-1_
  6
CONTINUOUS
 62
    7
 10
228.14808620561348
 20
148.08332508734074
 11
226.91697411207463
 21
150.81909399834157
  0
LINE
  8
_1-1_
  6
CONTINUOUS
 62
    7
 10
226.91697411207463
 20
150.81909399834157
 11
231.29420931847244
 21
152.78886345041084
  0
LINE
  8
_1-1_
  6
CONTINUOUS
 62
    7
 10
232.52529666802906
 20
150.05306979542772
 11
228.14808620561348
 21
148.08332508734074
  0
LINE
  8
_1-1_
  6
CONTINUOUS
 62
    7
 10
226.91697411207463
 20
150.81909399834157
 11
232.52529666802906
 21
150.05306979542772
  0
LINE
  8
_1-b_
  6
CONTINUOUS
 62
    3
 10
176.49420667911437
 20
135.63115108105904
 11
230.69258413371739
 21
155.58000939371743
  0
LINE
  8
_1-b_
  6
CONTINUOUS
 62
    3
 10
175.54534919125541
 20
133.5769551615067
 11
175.96268119611182
 21
132.44311166224571
  0
LINE
  8
_1-b_
  6
CONTINUOUS
 62
    3
 10
232.15619068460421
 20
151.02125233343449
 11
233.84541286576973
 21
151.64296963178751
  0
LINE
  8
_1-1_
  6
CONTINUOUS
 62
    7
 10
231.28750369927906
 20
152.80370983976894
 11
232.51859104883562
 21
150.06796567275035
  0
LINE
  8
_1-b_
  6
CONTINUOUS
 62
    3
 10
232.15619068460421
 20
151.02125233343449
 11
233.84538812178749
 21
151.64296963178751
  0
LINE
  8
_1-b_
  6
CONTINUOUS
 62
    3
 10
230.51474913318953
 20
156.0597704658247
 11
230.68587851452401
 21
155.5948805270578
  0
LINE
  8
_1-b_
  6
CONTINUOUS
 62
    3
 10
230.51583786840911
 20
156.06016636954089
 11
230.69258413371739
 21
155.58000939371743
  0
LINE
  8
_1-b_
  6
CONTINUOUS
 62
    3
 10
230.51477387717176
 20
156.05974572184243
 11
230.68587851452401
 21
155.5948805270578
  0
LINE
  8
_1-b_
  6
CONTINUOUS
 62
    3
 10
232.01626346490406
 20
156.61242730968027
 11
233.84538812178749
 21
151.64296963178751
  0
LINE
  8
_1-b_
  6
CONTINUOUS
 62
    3
 10
232.01737694410588
 20
156.61282321339647
 11
233.85211848496317
 21
151.62812324242941
  0
LINE
  8
_1-b_
  6
CONTINUOUS
 62
    3
 10
232.01628820888629
 20
156.61242730968027
 11
233.84541286576973
 21
151.64296963178751
  0
LINE
  8
_1-b_
  6
CONTINUOUS
 62
    3
 10
187.66116587463802
 20
136.75773222152569
 11
187.8322705119902
 21
136.29286702674108
  0
LINE
  8
_1-b_
  6
CONTINUOUS
 62
    3
 10
189.16265546237025
 20
137.31041380936352
 11
190.99178011925369
 21
132.34096850346194
  0
LINE
  8
_1-b_
  6
CONTINUOUS
 62
    3
 10
187.66116587463802
 20
136.75773222152569
 11
187.8322705119902
 21
136.29286702674108
  0
LINE
  8
_1-b_
  6
CONTINUOUS
 62
    3
 10
189.16268020635255
 20
137.31041380936352
 11
190.99180486323598
 21
132.34096850346194
  0
LINE
  8
_1-b_
  6
CONTINUOUS
 62
    3
 10
144.80085225291077
 20
117.47060222654048
 11
144.97195689026302
 21
117.00572465976471
  0
LINE
  8
_1-b_
  6
CONTINUOUS
 62
    3
 10
146.30234184064307
 20
118.02325907039605
 11
148.1314664975265
 21
113.05382613648558
  0
LINE
  8
_1-b_
  6
CONTINUOUS
 62
    3
 10
103.44205296289813
 20
98.736116703419697
 11
105.27116524779044
 21
93.766683769509228
  0
LINE
  8
_1-c_
  6
CONTINUOUS
 62
    7
 10
130.19804265620473
 20
121.04666440321911
 11
132.6850355695282
 21
114.28982516652147
  0
LINE
  8
_1-c_
  6
CONTINUOUS
 62
    7
 10
173.05835627793192
 20
140.33378202621319
 11
175.54534919125541
 21
133.5769551615067
  0
LINE
  8
_1-c_
  6
CONTINUOUS
 62
    7
 10
174.00718902180859
 20
142.38797794576556
 11
216.5031969926701
 21
158.02953991789394
  0
LINE
  8
ADD_LINE
  6
DOT
 62
    7
 10
141.64483154714645
 20
117.09659693462747
 11
145.74555275174947
 21
107.98398212254976
  0
LINE
  8
_1-c_
  6
CONTINUOUS
 62
    7
 10
131.14688777207255
 20
123.10084795078033
 11
173.6439473621802
 21
138.74279345463381
  0
LINE
  8
_1-b_
  6
CONTINUOUS
 62
    3
 10
101.3464603610189
 20
97.964797288301455
 11
145.75144181952822
 21
114.30897700879343
  0
LINE
  8
_1-b_
  6
CONTINUOUS
 62
    3
 10
100.19460324267008
 20
100.52447564952401
 11
144.97195689026302
 21
117.00572465976471
  0
LINE
  8
_1-c_
  6
CONTINUOUS
 62
    7
 10
97.232699077762987
 20
107.10651102352105
 11
130.78364611244416
 21
119.45565108765746
  0
LINE
  8
_1-b_
  6
CONTINUOUS
 62
    3
 10
230.51474913318953
 20
156.0597704658247
 11
232.01626346490406
 21
156.61243968167139
  0
LINE
  8
_1-b_
  6
CONTINUOUS
 62
    7
 10
216.5031969926701
 20
158.02953991789394
 11
229.70599207290655
 21
162.88910957055441
  0
LINE
  8
_1-b_
  6
CONTINUOUS
 62
    7
 10
232.01626346490406
 20
156.61242730968027
 11
229.70599207290655
 21
162.88910957055441
  0
LINE
  8
_1-1_
  6
CONTINUOUS
 62
    7
 10
188.43389569674525
 20
133.50170871144334
 11
189.66498304630187
 21
130.76593980044251
  0
LINE
  8
_1-1_
  6
CONTINUOUS
 62
    7
 10
184.05666049034744
 20
131.53195163136522
 11
188.43389569674525
 21
133.50170871144334
  0
LINE
  8
_1-1_
  6
CONTINUOUS
 62
    7
 10
226.91697411207463
 20
150.81909399834157
 11
231.29420931847244
 21
152.78886345041084
  0
LINE
  8
_1-1_
  6
CONTINUOUS
 62
    7
 10
231.28750369927906
 20
152.80370983976894
 11
232.51859104883562
 21
150.06796567275035
  0
LINE
  8
_1-1_
  6
CONTINUOUS
 62
    7
 10
226.91697411207463
 20
150.81909399834157
 11
231.2941845744902
 21
152.7888510784197
  0
LINE
  8
_1-1_
  6
CONTINUOUS
 62
    7
 10
231.2941845744902
 20
152.7888510784197
 11
232.51859104883562
 21
150.06796567275035
  0
LINE
  8
_1-b_
  6
CONTINUOUS
 62
    3
 10
175.77791788055015
 20
132.38386219671574
 11
231.47095558378072
 21
152.88286583902993
  0
LINE
  8
_1-b_
  6
CONTINUOUS
 62
    3
 10
231.47095558378072
 20
152.88286583902993
 11
232.15619068460421
 21
151.02125233343449
  0
ARC
  8
_1-b_
  6
CONTINUOUS
 62
    3
 10
134.18654990124273
 20
114.84248201037704
 40
1.5999999239638045
 50
110.20680236816406
 51
200.20738220214844
  0
ARC
  8
_1-b_
  6
CONTINUOUS
 62
    3
 10
177.04686352296994
 20
134.12962437735339
 40
1.5999999239638045
 50
110.20680236816406
 51
200.20738220214844
  0
ARC
  8
_1-c_
  6
CONTINUOUS
 62
    7
 10
131.69955698791924
 20
121.59932124707468
 40
1.5999999239638045
 50
110.20722961425781
 51
200.20695495605469
  0
ARC
  8
_1-c_
  6
CONTINUOUS
 62
    7
 10
174.55987060964645
 20
140.88643887006876
 40
1.5999999239638045
 50
110.20748901367187
 51
200.20695495605469
  0
LINE
  8
_1-0_
  6
CONTINUOUS
 62
    7
 10
97.172958786423152
 20
89.144513929212422
 11
233.51579954132836
 21
150.49880142064458
  0
LINE
  8
_1-0_
  6
CONTINUOUS
 62
    7
 10
233.51579954132836
 20
150.49880142064458
 11
233.76201026438309
 21
149.95166648057517
  0
LINE
  8
_1-0_
  6
CONTINUOUS
 62
    7
 10
97.419161409945104
 20
88.597368807406042
 11
233.76201026438309
 21
149.95166648057517
  0
TEXT
  8
_1-6_
 62
    7
 10
53.700941442576294
 20
174.45487000312846
 40
2.5
 41
1
 50
0
  1
※　地域により瓦桟木の大きさは、異なります
  0
TEXT
  8
_1-5_
 62
    7
 10
43.069697893680569
 20
183.65780392208615
 40
2.5
 41
1
 50
0
  1
桟瓦
  0
TEXT
  8
_1-5_
 62
    7
 10
42.754169848851063
 20
178.26098055452914
 40
2.5
 41
1
 50
0
  1
瓦桟　
  0
TEXT
  8
_1-0_
 62
    7
 10
42.544422328198067
 20
151.52222504486909
 40
2.5
 41
1
 50
0
  1
垂木　Ｃ－100ｘ50ｘ20ｘ2.3
  0
TEXT
  8
_1-0_
 62
    7
 10
42.544420266199552
 20
159.19988683752112
 40
2.5
 41
1
 50
0
  1
硬質木片セメント板　　ｔ＝18
  0
LINE
  8
_1-6_
  6
CONTINUOUS
 62
    7
 10
64.531464447846304
 20
184.38980514938768
 11
56.480076190265237
 21
184.38980514938768
  0
LINE
  8
_1-6_
  6
CONTINUOUS
 62
    7
 10
98.63717156487543
 20
179.08588306323904
 11
86.458772262535248
 21
179.08588306323904
  0
LINE
  8
_1-6_
  6
CONTINUOUS
 62
    7
 10
79.097455433401336
 20
152.69097676916732
 11
121.07658411702417
 21
152.69097676916732
  0
LINE
  8
_1-6_
  6
CONTINUOUS
 62
    7
 10
91.686374068731809
 20
160.90577960747618
 11
118.08664027056979
 21
160.90577960747618
  0
LINE
  8
_1-2_
  6
CONTINUOUS
 62
    7
 10
111.81362667599241
 20
165.14556884765625
 11
116.5434831189674
 21
165.14556884765625
  0
TEXT
  8
_1-0_
 62
    7
 10
53.05366070017601
 20
178.0543683026288
 40
2.5
 41
1
 50
0
  1
１５×２１　（樹脂桟木）
  0
TEXT
  8
_1-5_
 62
    7
 10
42.755728719733639
 20
171.26098220412797
 40
2.5
 41
1
 50
0
  1
縦桟
  0
TEXT
  8
_1-0_
 62
    7
 10
42.90763202684937
 20
164.34569487700591
 40
2.5
 41
1
 50
0
  1
ルーフィング
  0
LINE
  8
_1-6_
  6
CONTINUOUS
 62
    7
 10
111.81362667599241
 20
165.14556884765625
 11
65.637021204571568
 21
165.14556884765625
  0
LINE
  8
_1-6_
  6
CONTINUOUS
 62
    7
 10
91.686374068731809
 20
160.90577960747618
 11
82.514258093961445
 21
160.90577960747618
  0
TEXT
  8
_1-0_
 62
    7
 10
182.97937562665535
 20
177.51487082364525
 40
2.5
 41
1
 50
0
  1
葺き土
  0
ARC
  8
_1-4_
  6
CONTINUOUS
 62
    5
 10
191.2252505626426
 20
154.42642000340274
 40
26.956696673144624
 50
352.46046662372709
 51
17.883511959653742
  0
ARC
  8
_1-4_
  6
CONTINUOUS
 62
    5
 10
211.16144939222488
 20
169.0204846399651
 40
8.103643649489797
 50
357.17459255308876
 51
16.480164785958731
  0
LINE
  8
ADD_LINE
  6
DOT
 62
    7
 10
225.84458634660052
 20
178.76302358266472
 11
225.64971297495339
 21
179.2355645282812
  0
LINE
  8
ADD_LINE
  6
DOT
 62
    7
 10
230.02664102090372
 20
181.42402855125636
 11
234.52294426995357
 21
182.64369534041703
  0
ARC
  8
_1-4_
  6
CONTINUOUS
 62
    1
 10
191.2252505626426
 20
154.42642000340274
 40
26.956696673144624
 50
352.46046662372709
 51
17.883511959653742
  0
ARC
  8
_1-4_
  6
CONTINUOUS
 62
    1
 10
211.16144939222488
 20
169.0204846399651
 40
8.103643649489797
 50
357.17459255308876
 51
16.480164785958731
  0
SOLID
  8
_1-4_
  6
CONTINUOUS
 62
    8
 10
218.74673851982647
 20
156.91750610241931
 11
217.94889483789194
 21
150.88942520868531
 12
230.68587851452401
 22
155.5948805270578
 13
230.68587851452401
 23
155.5948805270578
  0
SOLID
  8
_1-4_
  6
CONTINUOUS
 62
    8
 10
218.74673851982647
 20
156.91750610241931
 11
230.68587851452401
 21
155.5948805270578
 12
230.51583786840911
 22
156.06016636954089
 13
230.51583786840911
 23
156.06016636954089
  0
SOLID
  8
_1-4_
  6
CONTINUOUS
 62
    8
 10
218.74673851982647
 20
156.91750610241931
 11
230.51583786840911
 21
156.06016636954089
 12
232.01737694410588
 22
156.61282321339647
 13
232.01737694410588
 23
156.61282321339647
  0
SOLID
  8
_1-4_
  6
CONTINUOUS
 62
    8
 10
225.25877363296524
 20
167.3338256435602
 11
223.8614054455638
 21
166.76677768345527
 12
222.54504410960593
 22
166.13897458476768
 13
222.54504410960593
 23
166.13897458476768
  0
SOLID
  8
_1-4_
  6
CONTINUOUS
 62
    8
 10
225.25877363296524
 20
167.3338256435602
 11
222.54504410960593
 21
166.13897458476768
 12
221.12742420934359
 22
165.40991292177563
 13
221.12742420934359
 23
165.40991292177563
  0
SOLID
  8
_1-4_
  6
CONTINUOUS
 62
    8
 10
225.25877363296524
 20
167.3338256435602
 11
221.12742420934359
 21
165.40991292177563
 12
219.99332828913373
 22
164.72135468450534
 13
219.99332828913373
 23
164.72135468450534
  0
SOLID
  8
_1-4_
  6
CONTINUOUS
 62
    8
 10
225.25877363296524
 20
167.3338256435602
 11
219.99332828913373
 21
164.72135468450534
 12
218.77822551748031
 22
163.93153788293063
 13
218.77822551748031
 23
163.93153788293063
  0
SOLID
  8
_1-4_
  6
CONTINUOUS
 62
    8
 10
225.25877363296524
 20
167.3338256435602
 11
218.77822551748031
 21
163.93153788293063
 12
216.9150679342784
 22
162.67593168555544
 13
216.9150679342784
 23
162.67593168555544
  0
SOLID
  8
_1-4_
  6
CONTINUOUS
 62
    8
 10
216.9150679342784
 20
162.67593168555544
 11
216.87947547289133
 21
162.70435693130324
 12
218.74673851982647
 22
156.91750610241931
 13
218.74673851982647
 23
156.91750610241931
  0
SOLID
  8
_1-4_
  6
CONTINUOUS
 62
    8
 10
216.9150679342784
 20
162.67593168555544
 11
218.74673851982647
 21
156.91750610241931
 12
232.01737694410588
 22
156.61282321339647
 13
232.01737694410588
 23
156.61282321339647
  0
SOLID
  8
_1-4_
  6
CONTINUOUS
 62
    8
 10
219.32318262560113
 20
169.99766815333555
 11
219.25524206627654
 21
168.62103433343873
 12
220.59324076375094
 22
169.27924516443878
 13
220.59324076375094
 23
169.27924516443878
  0
SOLID
  8
_1-4_
  6
CONTINUOUS
 62
    8
 10
219.32318262560113
 20
169.99766815333555
 11
220.59324076375094
 21
169.27924516443878
 12
222.02623434755219
 22
169.92555095906556
 13
222.02623434755219
 23
169.92555095906556
  0
SOLID
  8
_1-4_
  6
CONTINUOUS
 62
    8
 10
219.32318262560113
 20
169.99766815333555
 11
222.02623434755219
 21
169.92555095906556
 12
223.55184542343596
 22
170.59407716085735
 13
223.55184542343596
 23
170.59407716085735
  0
SOLID
  8
_1-4_
  6
CONTINUOUS
 62
    8
 10
219.32318262560113
 20
169.99766815333555
 11
223.55184542343596
 21
170.59407716085735
 12
224.64034321353284
 22
171.01404874916244
 13
224.64034321353284
 23
171.01404874916244
  0
SOLID
  8
_1-4_
  6
CONTINUOUS
 62
    8
 10
219.32318262560113
 20
169.99766815333555
 11
224.64034321353284
 21
171.01404874916244
 12
225.59728015387927
 22
171.37886832150608
 13
225.59728015387927
 23
171.37886832150608
  0
SOLID
  8
_1-4_
  6
CONTINUOUS
 62
    8
 10
225.59728015387927
 20
171.37886832150608
 11
227.08808116780506
 21
175.3846023087516
 12
225.39802105960842
 22
174.7281206655768
 13
225.39802105960842
 23
174.7281206655768
  0
SOLID
  8
_1-4_
  6
CONTINUOUS
 62
    8
 10
225.59728015387927
 20
171.37886832150608
 11
225.39802105960842
 21
174.7281206655768
 12
223.77496060762923
 22
173.98421795841966
 13
223.77496060762923
 23
173.98421795841966
  0
SOLID
  8
_1-4_
  6
CONTINUOUS
 62
    8
 10
225.59728015387927
 20
171.37886832150608
 11
223.77496060762923
 21
173.98421795841966
 12
222.35478271214743
 22
173.27412901067876
 13
222.35478271214743
 23
173.27412901067876
  0
SOLID
  8
_1-4_
  6
CONTINUOUS
 62
    8
 10
225.59728015387927
 20
171.37886832150608
 11
222.35478271214743
 21
173.27412901067876
 12
221.05295297462246
 22
172.5978538223541
 13
221.05295297462246
 23
172.5978538223541
  0
SOLID
  8
_1-4_
  6
CONTINUOUS
 62
    8
 10
225.59728015387927
 20
171.37886832150608
 11
221.05295297462246
 21
172.5978538223541
 12
219.98781955301112
 22
171.92157863402943
 13
219.98781955301112
 23
171.92157863402943
  0
SOLID
  8
_1-4_
  6
CONTINUOUS
 62
    8
 10
225.59728015387927
 20
171.37886832150608
 11
219.98781955301112
 21
171.92157863402943
 12
218.93959301110789
 22
171.31293096453723
 13
218.93959301110789
 23
171.31293096453723
  0
SOLID
  8
_1-4_
  6
CONTINUOUS
 62
    8
 10
218.93959301110789
 20
171.31293096453723
 11
218.9321791583595
 21
171.31935377491507
 12
219.32318262560113
 22
169.99766815333555
 13
219.32318262560113
 23
169.99766815333555
  0
SOLID
  8
_1-4_
  6
CONTINUOUS
 62
    8
 10
218.93959301110789
 20
171.31293096453723
 11
219.32318262560113
 21
169.99766815333555
 12
225.59728015387927
 22
171.37886832150608
 13
225.59728015387927
 23
171.37886832150608
  0
SOLID
  8
_1-4_
  6
CONTINUOUS
 62
    8
 10
230.02664102090372
 20
181.42402855125636
 11
225.64971297495339
 21
179.2355645282812
 12
225.84458634660052
 22
178.76302358266472
 13
225.84458634660052
 23
178.76302358266472
  0
SOLID
  8
_1-4_
  6
CONTINUOUS
 62
    8
 10
230.02664102090372
 20
181.42402855125636
 11
225.84458634660052
 21
178.76302358266472
 12
227.08808116780506
 22
175.3846023087516
 13
227.08808116780506
 23
175.3846023087516
  0
LINE
  8
_1-3_
  6
CONTINUOUS
 62
    7
 10
227.23192656971241
 20
163.19151280910864
 11
234.4319265697124
 21
163.19151280910864
  0
LINE
  8
_1-3_
  6
CONTINUOUS
 62
    7
 10
234.4319265697124
 20
163.19151280910864
 11
234.4319265697124
 21
175.19151280910864
  0
LINE
  8
_1-3_
  6
CONTINUOUS
 62
    7
 10
234.4319265697124
 20
175.19151280910864
 11
227.23192656971241
 21
175.19151280910864
  0
LINE
  8
_1-3_
  6
CONTINUOUS
 62
    7
 10
227.23192656971241
 20
175.19151280910864
 11
227.23192656971241
 21
163.19151280910864
  0
LINE
  8
_1-3_
  6
CONTINUOUS
 62
    7
 10
227.23192656971241
 20
175.19151280910864
 11
234.01287477816811
 21
163.19151280910864
  0
LINE
  8
_1-3_
  6
DASHED1
 62
    7
 10
227.37972548659548
 20
173.27160205303989
 11
230.87841203382609
 21
173.27160205303989
  0
LINE
  8
_1-3_
  6
DASHED1
 62
    7
 10
227.37972548659548
 20
173.67160205303989
 11
230.87841203382609
 21
173.67160205303989
  0
LINE
  8
_1-3_
  6
DASHED1
 62
    7
 10
230.87841203382609
 20
173.67160205303989
 11
231.25409577309756
 21
173.47160205303987
  0
LINE
  8
_1-3_
  6
DASHED1
 62
    7
 10
230.87841203382609
 20
173.27160205303989
 11
231.25409577309756
 21
173.47160205303987
  0
LINE
  8
ADD_LINE
  6
DOT
 62
    4
 10
226.81757646413291
 20
173.47160205303987
 11
231.25409577309756
 21
173.47160205303987
  0
LINE
  8
_1-3_
  6
CONTINUOUS
 62
    7
 10
227.15996265898676
 20
172.87160205303988
 11
227.15996265898676
 21
174.0716020530399
  0
LINE
  8
_1-3_
  6
CONTINUOUS
 62
    7
 10
227.15996265898676
 20
174.0716020530399
 11
226.85996265898675
 21
174.0716020530399
  0
LINE
  8
_1-3_
  6
CONTINUOUS
 62
    7
 10
226.85996265898675
 20
174.0716020530399
 11
226.85996265898675
 21
172.87160205303988
  0
LINE
  8
_1-3_
  6
CONTINUOUS
 62
    7
 10
226.85996265898675
 20
172.87160205303988
 11
227.15996265898676
 21
172.87160205303988
  0
LINE
  8
_1-3_
  6
CONTINUOUS
 62
    7
 10
227.15996265898676
 20
173.27160205303989
 11
227.37972548659548
 21
173.27160205303989
  0
LINE
  8
_1-3_
  6
CONTINUOUS
 62
    7
 10
227.15996265898676
 20
173.67160205303989
 11
227.37972548659548
 21
173.67160205303989
  0
LINE
  8
_1-3_
  6
DASHED1
 62
    7
 10
227.36020758395554
 20
166.78425407366771
 11
230.85889413118616
 21
166.78425407366771
  0
LINE
  8
_1-3_
  6
DASHED1
 62
    7
 10
227.36020758395554
 20
167.18425407366772
 11
230.85889413118616
 21
167.18425407366772
  0
LINE
  8
_1-3_
  6
DASHED1
 62
    7
 10
230.85889413118616
 20
167.18425407366772
 11
231.23457787045763
 21
166.9842540736677
  0
LINE
  8
_1-3_
  6
DASHED1
 62
    7
 10
230.85889413118616
 20
166.78425407366771
 11
231.23457787045763
 21
166.9842540736677
  0
LINE
  8
ADD_LINE
  6
DOT
 62
    4
 10
226.79805856149298
 20
166.9842540736677
 11
231.23457787045763
 21
166.9842540736677
  0
LINE
  8
_1-3_
  6
CONTINUOUS
 62
    7
 10
227.1404447563468
 20
166.38425407366771
 11
227.1404447563468
 21
167.58425407366769
  0
LINE
  8
_1-3_
  6
CONTINUOUS
 62
    7
 10
227.1404447563468
 20
167.58425407366769
 11
226.84044475634681
 21
167.58425407366769
  0
LINE
  8
_1-3_
  6
CONTINUOUS
 62
    7
 10
226.84044475634681
 20
167.58425407366769
 11
226.84044475634681
 21
166.38425407366771
  0
LINE
  8
_1-3_
  6
CONTINUOUS
 62
    7
 10
226.84044475634681
 20
166.38425407366771
 11
227.1404447563468
 21
166.38425407366771
  0
LINE
  8
_1-3_
  6
CONTINUOUS
 62
    7
 10
227.1404447563468
 20
166.78425407366771
 11
227.36020758395554
 21
166.78425407366771
  0
LINE
  8
_1-3_
  6
CONTINUOUS
 62
    7
 10
227.1404447563468
 20
167.18425407366772
 11
227.36020758395554
 21
167.18425407366772
  0
LINE
  8
_1-3_
  6
CONTINUOUS
 62
    7
 10
224.18596059457053
 20
178.23585662735428
 11
225.94113815159974
 21
178.9152801978172
  0
LINE
  8
_1-3_
  6
CONTINUOUS
 62
    7
 10
225.94113815159974
 20
178.9152801978172
 11
227.24336666165365
 21
175.48041659158798
  0
LINE
  8
_1-3_
  6
CONTINUOUS
 62
    7
 10
227.24336666165365
 20
175.48041659158798
 11
225.60142636636829
 21
174.81986589808238
  0
LINE
  8
_1-3_
  6
DASHED1
 62
    7
 10
224.18596059457053
 20
178.23585662735428
 11
225.60142636636829
 21
174.81986589808238
  0
LINE
  8
_1-3_
  6
CONTINUOUS
 62
    7
 10
225.60142636636829
 20
174.81986589808238
 11
227.18674803078176
 21
174.06495081979025
  0
LINE
  8
_1-3_
  6
CONTINUOUS
 62
    7
 10
227.18674803078176
 20
174.06495081979025
 11
227.20562090773905
 21
173.00806971018127
  0
LINE
  8
_1-3_
  6
CONTINUOUS
 62
    7
 10
224.29919785631435
 20
170.95092612183521
 11
225.71466362811208
 21
171.5359853075116
  0
LINE
  8
_1-3_
  6
CONTINUOUS
 62
    7
 10
225.71466362811208
 20
171.5359853075116
 11
226.9414006303368
 21
168.0256301934532
  0
LINE
  8
_1-3_
  6
CONTINUOUS
 62
    7
 10
226.9414006303368
 20
168.0256301934532
 11
225.75240938202671
 21
167.53493539256331
  0
LINE
  8
_1-3_
  6
DASHED1
 62
    7
 10
224.25505711179537
 20
170.9285009315945
 11
225.75240938202671
 21
167.53493539256331
  0
LINE
  8
_1-3_
  6
CONTINUOUS
 62
    7
 10
225.75240938202671
 20
167.53493539256331
 11
227.1404447563468
 21
167.58425407366769
  0
LINE
  8
_1-3_
  6
CONTINUOUS
 62
    7
 10
227.1404447563468
 20
167.58425407366769
 11
227.20562090773905
 21
166.53467291382623
  0
LINE
  8
ADD_LINE
  6
DOT
 62
    7
 10
233.84538812178749
 20
151.64296963178751
 11
234.52294426995357
 21
150.07477631440034
  0
LINE
  8
ADD_LINE
  6
DOT
 62
    7
 10
227.1404447563468
 20
166.38425407366771
 11
227.58252535897603
 21
166.38731421355422
  0
LINE
  8
ADD_LINE
  6
DOT
 62
    7
 10
227.1404447563468
 20
167.58425407366769
 11
227.38878952179672
 21
167.58698612839527
  0
LINE
  8
ADD_LINE
  6
DOT
 62
    7
 10
227.18674803078176
 20
174.06495081979025
 11
227.55000851326548
 21
174.06811955548989
  0
LINE
  8
ADD_LINE
  6
DOT
 62
    7
 10
227.15996265898676
 20
172.87160205303988
 11
227.83579825100844
 21
172.87160205303988
  0
LINE
  8
ADD_LINE
  6
DOT
 62
    7
 10
227.08808116780506
 20
175.3846023087516
 11
227.23192656971241
 21
175.19151280910864
  0
SOLID
  8
ADD_LINE
  6
DOT
 62
    8
 10
225.59727024387669
 20
171.37886253563136
 11
226.84077546493299
 21
168.00044508960386
 12
227.23192656971241
 22
167.58526047023997
 13
227.23192656971241
 23
167.58526047023997
  0
SOLID
  8
ADD_LINE
  6
DOT
 62
    8
 10
225.59727024387669
 20
171.37886253563136
 11
227.23192656971241
 21
167.58526047023997
 12
227.23192656971241
 22
172.87160205303988
 13
227.23192656971241
 23
172.87160205303988
  0
SOLID
  8
ADD_LINE
  6
DOT
 62
    8
 10
225.59727024387669
 20
171.37886253563136
 11
227.23192656971241
 21
172.87160205303988
 12
226.85996265898675
 22
172.87160205303988
 13
226.85996265898675
 23
172.87160205303988
  0
SOLID
  8
ADD_LINE
  6
DOT
 62
    8
 10
225.59727024387669
 20
171.37886253563136
 11
226.85996265898675
 21
172.87160205303988
 12
226.85996265898675
 22
174.0716020530399
 13
226.85996265898675
 23
174.0716020530399
  0
SOLID
  8
ADD_LINE
  6
DOT
 62
    8
 10
225.59727024387669
 20
171.37886253563136
 11
226.85996265898675
 21
174.0716020530399
 12
226.68574045407939
 22
174.30352585631519
 13
226.68574045407939
 23
174.30352585631519
  0
SOLID
  8
ADD_LINE
  6
DOT
 62
    8
 10
216.9150679342784
 20
162.67593168555544
 11
232.01625945444812
 21
156.61243820552463
 12
216.87947547289133
 22
162.70435693130324
 13
227.23192656971241
 23
163.19151280910864
  0
SOLID
  8
ADD_LINE
  6
DOT
 62
    8
 10
232.01625945444812
 20
156.61243820552463
 11
234.4319265697124
 21
163.19151280910864
 12
227.23192656971241
 22
163.19151280910864
 13
227.23192656971241
 23
163.19151280910864
  0
SOLID
  8
ADD_LINE
  6
DOT
 62
    8
 10
226.84075432854732
 20
168.00044291728253
 11
225.25877363296524
 21
167.3338256435602
 12
216.87947547289133
 22
162.70435693130324
 13
216.87947547289133
 23
162.70435693130324
  0
SOLID
  8
ADD_LINE
  6
DOT
 62
    8
 10
216.87947547289133
 20
162.70435693130324
 11
227.23192656971241
 21
163.19151280910864
 12
226.84044475634681
 22
166.38425407366771
 13
226.84044475634681
 23
166.38425407366771
  0
SOLID
  8
ADD_LINE
  6
DOT
 62
    8
 10
216.87947547289133
 20
162.70435693130324
 11
226.84044475634681
 21
166.38425407366771
 12
226.85186174306108
 22
167.98867763679971
 13
226.85186174306108
 23
167.98867763679971
  0
SOLID
  8
ADD_LINE
  6
DOT
 62
    8
 10
216.87947547289133
 20
162.70435693130324
 11
226.85186174306108
 21
167.98867763679971
 12
226.84077546493299
 22
168.00044508960386
 13
226.84077546493299
 23
168.00044508960386
  0
SOLID
  8
ADD_LINE
  6
DOT
 62
    8
 10
226.84077546493299
 20
168.00044508960386
 11
226.85338075863146
 21
168.00643319541837
 12
226.84075432854732
 22
168.00044291728253
 13
226.84075432854732
 23
168.00044291728253
  0
SOLID
  8
ADD_LINE
  6
DOT
 62
    8
 10
226.84077546493299
 20
168.00044508960386
 11
226.84075432854732
 21
168.00044291728253
 12
216.87947547289133
 22
162.70435693130324
 13
216.87947547289133
 23
162.70435693130324
  0
SOLID
  8
ADD_LINE
  6
DOT
 62
    8
 10
226.85186174306108
 20
167.98867763679971
 11
226.848983888015
 21
167.58425407366769
 12
226.85186174306108
 22
167.98867763679971
 13
227.23192656971241
 23
167.58526047023997
  0
SOLID
  8
ADD_LINE
  6
DOT
 62
    8
 10
234.4319265697124
 20
163.19151280910864
 11
232.01737694410588
 21
156.61282321339647
 12
234.52294426995357
 22
150.07477631440034
 13
233.85211848496317
 23
151.62812324242941
  0
SOLID
  8
ADD_LINE
  6
DOT
 62
    8
 10
230.02664102090372
 20
181.42402855125636
 11
227.08808116780506
 21
175.3846023087516
 12
234.52294426995357
 22
182.64369534041703
 13
234.51289986303365
 23
175.18619609434694
  0
SOLID
  8
ADD_LINE
  6
DOT
 62
    8
 10
227.08808116780506
 20
175.3846023087516
 11
227.23192656971241
 21
175.19151280910864
 12
234.51289986303365
 22
175.18619609434694
 13
234.51289986303365
 23
175.18619609434694
  0
SOLID
  8
ADD_LINE
  6
DOT
 62
    8
 10
227.08807043127112
 20
175.38460396431589
 11
226.68574045407939
 21
174.30352585631519
 12
227.08808116780506
 22
175.3846023087516
 13
227.23192656971241
 23
175.19151280910864
  0
SOLID
  8
ADD_LINE
  6
DOT
 62
    8
 10
226.68574045407939
 20
174.30352585631519
 11
226.85996265898675
 21
174.0716020530399
 12
227.23192656971241
 22
175.19151280910864
 13
227.23192656971241
 23
174.06534491399006
  0
SOLID
  8
ADD_LINE
  6
DOT
 62
    8
 10
226.84044475634681
 20
166.38425407366771
 11
227.23192656971241
 21
163.19151280910864
 12
226.84044475634681
 22
166.38425407366771
 13
227.23192656971241
 23
166.38488732277276
  0
ENDSEC
  0
EOF
