  0
SECTION
  2
HEADER
  9
$ACADVER
  1
AC1009
  9
$INSBASE
 10
0
 20
0
 30
0
  9
$EXTMIN
 10
0
 20
0
  9
$EXTMAX
 10
420
 20
297
  9
$LIMMIN
 10
0
 20
0
  9
$LIMMAX
 10
420
 20
297
  9
$LTSCALE
 40
1
  0
ENDSEC
  0
SECTION
  2
TABLES
  0
TABLE
  2
LTYPE
 70
     9
  0
LTYPE
  2
CONTINUOUS
 70
    64
  3
実線
 72
    65
 73
     0
 40
0.0
  0
LTYPE
  2
DASHED1
 70
    64
  3
--  --  --  --  --  --  --  --  
 72
    65
 73
     2
 40
2.5
 49
1.25
 49
-1.25
  0
LTYPE
  2
DASHED2
 70
    64
  3
----    ----    ----    ----    
 72
    65
 73
     2
 40
5.0
 49
2.5
 49
-2.5
  0
LTYPE
  2
DASHED3
 70
    64
  3
------  ------  ------  ------  
 72
    65
 73
     2
 40
5.0
 49
3.75
 49
-1.25
  0
LTYPE
  2
CENTER1
 70
    64
  3
----- - ----- - ----- - ----- - 
 72
    65
 73
     4
 40
10.0
 49
6.25
 49
-1.25
 49
1.25
 49
-1.25
  0
LTYPE
  2
CENTER2
 70
    64
  3
----------  --  ----------  --  
 72
    65
 73
     4
 40
20.0
 49
12.5
 49
-2.5
 49
2.5
 49
-2.5
  0
LTYPE
  2
PHANTOM1
 70
    64
  3
--- - - --- - - --- - - --- - - 
 72
    65
 73
     6
 40
10.0
 49
3.25
 49
-1.25
 49
1.25
 49
-1.25
 49
1.25
 49
-1.25
  0
LTYPE
  2
PHANTOM2
 70
    64
  3
--------  -  -  --------  -  -  
 72
    65
 73
     6
 40
20.0
 49
10.0
 49
-2.5
 49
1.25
 49
-2.5
 49
1.25
 49
-2.5
  0
LTYPE
  2
DOT
 70
    64
  3
-   -   -   -   -   -   -   -   
 72
    65
 73
     2
 40
2.5
 49
0.625
 49
-1.875
  0
LTYPE
  2
DUMMY
 70
    64
  3
ダミー
 72
    65
 73
     0
 40
0.0
  0
LTYPE
  2
RAND1
 70
    64
  3
ランダム線1
 72
    65
 73
     4
 40
10.0
 49
1.0
 49
-2.0
 49
3.0
 49
-4.0
  0
LTYPE
  2
RAND2
 70
    64
  3
ランダム線2
 72
    65
 73
     4
 40
14.0
 49
2.0
 49
-3.0
 49
4.0
 49
-5.0
  0
LTYPE
  2
RAND3
 70
    64
  3
ランダム線3
 72
    65
 73
     4
 40
18.0
 49
3.0
 49
-4.0
 49
5.0
 49
-6.0
  0
LTYPE
  2
RAND4
 70
    64
  3
ランダム線4
 72
    65
 73
     4
 40
22.0
 49
4.0
 49
-5.0
 49
6.0
 49
-7.0
  0
LTYPE
  2
RAND5
 70
    64
  3
ランダム線5
 72
    65
 73
     4
 40
26.0
 49
5.0
 49
-6.0
 49
7.0
 49
-8.0
  0
LTYPE
  2
LONG1
 70
    64
  3
----------  --  ----------  --  
 72
    65
 73
     4
 40
40.0
 49
32.5
 49
-2.5
 49
2.5
 49
-2.5
  0
LTYPE
  2
LONG2
 70
    64
  3
--------  -  -  --------  -  -  
 72
    65
 73
     6
 40
40.0
 49
30.0
 49
-2.5
 49
1.25
 49
-2.5
 49
1.25
 49
-2.5
  0
LTYPE
  2
LONG3
 70
    64
  3
+++++++++++++++..+++++++++++++++
 72
    65
 73
     2
 40
40.0
 49
37.5
 49
-2.5
  0
LTYPE
  2
LONG4
 70
    64
  3
+++++++++++++++..+++++++++++++++
 72
    65
 73
     2
 40
80.0
 49
75.0
 49
-5.0
  0
LTYPE
  2
LONG5
 70
    64
  3
----------  --  ----------  --  
 72
    65
 73
     4
 40
60.0
 49
37.5
 49
-7.5
 49
7.5
 49
-7.5
  0
LTYPE
  2
dashed
 70
   64
  3
-------   -------------   ------
 72
   65
 73
    2
 40
7.5
 49
6
 49
-1.5
  0
LTYPE
  2
dashed_spaced
 70
   64
  3
----        --------        ----
 72
   65
 73
    2
 40
12
 49
6
 49
-6
  0
LTYPE
  2
long_dashed_dotted
 70
   64
  3
------------- --- --------------
 72
   65
 73
    4
 40
15.25
 49
12
 49
-1.5
 49
0.25
 49
-1.5
  0
LTYPE
  2
long_dashed_double-dotted
 70
   64
  3
----------- --- --- ------------
 72
   65
 73
    6
 40
17
 49
12
 49
-1.5
 49
0.25
 49
-1.5
 49
0.25
 49
-1.5
  0
LTYPE
  2
long_dashed_triplicate-dotted
 70
   64
  3
--------- --- --- --- ----------
 72
   65
 73
    8
 40
18.75
 49
12
 49
-1.5
 49
0.25
 49
-1.5
 49
0.25
 49
-1.5
 49
0.25
 49
-1.5
  0
LTYPE
  2
dotted
 70
   64
  3
   -       -       -       -    
 72
   65
 73
    2
 40
1.75
 49
0.25
 49
-1.5
  0
LTYPE
  2
chain
 70
   64
  3
-------------- -- --------------
 72
   65
 73
    4
 40
18.5
 49
12
 49
-1.5
 49
3.5
 49
-1.5
  0
LTYPE
  2
chain_double_dash
 70
   64
  3
------------ -- -- -------------
 72
   65
 73
    6
 40
23.5
 49
12
 49
-1.5
 49
3.5
 49
-1.5
 49
3.5
 49
-1.5
  0
LTYPE
  2
dashed_dotted
 70
   64
  3
-----------     -     ----------
 72
   65
 73
    4
 40
9.25
 49
6
 49
-1.5
 49
0.25
 49
-1.5
  0
LTYPE
  2
double-dashed_dotted
 70
   64
  3
------   -----------   -   -----
 72
   65
 73
    6
 40
16.75
 49
6
 49
-1.5
 49
6
 49
-1.5
 49
0.25
 49
-1.5
  0
LTYPE
  2
dashed_double-dotted
 70
   64
  3
---------    -    -    ---------
 72
   65
 73
    6
 40
11
 49
6
 49
-1.5
 49
0.25
 49
-1.5
 49
0.25
 49
-1.5
  0
LTYPE
  2
double-dashed_double-dotted
 70
   64
  3
-----   ---------   -   -   ----
 72
   65
 73
    8
 40
18.5
 49
6
 49
-1.5
 49
6
 49
-1.5
 49
0.25
 49
-1.5
 49
0.25
 49
-1.5
  0
LTYPE
  2
dashed_triplicate-dotted
 70
   64
  3
-------    -    -    -    ------
 72
   65
 73
    8
 40
12.75
 49
6
 49
-1.5
 49
0.25
 49
-1.5
 49
0.25
 49
-1.5
 49
0.25
 49
-1.5
  0
LTYPE
  2
double-dashed_triplicate-dotted
 70
   64
  3
-----  ---------  -  -  -  -----
 72
   65
 73
   10
 40
20.25
 49
6
 49
-1.5
 49
6
 49
-1.5
 49
0.25
 49
-1.5
 49
0.25
 49
-1.5
 49
0.25
 49
-1.5
  0
LTYPE
  2
undefined
 70
   64
  3
--------------------------------
 72
   65
 73
    0
 40
0
  0
ENDTAB
  0
TABLE
  2
STYLE
  5
3
100
AcDbSymbolTable
 70
     1
  0
STYLE
  5
10
100
AcDbSymbolTableRecord
100
AcDbTextStyleTableRecord
  2
STANDARD
 70
     0
 40
0.0
 41
1.0
 50
0.0
 71
     0
 42
0.2
  3
txt
  4
bigfont.shx
  0
STYLE
  5
26
100
AcDbSymbolTableRecord
100
AcDbTextStyleTableRecord
  2
TATEGAKI
 70
    68
 40
0.0
 41
1.0
 50
0.0
 71
     0
 42
1.0
  3
txt
  4
bigfont.shx
  0
ENDTAB
  0
TABLE
  2
LAYER
 70
    9
  0
LAYER
  2
_0-0_
 70
   64
 62
    7
  6
CONTINUOUS
  0
LAYER
  2
_1-0_
 70
   64
 62
    7
  6
CONTINUOUS
  0
LAYER
  2
_1-1_
 70
   64
 62
    7
  6
CONTINUOUS
  0
LAYER
  2
_1-2_
 70
   64
 62
    7
  6
CONTINUOUS
  0
LAYER
  2
_1-3_
 70
   64
 62
    7
  6
CONTINUOUS
  0
LAYER
  2
_1-5_
 70
   64
 62
    7
  6
CONTINUOUS
  0
LAYER
  2
_1-b_
 70
   64
 62
    7
  6
CONTINUOUS
  0
LAYER
  2
_1-c_
 70
   64
 62
    7
  6
CONTINUOUS
  0
LAYER
  2
ADD_LINE
 70
   64
 62
    7
  6
CONTINUOUS
  0
ENDTAB
  0
ENDSEC
  0
SECTION
  2
BLOCKS
  0
ENDSEC
  0
SECTION
  2
ENTITIES
  0
LINE
  8
_0-0_
  6
CONTINUOUS
 62
    5
 10
6.7567526327597136
 20
280.13513513513516
 11
406.75677325274495
 21
280.13513513513516
  0
LINE
  8
_0-0_
  6
CONTINUOUS
 62
    5
 10
406.75677325274495
 20
10.13513513513513
 11
6.7567526327597136
 21
10.13513513513513
  0
LINE
  8
_0-0_
  6
CONTINUOUS
 62
    5
 10
406.75677325274495
 20
30.135133073136615
 11
6.7567402607685949
 21
30.135133073136615
  0
LINE
  8
_0-0_
  6
CONTINUOUS
 62
    5
 10
371.75678150073907
 20
10.13513513513513
 11
371.75678150073907
 21
30.135133073136615
  0
LINE
  8
_0-0_
  6
CONTINUOUS
 62
    5
 10
137.02703939901818
 20
30.135133073136615
 11
137.02703939901818
 21
10.13513513513513
  0
LINE
  8
_0-0_
  6
CONTINUOUS
 62
    5
 10
214.86486486486487
 20
30.135133073136615
 11
214.86486486486487
 21
10.13513513513513
  0
LINE
  8
_0-0_
  6
CONTINUOUS
 62
    5
 10
137.02703939901818
 20
20.135134104135886
 11
214.86486486486487
 21
20.135134104135886
  0
LINE
  8
_0-0_
  6
CONTINUOUS
 62
    5
 10
396.48648648648651
 20
25.945945945945951
 11
383.91891891891896
 21
13.378379924877265
  0
LINE
  8
_1-1_
  6
CONTINUOUS
 62
    7
 10
263.76414530986068
 20
159.16460191881336
 11
262.53303321632183
 21
161.90037082981419
  0
LINE
  8
_1-1_
  6
CONTINUOUS
 62
    7
 10
262.53303321632183
 20
161.90037082981419
 11
266.91026842271958
 21
163.87012790989232
  0
LINE
  8
_1-1_
  6
CONTINUOUS
 62
    7
 10
266.91026842271958
 20
163.87012790989232
 11
268.1413557722762
 21
161.13435899889149
  0
LINE
  8
_1-1_
  6
CONTINUOUS
 62
    7
 10
268.1413557722762
 20
161.13435899889149
 11
263.76414530986068
 21
159.16460191881336
  0
LINE
  8
_1-1_
  6
CONTINUOUS
 62
    7
 10
306.62445893158787
 20
178.45174428578972
 11
305.39334683804901
 21
181.18751319679055
  0
LINE
  8
_1-1_
  6
CONTINUOUS
 62
    7
 10
305.39334683804901
 20
181.18751319679055
 11
309.77058204444683
 21
183.15727027686867
  0
LINE
  8
_1-1_
  6
CONTINUOUS
 62
    7
 10
311.00166939400339
 20
180.42150136586784
 11
306.62445893158787
 21
178.45174428578972
  0
LINE
  8
_1-1_
  6
CONTINUOUS
 62
    7
 10
349.48477255331505
 20
197.73891139674834
 11
348.2536604597762
 21
200.4746555637669
  0
LINE
  8
_1-1_
  6
CONTINUOUS
 62
    7
 10
348.2536604597762
 20
200.4746555637669
 11
352.63089566617401
 21
202.44442501583617
  0
LINE
  8
_1-1_
  6
CONTINUOUS
 62
    7
 10
352.63089566617401
 20
202.44442501583617
 11
353.86198301573057
 21
199.70865610483531
  0
LINE
  8
_1-1_
  6
CONTINUOUS
 62
    7
 10
353.86198301573057
 20
199.70865610483531
 11
349.48477255331505
 21
197.73891139674834
  0
LINE
  8
_1-1_
  6
CONTINUOUS
 62
    7
 10
348.2536604597762
 20
200.4746555637669
 11
353.86200775971287
 21
199.70863136085305
  0
LINE
  8
_1-1_
  6
CONTINUOUS
 62
    7
 10
305.39334683804901
 20
181.18751319679055
 11
311.00166939400339
 21
180.42150136586784
  0
LINE
  8
_1-1_
  6
CONTINUOUS
 62
    7
 10
262.53303321632183
 20
161.90037082981419
 11
268.1413557722762
 21
161.13435899889149
  0
LINE
  8
_1-1_
  6
CONTINUOUS
 62
    7
 10
263.76414530986068
 20
159.16460191881336
 11
262.53305796030406
 21
161.90037082981419
  0
LINE
  8
_1-1_
  6
CONTINUOUS
 62
    7
 10
262.53305796030406
 20
161.90037082981419
 11
266.91026842271958
 21
163.87012790989232
  0
LINE
  8
_1-1_
  6
CONTINUOUS
 62
    7
 10
266.91026842271958
 20
163.87012790989232
 11
268.14138051625844
 21
161.13435899889149
  0
LINE
  8
_1-1_
  6
CONTINUOUS
 62
    7
 10
268.14138051625844
 20
161.13435899889149
 11
263.76414530986068
 21
159.16460191881336
  0
LINE
  8
_1-1_
  6
CONTINUOUS
 62
    7
 10
262.53305796030406
 20
161.90037082981419
 11
268.14138051625844
 21
161.13435899889149
  0
LINE
  8
_1-b_
  6
CONTINUOUS
 62
    3
 10
267.77895540804479
 20
162.0876456595756
 11
269.46815284522808
 21
162.70938770191091
  0
LINE
  8
_1-b_
  6
CONTINUOUS
 62
    3
 10
267.08812816722974
 20
163.96453857421875
 11
267.77895540804479
 21
162.0876456595756
  0
LINE
  8
_1-b_
  6
CONTINUOUS
 62
    3
 10
212.11026578336148
 20
146.71242791253169
 11
266.30864323796453
 21
166.66128622519005
  0
LINE
  8
_1-1_
  6
CONTINUOUS
 62
    7
 10
262.53305796030406
 20
161.90038320180534
 11
266.91026842271958
 21
163.87014028188347
  0
LINE
  8
_1-1_
  6
CONTINUOUS
 62
    7
 10
306.62445893158787
 20
178.45174428578972
 11
305.39334683804901
 21
181.18751319679055
  0
LINE
  8
_1-1_
  6
CONTINUOUS
 62
    7
 10
305.39334683804901
 20
181.18751319679055
 11
309.77058204444683
 21
183.15727027686867
  0
LINE
  8
_1-1_
  6
CONTINUOUS
 62
    7
 10
309.77058204444683
 20
183.15727027686867
 11
311.00166939400339
 21
180.42150136586784
  0
LINE
  8
_1-1_
  6
CONTINUOUS
 62
    7
 10
311.00166939400339
 20
180.42150136586784
 11
306.62445893158787
 21
178.45174428578972
  0
LINE
  8
_1-1_
  6
CONTINUOUS
 62
    7
 10
305.39334683804901
 20
181.18751319679055
 11
311.00166939400339
 21
180.42150136586784
  0
LINE
  8
_1-b_
  6
CONTINUOUS
 62
    3
 10
310.63926902977198
 20
181.37478802655195
 11
312.3284912109375
 21
181.99653006888727
  0
LINE
  8
_1-b_
  6
CONTINUOUS
 62
    3
 10
309.94841704497469
 20
183.2516809411951
 11
310.63926902977198
 21
181.37478802655195
  0
LINE
  8
_1-b_
  6
CONTINUOUS
 62
    3
 10
254.9705794050887
 20
165.99957027950802
 11
309.16895685969172
 21
185.94842859216641
  0
LINE
  8
_1-1_
  6
CONTINUOUS
 62
    7
 10
305.39334683804901
 20
181.18751319679055
 11
309.77058204444683
 21
183.15727027686867
  0
LINE
  8
_1-1_
  6
CONTINUOUS
 62
    7
 10
309.77058204444683
 20
183.15727027686867
 11
311.00166939400339
 21
180.42150136586784
  0
LINE
  8
_1-1_
  6
CONTINUOUS
 62
    7
 10
349.48477255331505
 20
197.73888665276607
 11
348.2536604597762
 21
200.4746555637669
  0
LINE
  8
_1-1_
  6
CONTINUOUS
 62
    7
 10
348.2536604597762
 20
200.4746555637669
 11
352.63089566617401
 21
202.44442501583617
  0
LINE
  8
_1-1_
  6
CONTINUOUS
 62
    7
 10
352.63089566617401
 20
202.44442501583617
 11
353.86198301573057
 21
199.70863136085305
  0
LINE
  8
_1-1_
  6
CONTINUOUS
 62
    7
 10
353.86198301573057
 20
199.70863136085305
 11
349.48477255331505
 21
197.73888665276607
  0
LINE
  8
_1-1_
  6
CONTINUOUS
 62
    7
 10
348.2536604597762
 20
200.4746555637669
 11
353.86198301573057
 21
199.70863136085305
  0
LINE
  8
_1-1_
  6
CONTINUOUS
 62
    7
 10
305.39334683804901
 20
181.18751319679055
 11
311.00166939400339
 21
180.42150136586784
  0
LINE
  8
_1-1_
  6
CONTINUOUS
 62
    7
 10
305.39337158203125
 20
181.18751319679055
 11
309.77058204444683
 21
183.15727027686867
  0
LINE
  8
_1-1_
  6
CONTINUOUS
 62
    7
 10
309.77058204444683
 20
183.15727027686867
 11
311.00169413798568
 21
180.42150136586784
  0
LINE
  8
_1-1_
  6
CONTINUOUS
 62
    7
 10
305.39337158203125
 20
181.18751319679055
 11
311.00169413798568
 21
180.42150136586784
  0
LINE
  8
_1-b_
  6
CONTINUOUS
 62
    3
 10
310.63926902977198
 20
181.37478802655195
 11
312.32846646695526
 21
181.99653006888727
  0
LINE
  8
_1-b_
  6
CONTINUOUS
 62
    3
 10
309.94844178895693
 20
183.2516809411951
 11
310.63926902977198
 21
181.37478802655195
  0
LINE
  8
_1-1_
  6
CONTINUOUS
 62
    7
 10
305.39337158203125
 20
181.18752556878169
 11
309.77058204444683
 21
183.15728264885982
  0
LINE
  8
_1-1_
  6
CONTINUOUS
 62
    7
 10
349.48477255331505
 20
197.73888665276607
 11
348.2536604597762
 21
200.4746555637669
  0
LINE
  8
_1-1_
  6
CONTINUOUS
 62
    7
 10
348.2536604597762
 20
200.4746555637669
 11
352.63089566617401
 21
202.44442501583617
  0
LINE
  8
_1-1_
  6
CONTINUOUS
 62
    7
 10
352.63089566617401
 20
202.44442501583617
 11
353.86198301573057
 21
199.70863136085305
  0
LINE
  8
_1-1_
  6
CONTINUOUS
 62
    7
 10
353.86198301573057
 20
199.70863136085305
 11
349.48477255331505
 21
197.73888665276607
  0
LINE
  8
_1-1_
  6
CONTINUOUS
 62
    7
 10
348.2536604597762
 20
200.4746555637669
 11
353.86198301573057
 21
199.70863136085305
  0
LINE
  8
_1-b_
  6
CONTINUOUS
 62
    3
 10
353.49958265149917
 20
200.66191802153716
 11
355.18880483266474
 21
201.28368480785474
  0
LINE
  8
_1-b_
  6
CONTINUOUS
 62
    3
 10
297.83089302681589
 20
185.28671264648437
 11
352.02927048141896
 21
205.23557095914273
  0
LINE
  8
_1-1_
  6
CONTINUOUS
 62
    7
 10
349.47806693412161
 20
197.75375778610643
 11
348.24695484058282
 21
200.48952669710727
  0
LINE
  8
_1-1_
  6
CONTINUOUS
 62
    7
 10
348.24695484058282
 20
200.48952669710727
 11
352.62419004698057
 21
202.45927140519427
  0
LINE
  8
_1-1_
  6
CONTINUOUS
 62
    7
 10
352.62419004698057
 20
202.45927140519427
 11
353.85527739653719
 21
199.72352723817568
  0
LINE
  8
_1-1_
  6
CONTINUOUS
 62
    7
 10
353.85527739653719
 20
199.72352723817568
 11
349.47806693412161
 21
197.75375778610643
  0
LINE
  8
_1-1_
  6
CONTINUOUS
 62
    7
 10
348.24695484058282
 20
200.48952669710727
 11
353.85527739653719
 21
199.72352723817568
  0
LINE
  8
_1-1_
  6
CONTINUOUS
 62
    7
 10
349.47806693412161
 20
197.75375778610643
 11
348.24695484058282
 21
200.48952669710727
  0
LINE
  8
_1-1_
  6
CONTINUOUS
 62
    7
 10
348.24695484058282
 20
200.48952669710727
 11
352.62419004698057
 21
202.45927140519427
  0
LINE
  8
_1-1_
  6
CONTINUOUS
 62
    7
 10
352.62419004698057
 20
202.45927140519427
 11
353.85527739653719
 21
199.72352723817568
  0
LINE
  8
_1-1_
  6
CONTINUOUS
 62
    7
 10
353.85527739653719
 20
199.72352723817568
 11
349.47806693412161
 21
197.75375778610643
  0
LINE
  8
_1-1_
  6
CONTINUOUS
 62
    7
 10
348.24695484058282
 20
200.48952669710727
 11
353.85527739653719
 21
199.72352723817568
  0
LINE
  8
_1-1_
  6
CONTINUOUS
 62
    7
 10
348.24695484058282
 20
200.48952669710727
 11
352.62419004698057
 21
202.45927140519427
  0
LINE
  8
_1-1_
  6
CONTINUOUS
 62
    7
 10
352.62419004698057
 20
202.45927140519427
 11
353.85527739653719
 21
199.72352723817568
  0
LINE
  8
_1-1_
  6
CONTINUOUS
 62
    7
 10
348.24695484058282
 20
200.48952669710727
 11
353.85527739653719
 21
199.72352723817568
  0
LINE
  8
_1-1_
  6
CONTINUOUS
 62
    7
 10
348.24697958456505
 20
200.48952669710727
 11
352.62419004698057
 21
202.45927140519427
  0
LINE
  8
_1-1_
  6
CONTINUOUS
 62
    7
 10
352.62419004698057
 20
202.45927140519427
 11
353.85530214051943
 21
199.72352723817568
  0
LINE
  8
_1-1_
  6
CONTINUOUS
 62
    7
 10
348.24697958456505
 20
200.48952669710727
 11
353.85530214051943
 21
199.72352723817568
  0
LINE
  8
_1-b_
  6
CONTINUOUS
 62
    3
 10
353.49287703230578
 20
200.67681389885982
 11
355.18207446948907
 21
201.29853119721284
  0
LINE
  8
_1-b_
  6
CONTINUOUS
 62
    3
 10
352.80204979149073
 20
202.55369444151182
 11
353.49287703230578
 21
200.67681389885982
  0
LINE
  8
_1-1_
  6
CONTINUOUS
 62
    7
 10
348.24697958456505
 20
200.48955144108953
 11
352.62419004698057
 21
202.45929614917654
  0
LINE
  8
_1-b_
  6
CONTINUOUS
 62
    3
 10
339.73564354149073
 20
202.53454259923987
 11
340.15297554634714
 21
201.40067435599664
  0
LINE
  8
_1-b_
  6
CONTINUOUS
 62
    3
 10
340.68450102934969
 20
204.58873851879224
 11
374.01308626741979
 21
216.85601311760982
  0
LINE
  8
_1-b_
  6
CONTINUOUS
 62
    3
 10
351.85143548089104
 20
205.71533203125
 11
352.02256486222552
 21
205.25044209248313
  0
LINE
  8
_1-b_
  6
CONTINUOUS
 62
    3
 10
351.85252421611068
 20
205.71572793496622
 11
352.02927048141896
 21
205.23557095914273
  0
LINE
  8
_1-b_
  6
CONTINUOUS
 62
    3
 10
351.85146022487334
 20
205.71530728726773
 11
352.02256486222552
 21
205.25044209248313
  0
LINE
  8
_1-b_
  6
CONTINUOUS
 62
    3
 10
353.35294981260557
 20
206.26798887510557
 11
355.18207446948907
 21
201.29853119721284
  0
LINE
  8
_1-b_
  6
CONTINUOUS
 62
    3
 10
353.35406329180745
 20
206.2683847788218
 11
355.18880483266474
 21
201.28368480785474
  0
LINE
  8
_1-b_
  6
CONTINUOUS
 62
    3
 10
353.35297455658787
 20
206.26798887510557
 11
355.1820992134713
 21
201.29853119721284
  0
LINE
  8
_1-b_
  6
CONTINUOUS
 62
    3
 10
308.99785222233953
 20
186.41329378695102
 11
309.16895685969172
 21
185.94842859216641
  0
LINE
  8
_1-b_
  6
CONTINUOUS
 62
    3
 10
310.49934181007183
 20
186.96597537478885
 11
312.32846646695526
 21
181.99653006888727
  0
LINE
  8
_1-b_
  6
CONTINUOUS
 62
    3
 10
308.99785222233953
 20
186.41329378695102
 11
309.16895685969172
 21
185.94842859216641
  0
LINE
  8
_1-b_
  6
CONTINUOUS
 62
    3
 10
310.49936655405406
 20
186.96597537478885
 11
312.3284912109375
 21
181.99653006888727
  0
LINE
  8
_1-b_
  6
CONTINUOUS
 62
    3
 10
266.13753860061234
 20
167.12616379196581
 11
266.30864323796453
 21
166.66128622519005
  0
LINE
  8
_1-b_
  6
CONTINUOUS
 62
    3
 10
267.63902818834458
 20
167.67882063582138
 11
269.46815284522808
 21
162.70938770191091
  0
LINE
  8
_1-c_
  6
CONTINUOUS
 62
    7
 10
208.67441538217906
 20
151.41508360166807
 11
211.16140829550255
 21
144.65824436497044
  0
LINE
  8
_1-c_
  6
CONTINUOUS
 62
    7
 10
251.53472900390625
 20
170.70222596864443
 11
254.02172191722974
 21
163.9453867319468
  0
LINE
  8
_1-c_
  6
CONTINUOUS
 62
    7
 10
294.39504262563344
 20
189.98934359163852
 11
296.88203553895693
 21
183.23251672693203
  0
LINE
  8
_1-c_
  6
CONTINUOUS
 62
    7
 10
338.19748337204396
 20
211.34557775548987
 11
371.5260933540963
 21
223.61285235430745
  0
LINE
  8
_1-c_
  6
CONTINUOUS
 62
    7
 10
295.34387536951016
 20
192.04353951119089
 11
337.83988334037161
 21
207.68510148331927
  0
LINE
  8
_1-c_
  6
CONTINUOUS
 62
    7
 10
252.48358649176521
 20
172.75640951620568
 11
294.98063370988177
 21
188.39835502005914
  0
LINE
  8
_1-c_
  6
CONTINUOUS
 62
    7
 10
209.62324812605576
 20
153.46926714922932
 11
252.12034483213685
 21
169.11121265308279
  0
LINE
  8
_1-0_
  6
CONTINUOUS
 62
    7
 10
193.67441538217906
 20
109.42092070708404
 11
383.84859652132604
 21
194.99930716849664
  0
LINE
  8
_1-0_
  6
CONTINUOUS
 62
    7
 10
193.67441538217906
 20
122.57994368269638
 11
378.92424712309969
 21
205.94235806851773
  0
LINE
  8
_1-0_
  6
CONTINUOUS
 62
    7
 10
193.67441538217906
 20
125.86969324060389
 11
377.69313502956084
 21
208.67812697951859
  0
LINE
  8
_1-1_
  6
CONTINUOUS
 62
    7
 10
162.06778861380914
 20
141.84721663191513
 11
166.44499907622466
 21
139.87745955183701
  0
LINE
  8
_1-1_
  6
CONTINUOUS
 62
    7
 10
123.58468545449747
 20
159.16460191881336
 11
124.81579754803633
 21
161.90037082981419
  0
LINE
  8
_1-1_
  6
CONTINUOUS
 62
    7
 10
124.81579754803633
 20
161.90037082981419
 11
120.43856234163852
 21
163.87012790989232
  0
LINE
  8
_1-1_
  6
CONTINUOUS
 62
    7
 10
120.43856234163852
 20
163.87012790989232
 11
119.20747499208193
 21
161.13435899889149
  0
LINE
  8
_1-1_
  6
CONTINUOUS
 62
    7
 10
119.20747499208193
 20
161.13435899889149
 11
123.58468545449747
 21
159.16460191881336
  0
LINE
  8
_1-1_
  6
CONTINUOUS
 62
    7
 10
80.72437183277026
 20
178.45174428578972
 11
81.955483926309114
 21
181.18751319679055
  0
LINE
  8
_1-1_
  6
CONTINUOUS
 62
    7
 10
81.955483926309114
 20
181.18751319679055
 11
77.578248719911301
 21
183.15727027686867
  0
LINE
  8
_1-1_
  6
CONTINUOUS
 62
    7
 10
77.578248719911301
 20
183.15727027686867
 11
76.34716137035474
 21
180.42150136586784
  0
LINE
  8
_1-1_
  6
CONTINUOUS
 62
    7
 10
76.34716137035474
 20
180.42150136586784
 11
80.72437183277026
 21
178.45174428578972
  0
LINE
  8
_1-1_
  6
CONTINUOUS
 62
    7
 10
37.864058211043073
 20
197.73891139674834
 11
39.095170304581927
 21
200.4746555637669
  0
LINE
  8
_1-1_
  6
CONTINUOUS
 62
    7
 10
39.095170304581927
 20
200.4746555637669
 11
34.717935098184114
 21
202.44442501583617
  0
LINE
  8
_1-1_
  6
CONTINUOUS
 62
    7
 10
34.717935098184114
 20
202.44442501583617
 11
33.486847748627525
 21
199.70865610483531
  0
LINE
  8
_1-1_
  6
CONTINUOUS
 62
    7
 10
33.486847748627525
 20
199.70865610483531
 11
37.864058211043073
 21
197.73891139674834
  0
LINE
  8
_1-1_
  6
CONTINUOUS
 62
    7
 10
39.095170304581927
 20
200.4746555637669
 11
33.48682300464526
 21
199.70863136085305
  0
LINE
  8
_1-1_
  6
CONTINUOUS
 62
    7
 10
81.955483926309114
 20
181.18751319679055
 11
76.34716137035474
 21
180.42150136586784
  0
LINE
  8
_1-1_
  6
CONTINUOUS
 62
    7
 10
124.81579754803633
 20
161.90037082981419
 11
119.20747499208193
 21
161.13435899889149
  0
LINE
  8
_1-1_
  6
CONTINUOUS
 62
    7
 10
123.58468545449747
 20
159.16460191881336
 11
124.81577280405406
 21
161.90037082981419
  0
LINE
  8
_1-1_
  6
CONTINUOUS
 62
    7
 10
124.81577280405406
 20
161.90037082981419
 11
120.43856234163852
 21
163.87012790989232
  0
LINE
  8
_1-1_
  6
CONTINUOUS
 62
    7
 10
120.43856234163852
 20
163.87012790989232
 11
119.20745024809968
 21
161.13435899889149
  0
LINE
  8
_1-1_
  6
CONTINUOUS
 62
    7
 10
119.20745024809968
 20
161.13435899889149
 11
123.58468545449747
 21
159.16460191881336
  0
LINE
  8
_1-1_
  6
CONTINUOUS
 62
    7
 10
124.81577280405406
 20
161.90037082981419
 11
119.20745024809968
 21
161.13435899889149
  0
LINE
  8
_1-b_
  6
CONTINUOUS
 62
    3
 10
119.56987535631335
 20
162.0876456595756
 11
117.88067791913008
 21
162.70938770191091
  0
LINE
  8
_1-b_
  6
CONTINUOUS
 62
    3
 10
120.26070259712839
 20
163.96453857421875
 11
119.56987535631335
 21
162.0876456595756
  0
LINE
  8
_1-b_
  6
CONTINUOUS
 62
    3
 10
175.23856498099664
 20
146.71242791253169
 11
121.04018752639358
 21
166.66128622519005
  0
LINE
  8
_1-1_
  6
CONTINUOUS
 62
    7
 10
124.81577280405406
 20
161.90038320180534
 11
120.43856234163852
 21
163.87014028188347
  0
LINE
  8
_1-1_
  6
CONTINUOUS
 62
    7
 10
80.72437183277026
 20
178.45174428578972
 11
81.955483926309114
 21
181.18751319679055
  0
LINE
  8
_1-1_
  6
CONTINUOUS
 62
    7
 10
81.955483926309114
 20
181.18751319679055
 11
77.578248719911301
 21
183.15727027686867
  0
LINE
  8
_1-1_
  6
CONTINUOUS
 62
    7
 10
77.578248719911301
 20
183.15727027686867
 11
76.34716137035474
 21
180.42150136586784
  0
LINE
  8
_1-1_
  6
CONTINUOUS
 62
    7
 10
76.34716137035474
 20
180.42150136586784
 11
80.72437183277026
 21
178.45174428578972
  0
LINE
  8
_1-1_
  6
CONTINUOUS
 62
    7
 10
81.955483926309114
 20
181.18751319679055
 11
76.34716137035474
 21
180.42150136586784
  0
LINE
  8
_1-b_
  6
CONTINUOUS
 62
    3
 10
76.709561734586146
 20
181.37478802655195
 11
75.020339553420627
 21
181.99653006888727
  0
LINE
  8
_1-b_
  6
CONTINUOUS
 62
    3
 10
77.400413719383437
 20
183.2516809411951
 11
76.709561734586146
 21
181.37478802655195
  0
LINE
  8
_1-b_
  6
CONTINUOUS
 62
    3
 10
132.37825135926943
 20
165.99957027950802
 11
78.179873904666408
 21
185.94842859216641
  0
LINE
  8
_1-b_
  6
CONTINUOUS
 62
    3
 10
133.32710884712839
 20
163.94537435995568
 11
132.90977684227198
 21
162.81153086069469
  0
LINE
  8
_1-1_
  6
CONTINUOUS
 62
    7
 10
81.955483926309114
 20
181.18751319679055
 11
77.578248719911301
 21
183.15727027686867
  0
LINE
  8
_1-1_
  6
CONTINUOUS
 62
    7
 10
77.578248719911301
 20
183.15727027686867
 11
76.34716137035474
 21
180.42150136586784
  0
LINE
  8
_1-1_
  6
CONTINUOUS
 62
    7
 10
37.864058211043073
 20
197.73888665276607
 11
39.095170304581927
 21
200.4746555637669
  0
LINE
  8
_1-1_
  6
CONTINUOUS
 62
    7
 10
39.095170304581927
 20
200.4746555637669
 11
34.717935098184114
 21
202.44442501583617
  0
LINE
  8
_1-1_
  6
CONTINUOUS
 62
    7
 10
34.717935098184114
 20
202.44442501583617
 11
33.486847748627525
 21
199.70863136085305
  0
LINE
  8
_1-1_
  6
CONTINUOUS
 62
    7
 10
33.486847748627525
 20
199.70863136085305
 11
37.864058211043073
 21
197.73888665276607
  0
LINE
  8
_1-1_
  6
CONTINUOUS
 62
    7
 10
39.095170304581927
 20
200.4746555637669
 11
33.486847748627525
 21
199.70863136085305
  0
LINE
  8
_1-1_
  6
CONTINUOUS
 62
    7
 10
81.955483926309114
 20
181.18751319679055
 11
76.34716137035474
 21
180.42150136586784
  0
LINE
  8
_1-1_
  6
CONTINUOUS
 62
    7
 10
81.955459182326877
 20
181.18751319679055
 11
77.578248719911301
 21
183.15727027686867
  0
LINE
  8
_1-1_
  6
CONTINUOUS
 62
    7
 10
77.578248719911301
 20
183.15727027686867
 11
76.347136626372475
 21
180.42150136586784
  0
LINE
  8
_1-1_
  6
CONTINUOUS
 62
    7
 10
81.955459182326877
 20
181.18751319679055
 11
76.347136626372475
 21
180.42150136586784
  0
LINE
  8
_1-b_
  6
CONTINUOUS
 62
    3
 10
76.709561734586146
 20
181.37478802655195
 11
75.020364297402864
 21
181.99653006888727
  0
LINE
  8
_1-b_
  6
CONTINUOUS
 62
    3
 10
77.400388975401199
 20
183.2516809411951
 11
76.709561734586146
 21
181.37478802655195
  0
LINE
  8
ADD_LINE
  6
DOT
 62
    3
 10
77.578248719911301
 20
183.15728264885982
 11
77.578248719911301
 21
183.61607319599875
  0
LINE
  8
ADD_LINE
  6
DOT
 62
    3
 10
77.578248719911301
 20
183.15728264885982
 11
77.578248719911301
 21
182.77424580342063
  0
LINE
  8
_1-1_
  6
CONTINUOUS
 62
    7
 10
81.955459182326877
 20
181.18752556878169
 11
77.578248719911301
 21
183.15728264885982
  0
LINE
  8
_1-1_
  6
CONTINUOUS
 62
    7
 10
37.864058211043073
 20
197.73888665276607
 11
39.095170304581927
 21
200.4746555637669
  0
LINE
  8
_1-1_
  6
CONTINUOUS
 62
    7
 10
39.095170304581927
 20
200.4746555637669
 11
34.717935098184114
 21
202.44442501583617
  0
LINE
  8
_1-1_
  6
CONTINUOUS
 62
    7
 10
34.717935098184114
 20
202.44442501583617
 11
33.486847748627525
 21
199.70863136085305
  0
LINE
  8
_1-1_
  6
CONTINUOUS
 62
    7
 10
33.486847748627525
 20
199.70863136085305
 11
37.864058211043073
 21
197.73888665276607
  0
LINE
  8
_1-1_
  6
CONTINUOUS
 62
    7
 10
39.095170304581927
 20
200.4746555637669
 11
33.486847748627525
 21
199.70863136085305
  0
LINE
  8
_1-b_
  6
CONTINUOUS
 62
    3
 10
33.849248112858959
 20
200.66191802153716
 11
32.160025931693411
 21
201.28368480785474
  0
LINE
  8
_1-b_
  6
CONTINUOUS
 62
    3
 10
34.54010009765625
 20
202.53882330817146
 11
33.849248112858959
 21
200.66191802153716
  0
LINE
  8
_1-b_
  6
CONTINUOUS
 62
    3
 10
89.51793773754224
 20
185.28671264648437
 11
35.319560282939193
 21
205.23557095914273
  0
LINE
  8
_1-1_
  6
CONTINUOUS
 62
    7
 10
37.870763830236484
 20
197.75375778610643
 11
39.101875923775339
 21
200.48952669710727
  0
LINE
  8
_1-1_
  6
CONTINUOUS
 62
    7
 10
39.101875923775339
 20
200.48952669710727
 11
34.724640717377525
 21
202.45927140519427
  0
LINE
  8
_1-1_
  6
CONTINUOUS
 62
    7
 10
34.724640717377525
 20
202.45927140519427
 11
33.493553367820937
 21
199.72352723817568
  0
LINE
  8
_1-1_
  6
CONTINUOUS
 62
    7
 10
33.493553367820937
 20
199.72352723817568
 11
37.870763830236484
 21
197.75375778610643
  0
LINE
  8
_1-1_
  6
CONTINUOUS
 62
    7
 10
39.101875923775339
 20
200.48952669710727
 11
33.493553367820937
 21
199.72352723817568
  0
LINE
  8
_1-1_
  6
CONTINUOUS
 62
    7
 10
37.870763830236484
 20
197.75375778610643
 11
39.101875923775339
 21
200.48952669710727
  0
LINE
  8
_1-1_
  6
CONTINUOUS
 62
    7
 10
39.101875923775339
 20
200.48952669710727
 11
34.724640717377525
 21
202.45927140519427
  0
LINE
  8
_1-1_
  6
CONTINUOUS
 62
    7
 10
34.724640717377525
 20
202.45927140519427
 11
33.493553367820937
 21
199.72352723817568
  0
LINE
  8
_1-1_
  6
CONTINUOUS
 62
    7
 10
33.493553367820937
 20
199.72352723817568
 11
37.870763830236484
 21
197.75375778610643
  0
LINE
  8
_1-1_
  6
CONTINUOUS
 62
    7
 10
39.101875923775339
 20
200.48952669710727
 11
33.493553367820937
 21
199.72352723817568
  0
LINE
  8
_1-b_
  6
CONTINUOUS
 62
    3
 10
33.85595373205237
 20
200.67681389885982
 11
32.166731550886823
 21
201.29853119721284
  0
LINE
  8
_1-1_
  6
CONTINUOUS
 62
    7
 10
39.101875923775339
 20
200.48952669710727
 11
34.724640717377525
 21
202.45927140519427
  0
LINE
  8
_1-1_
  6
CONTINUOUS
 62
    7
 10
34.724640717377525
 20
202.45927140519427
 11
33.493553367820937
 21
199.72352723817568
  0
LINE
  8
_1-1_
  6
CONTINUOUS
 62
    7
 10
39.101875923775339
 20
200.48952669710727
 11
33.493553367820937
 21
199.72352723817568
  0
LINE
  8
_1-1_
  6
CONTINUOUS
 62
    7
 10
39.101851179793073
 20
200.48952669710727
 11
34.724640717377525
 21
202.45927140519427
  0
LINE
  8
_1-1_
  6
CONTINUOUS
 62
    7
 10
34.724640717377525
 20
202.45927140519427
 11
33.493528623838699
 21
199.72352723817568
  0
LINE
  8
_1-1_
  6
CONTINUOUS
 62
    7
 10
39.101851179793073
 20
200.48952669710727
 11
33.493528623838699
 21
199.72352723817568
  0
LINE
  8
_1-b_
  6
CONTINUOUS
 62
    3
 10
33.85595373205237
 20
200.67681389885982
 11
32.166756294869089
 21
201.29853119721284
  0
LINE
  8
_1-b_
  6
CONTINUOUS
 62
    3
 10
34.546780972867396
 20
202.55369444151182
 11
33.85595373205237
 21
200.67681389885982
  0
LINE
  8
_1-1_
  6
CONTINUOUS
 62
    7
 10
39.101851179793073
 20
200.48955144108953
 11
34.724640717377525
 21
202.45929614917654
  0
LINE
  8
_1-b_
  6
CONTINUOUS
 62
    3
 10
46.664329735008437
 20
204.58873851879224
 11
13.335744496938332
 21
216.85601311760982
  0
LINE
  8
_1-b_
  6
CONTINUOUS
 62
    3
 10
35.496306548247475
 20
205.71572793496622
 11
35.319560282939193
 21
205.23557095914273
  0
LINE
  8
_1-b_
  6
CONTINUOUS
 62
    3
 10
35.497370539484791
 20
205.71530728726773
 11
35.326265902132604
 21
205.25044209248313
  0
LINE
  8
_1-b_
  6
CONTINUOUS
 62
    3
 10
33.995880951752525
 20
206.26798887510557
 11
32.166756294869089
 21
201.29853119721284
  0
LINE
  8
_1-b_
  6
CONTINUOUS
 62
    3
 10
33.994767472550677
 20
206.2683847788218
 11
32.160025931693411
 21
201.28368480785474
  0
LINE
  8
_1-b_
  6
CONTINUOUS
 62
    3
 10
33.99585620777026
 20
206.26798887510557
 11
32.166731550886823
 21
201.29853119721284
  0
LINE
  8
_1-b_
  6
CONTINUOUS
 62
    3
 10
78.350978542018595
 20
186.41329378695102
 11
78.179873904666408
 21
185.94842859216641
  0
LINE
  8
_1-b_
  6
CONTINUOUS
 62
    3
 10
76.849488954286301
 20
186.96597537478885
 11
75.020364297402864
 21
181.99653006888727
  0
LINE
  8
_1-b_
  6
CONTINUOUS
 62
    3
 10
78.350978542018595
 20
186.41329378695102
 11
78.179873904666408
 21
185.94842859216641
  0
LINE
  8
_1-b_
  6
CONTINUOUS
 62
    3
 10
76.849464210304063
 20
186.96597537478885
 11
75.020339553420627
 21
181.99653006888727
  0
LINE
  8
_1-b_
  6
CONTINUOUS
 62
    3
 10
121.21129216374578
 20
167.12616379196581
 11
121.04018752639358
 21
166.66128622519005
  0
LINE
  8
_1-b_
  6
CONTINUOUS
 62
    3
 10
119.70980257601352
 20
167.67882063582138
 11
117.88067791913008
 21
162.70938770191091
  0
LINE
  8
_1-c_
  6
CONTINUOUS
 62
    7
 10
178.67441538217906
 20
151.41508360166807
 11
176.18742246885557
 21
144.65824436497044
  0
LINE
  8
_1-c_
  6
CONTINUOUS
 62
    7
 10
92.953788138724661
 20
189.98934359163852
 11
90.466795225401185
 21
183.23251672693203
  0
LINE
  8
_1-c_
  6
CONTINUOUS
 62
    7
 10
50.100180136190886
 20
209.2913818359375
 11
47.613187222867396
 21
202.5345178552576
  0
LINE
  8
_1-c_
  6
CONTINUOUS
 62
    7
 10
49.151347392314193
 20
211.34557775548987
 11
15.822737410261823
 21
223.61285235430745
  0
LINE
  8
_1-c_
  6
CONTINUOUS
 62
    7
 10
92.004955394847983
 20
192.04353951119089
 11
49.508947423986484
 21
207.68510148331927
  0
LINE
  8
_1-c_
  6
CONTINUOUS
 62
    7
 10
134.86524427259292
 20
172.75640951620568
 11
92.368197054476354
 21
188.39835502005914
  0
LINE
  8
_1-c_
  6
CONTINUOUS
 62
    7
 10
177.72558263830237
 20
153.46926714922932
 11
135.2284859322213
 21
169.11121265308279
  0
LINE
  8
_1-0_
  6
CONTINUOUS
 62
    7
 10
193.67441538217906
 20
109.42092070708404
 11
3.5002342430320823
 21
194.99930716849664
  0
LINE
  8
_1-0_
  6
CONTINUOUS
 62
    7
 10
193.67441538217906
 20
122.57994368269638
 11
8.4245836412584367
 21
205.94235806851773
  0
LINE
  8
_1-0_
  6
CONTINUOUS
 62
    7
 10
193.67441538217906
 20
125.86969324060389
 11
9.6556957347972912
 21
208.67812697951859
  0
LINE
  8
_1-0_
  6
CONTINUOUS
 62
    7
 10
167.53205170502534
 20
139.38829576646961
 11
10.31225256017737
 21
210.1372053816512
  0
LINE
  8
_1-2_
  6
CONTINUOUS
 62
    7
 10
167.53205170502534
 20
139.38829576646961
 11
167.28583670951227
 21
138.84114445866766
  0
LINE
  8
_1-0_
  6
CONTINUOUS
 62
    7
 10
167.28583670951227
 20
138.84114445866766
 11
10.066049936655418
 21
209.59006644584039
  0
LINE
  8
_1-0_
  6
CONTINUOUS
 62
    7
 10
219.37485153610643
 20
139.18941600902662
 11
377.03657820418078
 21
210.1372053816512
  0
LINE
  8
_1-0_
  6
CONTINUOUS
 62
    7
 10
219.62105415962839
 20
138.64227707321581
 11
377.28278082770271
 21
209.59006644584039
  0
LINE
  8
_1-2_
  6
CONTINUOUS
 62
    7
 10
219.37485153610643
 20
139.18941600902662
 11
219.62105415962839
 21
138.64227707321581
  0
LINE
  8
_1-1_
  6
CONTINUOUS
 62
    7
 10
219.67271959459461
 20
142.61322846283784
 11
219.67274433857688
 21
142.61324083482899
  0
LINE
  8
_1-2_
  6
CONTINUOUS
 62
    7
 10
219.11726668074326
 20
145.16076990076013
 11
227.47449720228042
 21
148.52089134422511
  0
LINE
  8
_1-1_
  6
CONTINUOUS
 62
    7
 10
225.28104215054901
 20
141.84721663191513
 11
220.90383168813347
 21
139.87745955183701
  0
LINE
  8
_1-2_
  6
CONTINUOUS
 62
    7
 10
219.11726668074326
 20
145.16076990076013
 11
221.39527191986909
 21
140.09860889331716
  0
LINE
  8
_1-2_
  6
CONTINUOUS
 62
    7
 10
227.47449720228042
 20
148.52089134422511
 11
229.60255390888938
 21
143.79188331397805
  0
LINE
  8
_1-2_
  6
CONTINUOUS
 62
    7
 10
219.11726668074326
 20
145.16076990076013
 11
229.60255390888938
 21
143.79188331397805
  0
LINE
  8
_1-2_
  6
CONTINUOUS
 62
    7
 10
168.23156408361487
 20
145.16076990076013
 11
159.87433356207771
 21
148.52089134422511
  0
LINE
  8
_1-1_
  6
CONTINUOUS
 62
    7
 10
162.06778861380914
 20
141.84721663191513
 11
166.44499907622466
 21
139.87745955183701
  0
LINE
  8
_1-2_
  6
CONTINUOUS
 62
    7
 10
168.23156408361487
 20
145.16076990076013
 11
165.95355884448904
 21
140.09860889331716
  0
LINE
  8
_1-2_
  6
CONTINUOUS
 62
    7
 10
159.87433356207771
 20
148.52089134422511
 11
157.74627685546875
 21
143.79188331397805
  0
LINE
  8
_1-2_
  6
CONTINUOUS
 62
    7
 10
168.23156408361487
 20
145.16076990076013
 11
157.74627685546875
 21
143.79188331397805
  0
LINE
  8
_1-2_
  6
CONTINUOUS
 62
    3
 10
166.41216381176099
 20
140.17099741342906
 11
193.54582090635557
 21
127.96084429766681
  0
LINE
  8
_1-2_
  6
CONTINUOUS
 62
    3
 10
166.41216381176099
 20
140.17099741342906
 11
168.70096979914484
 21
145.25716008366766
  0
LINE
  8
_1-2_
  6
CONTINUOUS
 62
    3
 10
168.67441950617609
 20
145.19815805796031
 11
164.59126652898016
 21
146.83983467720651
  0
LINE
  8
_1-2_
  6
CONTINUOUS
 62
    3
 10
164.59126652898016
 20
146.83983467720651
 11
168.32410657728042
 21
146.15467380832982
  0
LINE
  8
_1-2_
  6
CONTINUOUS
 62
    3
 10
193.54582090635557
 20
127.96084429766681
 11
220.79015783361487
 21
140.22079467773437
  0
LINE
  8
_1-2_
  6
CONTINUOUS
 62
    3
 10
220.79015783361487
 20
140.22079467773437
 11
218.60125567461995
 21
145.08496671109586
  0
LINE
  8
_1-2_
  6
CONTINUOUS
 62
    3
 10
218.60125567461995
 20
145.08496671109586
 11
218.54644775390625
 21
145.20675659179687
  0
LINE
  8
_1-2_
  6
CONTINUOUS
 62
    3
 10
218.54644775390625
 20
145.20675659179687
 11
223.04007865287164
 21
147.01347557274073
  0
LINE
  8
_1-2_
  6
CONTINUOUS
 62
    3
 10
223.04007865287164
 20
147.01347557274073
 11
220.71889516469597
 21
146.79889575855154
  0
LINE
  8
_1-2_
  6
CONTINUOUS
 62
    7
 10
181.67441290778083
 20
90.820924913561029
 11
205.67441785657729
 21
90.820924913561029
  0
LINE
  8
_1-2_
  6
CONTINUOUS
 62
    7
 10
181.67441290778083
 20
114.82092367636191
 11
181.67441290778083
 21
90.820924913561029
  0
LINE
  8
_1-2_
  6
CONTINUOUS
 62
    7
 10
205.67441785657729
 20
114.82092367636191
 11
205.67441785657729
 21
90.820924913561029
  0
LINE
  8
_1-2_
  6
CONTINUOUS
 62
    7
 10
181.67441290778083
 20
90.820924913561029
 11
205.67441785657729
 21
114.82092367636191
  0
LINE
  8
_1-2_
  6
CONTINUOUS
 62
    7
 10
181.67441290778083
 20
114.82092367636191
 11
205.67441785657729
 21
90.820924913561029
  0
LINE
  8
_1-3_
  6
CONTINUOUS
 62
    7
 10
217.54800332559122
 20
74.966311068148229
 11
244.66374577702703
 21
87.168391459697006
  0
LINE
  8
_1-3_
  6
CONTINUOUS
 62
    7
 10
197.86383139120568
 20
118.70892086544553
 11
217.54800332559122
 21
74.966311068148229
  0
LINE
  8
_1-3_
  6
CONTINUOUS
 62
    7
 10
224.97956147065034
 20
130.91099507099875
 11
244.66374577702703
 21
87.168391459697006
  0
LINE
  8
_1-3_
  6
CONTINUOUS
 62
    7
 10
172.25536861935177
 20
80.420825030352617
 11
145.03641901789484
 21
92.669349876610013
  0
LINE
  8
_1-3_
  6
CONTINUOUS
 62
    7
 10
189.18397645692568
 20
118.03994256096918
 11
172.25536861935177
 21
80.420825030352617
  0
LINE
  8
_1-3_
  6
CONTINUOUS
 62
    7
 10
161.96502685546875
 20
130.28847359322214
 11
145.03641901789484
 21
92.669349876610013
  0
LINE
  8
_1-3_
  6
CONTINUOUS
 62
    7
 10
265.54524189717063
 20
156.68604670344172
 11
290.72580698374156
 21
225.86903340107688
  0
LINE
  8
_1-3_
  6
CONTINUOUS
 62
    7
 10
290.72580698374156
 20
225.86903340107688
 11
299.71695358688771
 21
250.57201488597974
  0
LINE
  8
_1-3_
  6
CONTINUOUS
 62
    7
 10
162.07508808857688
 20
203.45910149651607
 11
188.7723850559544
 21
130.10889414194469
  0
LINE
  8
_1-3_
  6
CONTINUOUS
 62
    7
 10
145.13513513513513
 20
220.54054054054055
 11
155.85795222101984
 21
220.54054054054055
  0
LINE
  8
_1-3_
  6
CONTINUOUS
 62
    7
 10
162.07508808857688
 20
203.45910149651607
 11
155.85795222101984
 21
220.54054054054055
  0
LINE
  8
_1-3_
  6
CONTINUOUS
 62
    7
 10
299.71695358688771
 20
250.57201488597974
 11
304.03213088576859
 21
250.57201488597974
  0
LINE
  8
_1-3_
  6
CONTINUOUS
 62
    7
 10
297.14459393475511
 20
243.5045149519637
 11
304.03213088576859
 21
243.5045149519637
  0
LINE
  8
_1-3_
  6
CONTINUOUS
 62
    7
 10
304.03213088576859
 20
236.60492768158784
 11
294.63335191881339
 21
236.60492768158784
  0
LINE
  8
_1-3_
  6
CONTINUOUS
 62
    7
 10
304.03213088576859
 20
229.39868823902029
 11
292.01048979888094
 21
229.39868823902029
  0
LINE
  8
_1-3_
  6
CONTINUOUS
 62
    7
 10
299.71695358688771
 20
250.57201488597974
 11
301.99622076910896
 21
256.83424666121203
  0
LINE
  8
_1-3_
  6
CONTINUOUS
 62
    7
 10
304.03213088576859
 20
256.83424666121203
 11
301.99622076910896
 21
256.83424666121203
  0
LINE
  8
_1-3_
  6
CONTINUOUS
 62
    7
 10
303.05095775707349
 20
222.43788435652451
 11
289.47697819890203
 21
222.43788435652451
  0
LINE
  8
_1-b_
  6
CONTINUOUS
 62
    3
 10
352.80873066670188
 20
202.53882330817146
 11
353.49958265149917
 21
200.66191802153716
  0
LINE
  8
_1-1_
  6
CONTINUOUS
 62
    7
 10
309.77058204444683
 20
183.15727027686867
 11
311.00166939400339
 21
180.42150136586784
  0
LINE
  8
_1-b_
  6
CONTINUOUS
 62
    3
 10
175.77292364996833
 20
143.53209624419341
 11
120.26070259712839
 21
163.96453857421875
  0
LINE
  8
_1-b_
  6
CONTINUOUS
 62
    3
 10
176.18742246885557
 20
144.65823199297932
 11
175.77292364996833
 21
143.53209624419341
  0
LINE
  8
_1-b_
  6
CONTINUOUS
 62
    3
 10
211.57589474239867
 20
143.53209624419341
 11
267.08812816722974
 21
163.96453857421875
  0
LINE
  8
_1-b_
  6
CONTINUOUS
 62
    3
 10
211.16140829550255
 20
144.65823199297932
 11
211.57589474239867
 21
143.53209624419341
  0
LINE
  8
_1-b_
  6
CONTINUOUS
 62
    3
 10
132.91261002824115
 20
162.81923861116977
 11
77.400413719383437
 21
183.2516809411951
  0
LINE
  8
_1-c_
  6
CONTINUOUS
 62
    7
 10
135.81410176045188
 20
170.70222596864443
 11
132.91261002824115
 21
162.81923861116977
  0
LINE
  8
_1-b_
  6
CONTINUOUS
 62
    3
 10
90.052302592509506
 20
182.10638097814612
 11
34.54010009765625
 21
202.53882330817146
  0
LINE
  8
_1-b_
  6
CONTINUOUS
 62
    3
 10
90.466795225401185
 20
183.23251672693203
 11
90.052302592509506
 21
182.10638097814612
  0
LINE
  8
_1-b_
  6
CONTINUOUS
 62
    3
 10
47.198697682973489
 20
201.40839447846284
 11
12.183887378589532
 21
214.29634712837839
  0
LINE
  8
_1-b_
  6
CONTINUOUS
 62
    3
 10
47.613187222867396
 20
202.53454259923987
 11
47.198697682973489
 21
201.40839447846284
  0
LINE
  8
_1-b_
  6
CONTINUOUS
 62
    3
 10
254.43620836412586
 20
162.81923861116977
 11
309.94841704497469
 21
183.2516809411951
  0
LINE
  8
_1-b_
  6
CONTINUOUS
 62
    3
 10
254.02172191722974
 20
163.94537435995568
 11
254.43620836412586
 21
162.81923861116977
  0
LINE
  8
_1-b_
  6
CONTINUOUS
 62
    3
 10
296.88203553895693
 20
183.23251672693203
 11
297.29652198585308
 21
182.10638097814612
  0
LINE
  8
_1-b_
  6
CONTINUOUS
 62
    3
 10
297.29652198585308
 20
182.10638097814612
 11
352.80873066670188
 21
202.53882330817146
  0
LINE
  8
_1-b_
  6
CONTINUOUS
 62
    3
 10
340.15012998838682
 20
201.40839447846284
 11
375.16494338576859
 21
214.29634712837839
  0
LINE
  8
_1-c_
  6
CONTINUOUS
 62
    7
 10
337.24865062816724
 20
209.2913818359375
 11
340.15012998838682
 21
201.40839447846284
  0
LINE
  8
_1-3_
  6
DASHED1
 62
    6
 10
193.65196021827492
 20
125.85264463682434
 11
240.07730020059122
 21
146.74405072186445
  0
LINE
  8
_1-3_
  6
DASHED1
 62
    6
 10
193.67441538217906
 20
125.86969324060389
 11
148.07834522144216
 21
146.38793532912797
  0
LINE
  8
_1-3_
  6
CONTINUOUS
 62
    7
 10
206.79091582427154
 20
98.870958895296667
 11
197.90473319388727
 21
118.61803621859164
  0
LINE
  8
_1-3_
  6
CONTINUOUS
 62
    7
 10
252.38698598500847
 20
119.38919479782517
 11
243.50080335462417
 21
139.13626593512458
  0
LINE
  8
_1-3_
  6
CONTINUOUS
 62
    7
 10
206.79091582427154
 20
98.870958895296667
 11
252.38698598500847
 21
119.38919479782517
  0
LINE
  8
_1-3_
  6
CONTINUOUS
 62
    7
 10
180.55791494008659
 20
98.870958895296667
 11
189.44409757047086
 21
118.61803621859164
  0
LINE
  8
_1-3_
  6
CONTINUOUS
 62
    7
 10
134.96184477934966
 20
119.38919479782517
 11
143.84802740973396
 21
139.13626593512458
  0
LINE
  8
_1-3_
  6
CONTINUOUS
 62
    7
 10
180.55791494008659
 20
98.870958895296667
 11
134.96184477934966
 21
119.38919479782517
  0
LINE
  8
_1-3_
  6
DASHED1
 62
    7
 10
193.63185573268584
 20
126.32551450987121
 11
239.91342080605997
 21
147.15222745328336
  0
LINE
  8
_1-3_
  6
DASHED1
 62
    7
 10
193.63185573268584
 20
126.32551450987121
 11
9.7374019107303127
 21
209.07801447687925
  0
LINE
  8
_1-3_
  6
DASHED1
 62
    7
 10
193.67441538217906
 20
126.74695401578337
 11
147.33410809491133
 21
147.60010590424409
  0
LINE
  8
_1-3_
  6
DASHED1
 62
    7
 10
193.67441538217906
 20
126.74695401578337
 11
377.36485661687078
 21
209.40767855257602
  0
LINE
  8
_1-2_
  6
CONTINUOUS
 62
    3
 10
294.3581246040963
 20
104.62610605600719
 11
321.49178169869089
 21
92.415952940244935
  0
LINE
  8
_1-2_
  6
CONTINUOUS
 62
    3
 10
321.49178169869089
 20
92.415952940244935
 11
348.73611862595021
 21
104.6759033203125
  0
LINE
  8
_1-2_
  6
CONTINUOUS
 62
    3
 10
346.54721646695526
 20
109.540075353674
 11
346.49240854624156
 21
109.661865234375
  0
LINE
  8
_1-2_
  6
CONTINUOUS
 62
    3
 10
292.53721494932432
 20
111.29494331978464
 11
296.9512939453125
 21
111.29494331978464
  0
LINE
  8
_1-2_
  6
CONTINUOUS
 62
    3
 10
350.98603944520693
 20
111.46858421531884
 11
346.2010481550887
 21
111.46858421531884
  0
LINE
  8
_1-2_
  6
CONTINUOUS
 62
    3
 10
296.62036792652026
 20
109.65326670053844
 11
292.53721494932432
 21
111.29494331978464
  0
LINE
  8
_1-2_
  6
CONTINUOUS
 62
    3
 10
294.3581246040963
 20
104.62610605600719
 11
296.62036792652026
 21
109.65326670053844
  0
LINE
  8
_1-2_
  6
CONTINUOUS
 62
    3
 10
348.73611862595021
 20
104.6759033203125
 11
346.49240854624156
 21
109.661865234375
  0
LINE
  8
_1-2_
  6
CONTINUOUS
 62
    3
 10
346.49240854624156
 20
109.661865234375
 11
350.98603944520693
 21
111.46858421531884
  0
LINE
  8
_1-2_
  6
CONTINUOUS
 62
    7
 10
302.24625870988177
 20
131.02912284232477
 11
306.0898404508024
 21
131.02912284232477
  0
LINE
  8
_1-2_
  6
CONTINUOUS
 62
    7
 10
297.96005661423146
 20
116.33360991606843
 11
302.24625870988177
 21
131.02912284232477
  0
LINE
  8
_1-2_
  6
CONTINUOUS
 62
    7
 10
297.96005661423146
 20
116.33360991606843
 11
297.96005661423146
 21
120.10996225717906
  0
LINE
  8
_1-2_
  6
CONTINUOUS
 62
    7
 10
145.13513513513513
 20
220.54054054054055
 11
128.44441594304266
 21
220.54054054054055
  0
ARC
  8
_1-b_
  6
CONTINUOUS
 62
    3
 10
212.66292262721709
 20
145.21090120882602
 40
1.5999999239638045
 50
110.20680236816406
 51
200.20738220214844
  0
ARC
  8
_1-b_
  6
CONTINUOUS
 62
    3
 10
255.52323624894427
 20
164.49804357580237
 40
1.5999999239638045
 50
110.20680236816406
 51
200.20738220214844
  0
ARC
  8
_1-b_
  6
CONTINUOUS
 62
    3
 10
298.38354987067146
 20
183.78518594277872
 40
1.5999999239638045
 50
110.20680236816406
 51
200.20738220214844
  0
ARC
  8
_1-b_
  6
CONTINUOUS
 62
    3
 10
341.23715787320526
 20
203.08719944309544
 40
1.5999999239638045
 50
110.20680236816406
 51
200.20738220214844
  0
ARC
  8
_1-c_
  6
CONTINUOUS
 62
    7
 10
210.17592971389359
 20
151.96774044552365
 40
1.5999999239638045
 50
110.20722961425781
 51
200.20695495605469
  0
ARC
  8
_1-c_
  6
CONTINUOUS
 62
    7
 10
253.03624333562078
 20
171.2548828125
 40
1.5999999239638045
 50
110.20722961425781
 51
200.20695495605469
  0
ARC
  8
_1-c_
  6
CONTINUOUS
 62
    7
 10
295.89655695734797
 20
190.54200043549409
 40
1.5999999239638045
 50
110.20748901367187
 51
200.20695495605469
  0
ARC
  8
_1-c_
  6
CONTINUOUS
 62
    7
 10
338.75016495988177
 20
209.84403867979307
 40
1.5999999239638045
 50
110.20748901367187
 51
200.20695495605469
  0
ARC
  8
_1-b_
  6
CONTINUOUS
 62
    3
 10
174.68590813714107
 20
145.21090120882602
 40
1.5999999239638045
 50
339.79261779785156
 51
69.793197631835938
  0
ARC
  8
_1-b_
  6
CONTINUOUS
 62
    3
 10
131.82559451541385
 20
164.49804357580237
 40
1.5999999239638045
 50
339.79261779785156
 51
69.793197631835938
  0
ARC
  8
_1-b_
  6
CONTINUOUS
 62
    3
 10
88.965280893686653
 20
183.78518594277872
 40
1.5999999239638045
 50
339.79261779785156
 51
69.793197631835938
  0
ARC
  8
_1-b_
  6
CONTINUOUS
 62
    3
 10
46.111672891152864
 20
203.08719944309544
 40
1.5999999239638045
 50
339.79261779785156
 51
69.793197631835938
  0
ARC
  8
_1-c_
  6
CONTINUOUS
 62
    7
 10
177.17290105046453
 20
151.96774044552365
 40
1.5999999239638045
 50
339.79304504394526
 51
69.792770385742131
  0
ARC
  8
_1-c_
  6
CONTINUOUS
 62
    7
 10
134.31258742873734
 20
171.2548828125
 40
1.5999999239638045
 50
339.79304504394526
 51
69.792770385742131
  0
ARC
  8
_1-c_
  6
CONTINUOUS
 62
    7
 10
91.452273807010144
 20
190.54200043549409
 40
1.5999999239638045
 50
339.79304504394526
 51
69.792510986328125
  0
ARC
  8
_1-c_
  6
CONTINUOUS
 62
    7
 10
48.598665804476354
 20
209.84403867979307
 40
1.5999999239638045
 50
339.79304504394526
 51
69.792510986328125
  0
CIRCLE
  8
_1-2_
  6
CONTINUOUS
 62
    7
 10
296.67186015361068
 20
110.87684425147805
 40
5.6067640716965137
  0
TEXT
  8
_1-3_
 62
    7
 10
305.06701907596073
 20
255.3404524519637
 40
2.5
 41
1
 50
0
  1
桟瓦
  0
TEXT
  8
_0-0_
 62
    7
 10
141.89189395389042
 20
14.594594594594582
 40
2.5
 41
1
 50
0
  1
縮尺
  0
TEXT
  8
_0-0_
 62
    7
 10
377.10214563318203
 20
22.865493362014362
 40
2.5
 41
1
 50
0
  1
ＮＯ
  0
TEXT
  8
_0-0_
 62
    7
 10
14.594594336844779
 20
24.324324324324323
 40
2.5
 41
1
 50
0
  1
和形
  0
TEXT
  8
_0-0_
 62
    7
 10
25.556194717819636
 20
20.211577544341225
 40
2.5
 41
1
 50
0
  1
木造
  0
TEXT
  8
_0-0_
 62
    7
 10
383.23801896378802
 20
18.523427086907475
 40
3
 41
1
 50
0
  1
Ｊ
  0
TEXT
  8
_1-0_
 62
    7
 10
169.90681828679266
 20
13.3181144095756
 40
2.5
 41
1
 50
0
  1
1/5
  0
TEXT
  8
_1-5_
 62
    7
 10
304.76470122466219
 20
249.23668113914698
 40
2.5
 41
1
 50
0
  1
瓦桟　
  0
TEXT
  8
_1-5_
 62
    7
 10
304.76626009554479
 20
228.23668608794341
 40
2.5
 41
1
 50
0
  1
野地板
  0
TEXT
  8
_1-5_
 62
    7
 10
318.77076020111912
 20
228.23668608794341
 40
2.5
 41
1
 50
0
  1
ｔ＝12
  0
TEXT
  8
_1-3_
 62
    7
 10
229.1908420817729
 20
80.753880513801164
 40
2.5
 41
1
 50
24.227555699644494
  1
150
  0
TEXT
  8
_1-3_
 62
    7
 10
157.1412239361058
 20
87.770480905998113
 40
2.5
 41
1
 50
-24.227719460851628
  1
150
  0
TEXT
  8
_1-3_
 62
    7
 10
39.721903414339636
 20
15.395235628695104
 40
2.5
 41
1
 50
0
  1
谷　　1
  0
TEXT
  8
_1-3_
 62
    7
 10
227.67391340656312
 20
108.81660043130206
 40
2.5
 41
1
 50
24.227641889855295
  1
250
  0
TEXT
  8
_1-3_
 62
    7
 10
156.25520379120505
 20
110.35546411308215
 40
2.5
 41
1
 50
-24.227719460851628
  1
250
  0
TEXT
  8
_1-3_
 62
    7
 10
162.04024889489156
 20
107.70476455122088
 40
2.5
 41
1
 50
-24.227746934022367
  1
谷底部分捨て貼り
  0
TEXT
  8
_1-3_
 62
    7
 10
207.86221409742512
 20
100.40826941842793
 40
2.5
 41
1
 50
24.227761478645213
  1
谷底部分捨て貼り
  0
TEXT
  8
_1-3_
 62
    7
 10
121.59820969040329
 20
44.165113294446797
 40
2.5
 41
1
 50
0
  1
谷巾については専門業者と相談
  0
TEXT
  8
_1-3_
 62
    7
 10
121.88280466440563
 20
48.317138053275443
 40
2.5
 41
1
 50
0
  1
谷底部分には捨て貼りをする
  0
TEXT
  8
_1-3_
 62
    7
 10
393.88030593459672
 20
15.202702702702709
 40
2.5
 41
1
 50
0
  1
13
  0
TEXT
  8
_1-3_
 62
    7
 10
316.52870796822214
 20
245.98752408414276
 40
2.5
 41
1
 50
0
  1
※　地域により瓦桟木の大きさは、異なります
  0
TEXT
  8
_1-3_
 62
    7
 10
316.2978218697213
 20
249.17467271959461
 40
2.5
 41
1
 50
0
  1
15×21以上　（防腐処理）
  0
TEXT
  8
_1-2_
 62
    7
 10
306.60903518264365
 20
129.90528828388938
 40
2.5
 41
1
 50
0
  1
ハぜを必ず付けること
  0
TEXT
  8
_1-2_
 62
    7
 10
317.6206335119299
 20
86.303663511533998
 40
3
 41
1
 50
0
  1
谷樋
  0
TEXT
  8
_1-3_
 62
    7
 10
84.296613126187708
 20
219.11177351668076
 40
2.5
 41
1
 50
0
  1
ステンレス　（ＳＵＳ３０４）又は、
  0
TEXT
  8
_1-3_
 62
    7
 10
75.385590630608647
 20
218.9975305505701
 40
2.5
 41
1
 50
0
  1
谷樋
  0
TEXT
  8
_1-2_
 62
    7
 10
84.296609002190678
 20
215.68445978937925
 40
2.5
 41
1
 50
0
  1
銅板ｔ=0.4以上もしくは、耐久性の有する材料を使用すること
  0
POINT
  8
_1-3_
 62
    7
 10
217.54800332559122
 20
74.966311068148229
  0
POINT
  8
_1-3_
 62
    7
 10
244.66374577702703
 20
87.168391459697006
  0
POINT
  8
_1-3_
 62
    7
 10
172.25536861935177
 20
80.420825030352617
  0
POINT
  8
_1-3_
 62
    7
 10
145.03641901789484
 20
92.669349876610013
  0
POINT
  8
_1-3_
 62
    7
 10
206.79091582427154
 20
98.870958895296667
  0
POINT
  8
_1-3_
 62
    7
 10
252.38698598500847
 20
119.38919479782517
  0
POINT
  8
_1-3_
 62
    7
 10
180.55791494008659
 20
98.870958895296667
  0
POINT
  8
_1-3_
 62
    7
 10
134.96184477934966
 20
119.38919479782517
  0
TEXT
  8
_1-5_
 62
    7
 10
304.76626009554479
 20
242.23668278874578
 40
2.5
 41
1
 50
0
  1
縦桟
  0
TEXT
  8
_1-3_
 62
    7
 10
305.05177172820675
 20
235.30266665928389
 40
2.5
 41
1
 50
0
  1
ルーフィング
  0
TEXT
  8
_1-3_
 62
    7
 10
304.03213088576859
 20
221.10104122677367
 40
2.5
 41
1
 50
0
  1
たる木
  0
TEXT
  8
_1-3_
 62
    7
 10
121.60283681508659
 20
52.757485879434114
 40
2.5
 41
1
 50
0
  1
谷部分のルーフィングは、両方向へそれぞれ250ｍｍ以上重ね合わせること。
  0
ENDSEC
  0
EOF
