  0
SECTION
  2
HEADER
  9
$ACADVER
  1
AC1009
  9
$INSBASE
 10
0
 20
0
 30
0
  9
$EXTMIN
 10
0
 20
0
  9
$EXTMAX
 10
420
 20
297
  9
$LIMMIN
 10
0
 20
0
  9
$LIMMAX
 10
420
 20
297
  9
$LTSCALE
 40
1
  0
ENDSEC
  0
SECTION
  2
TABLES
  0
TABLE
  2
LTYPE
 70
     9
  0
LTYPE
  2
CONTINUOUS
 70
    64
  3
実線
 72
    65
 73
     0
 40
0.0
  0
LTYPE
  2
DASHED1
 70
    64
  3
--  --  --  --  --  --  --  --  
 72
    65
 73
     2
 40
2.5
 49
1.25
 49
-1.25
  0
LTYPE
  2
DASHED2
 70
    64
  3
----    ----    ----    ----    
 72
    65
 73
     2
 40
5.0
 49
2.5
 49
-2.5
  0
LTYPE
  2
DASHED3
 70
    64
  3
------  ------  ------  ------  
 72
    65
 73
     2
 40
5.0
 49
3.75
 49
-1.25
  0
LTYPE
  2
CENTER1
 70
    64
  3
----- - ----- - ----- - ----- - 
 72
    65
 73
     4
 40
10.0
 49
6.25
 49
-1.25
 49
1.25
 49
-1.25
  0
LTYPE
  2
CENTER2
 70
    64
  3
----------  --  ----------  --  
 72
    65
 73
     4
 40
20.0
 49
12.5
 49
-2.5
 49
2.5
 49
-2.5
  0
LTYPE
  2
PHANTOM1
 70
    64
  3
--- - - --- - - --- - - --- - - 
 72
    65
 73
     6
 40
10.0
 49
3.25
 49
-1.25
 49
1.25
 49
-1.25
 49
1.25
 49
-1.25
  0
LTYPE
  2
PHANTOM2
 70
    64
  3
--------  -  -  --------  -  -  
 72
    65
 73
     6
 40
20.0
 49
10.0
 49
-2.5
 49
1.25
 49
-2.5
 49
1.25
 49
-2.5
  0
LTYPE
  2
DOT
 70
    64
  3
-   -   -   -   -   -   -   -   
 72
    65
 73
     2
 40
2.5
 49
0.625
 49
-1.875
  0
LTYPE
  2
DUMMY
 70
    64
  3
ダミー
 72
    65
 73
     0
 40
0.0
  0
LTYPE
  2
RAND1
 70
    64
  3
ランダム線1
 72
    65
 73
     4
 40
10.0
 49
1.0
 49
-2.0
 49
3.0
 49
-4.0
  0
LTYPE
  2
RAND2
 70
    64
  3
ランダム線2
 72
    65
 73
     4
 40
14.0
 49
2.0
 49
-3.0
 49
4.0
 49
-5.0
  0
LTYPE
  2
RAND3
 70
    64
  3
ランダム線3
 72
    65
 73
     4
 40
18.0
 49
3.0
 49
-4.0
 49
5.0
 49
-6.0
  0
LTYPE
  2
RAND4
 70
    64
  3
ランダム線4
 72
    65
 73
     4
 40
22.0
 49
4.0
 49
-5.0
 49
6.0
 49
-7.0
  0
LTYPE
  2
RAND5
 70
    64
  3
ランダム線5
 72
    65
 73
     4
 40
26.0
 49
5.0
 49
-6.0
 49
7.0
 49
-8.0
  0
LTYPE
  2
LONG1
 70
    64
  3
----------  --  ----------  --  
 72
    65
 73
     4
 40
40.0
 49
32.5
 49
-2.5
 49
2.5
 49
-2.5
  0
LTYPE
  2
LONG2
 70
    64
  3
--------  -  -  --------  -  -  
 72
    65
 73
     6
 40
40.0
 49
30.0
 49
-2.5
 49
1.25
 49
-2.5
 49
1.25
 49
-2.5
  0
LTYPE
  2
LONG3
 70
    64
  3
+++++++++++++++..+++++++++++++++
 72
    65
 73
     2
 40
40.0
 49
37.5
 49
-2.5
  0
LTYPE
  2
LONG4
 70
    64
  3
+++++++++++++++..+++++++++++++++
 72
    65
 73
     2
 40
80.0
 49
75.0
 49
-5.0
  0
LTYPE
  2
LONG5
 70
    64
  3
----------  --  ----------  --  
 72
    65
 73
     4
 40
60.0
 49
37.5
 49
-7.5
 49
7.5
 49
-7.5
  0
LTYPE
  2
dashed
 70
   64
  3
-------   -------------   ------
 72
   65
 73
    2
 40
7.5
 49
6
 49
-1.5
  0
LTYPE
  2
dashed_spaced
 70
   64
  3
----        --------        ----
 72
   65
 73
    2
 40
12
 49
6
 49
-6
  0
LTYPE
  2
long_dashed_dotted
 70
   64
  3
------------- --- --------------
 72
   65
 73
    4
 40
15.25
 49
12
 49
-1.5
 49
0.25
 49
-1.5
  0
LTYPE
  2
long_dashed_double-dotted
 70
   64
  3
----------- --- --- ------------
 72
   65
 73
    6
 40
17
 49
12
 49
-1.5
 49
0.25
 49
-1.5
 49
0.25
 49
-1.5
  0
LTYPE
  2
long_dashed_triplicate-dotted
 70
   64
  3
--------- --- --- --- ----------
 72
   65
 73
    8
 40
18.75
 49
12
 49
-1.5
 49
0.25
 49
-1.5
 49
0.25
 49
-1.5
 49
0.25
 49
-1.5
  0
LTYPE
  2
dotted
 70
   64
  3
   -       -       -       -    
 72
   65
 73
    2
 40
1.75
 49
0.25
 49
-1.5
  0
LTYPE
  2
chain
 70
   64
  3
-------------- -- --------------
 72
   65
 73
    4
 40
18.5
 49
12
 49
-1.5
 49
3.5
 49
-1.5
  0
LTYPE
  2
chain_double_dash
 70
   64
  3
------------ -- -- -------------
 72
   65
 73
    6
 40
23.5
 49
12
 49
-1.5
 49
3.5
 49
-1.5
 49
3.5
 49
-1.5
  0
LTYPE
  2
dashed_dotted
 70
   64
  3
-----------     -     ----------
 72
   65
 73
    4
 40
9.25
 49
6
 49
-1.5
 49
0.25
 49
-1.5
  0
LTYPE
  2
double-dashed_dotted
 70
   64
  3
------   -----------   -   -----
 72
   65
 73
    6
 40
16.75
 49
6
 49
-1.5
 49
6
 49
-1.5
 49
0.25
 49
-1.5
  0
LTYPE
  2
dashed_double-dotted
 70
   64
  3
---------    -    -    ---------
 72
   65
 73
    6
 40
11
 49
6
 49
-1.5
 49
0.25
 49
-1.5
 49
0.25
 49
-1.5
  0
LTYPE
  2
double-dashed_double-dotted
 70
   64
  3
-----   ---------   -   -   ----
 72
   65
 73
    8
 40
18.5
 49
6
 49
-1.5
 49
6
 49
-1.5
 49
0.25
 49
-1.5
 49
0.25
 49
-1.5
  0
LTYPE
  2
dashed_triplicate-dotted
 70
   64
  3
-------    -    -    -    ------
 72
   65
 73
    8
 40
12.75
 49
6
 49
-1.5
 49
0.25
 49
-1.5
 49
0.25
 49
-1.5
 49
0.25
 49
-1.5
  0
LTYPE
  2
double-dashed_triplicate-dotted
 70
   64
  3
-----  ---------  -  -  -  -----
 72
   65
 73
   10
 40
20.25
 49
6
 49
-1.5
 49
6
 49
-1.5
 49
0.25
 49
-1.5
 49
0.25
 49
-1.5
 49
0.25
 49
-1.5
  0
LTYPE
  2
undefined
 70
   64
  3
--------------------------------
 72
   65
 73
    0
 40
0
  0
ENDTAB
  0
TABLE
  2
STYLE
  5
3
100
AcDbSymbolTable
 70
     1
  0
STYLE
  5
10
100
AcDbSymbolTableRecord
100
AcDbTextStyleTableRecord
  2
STANDARD
 70
     0
 40
0.0
 41
1.0
 50
0.0
 71
     0
 42
0.2
  3
txt
  4
bigfont.shx
  0
STYLE
  5
26
100
AcDbSymbolTableRecord
100
AcDbTextStyleTableRecord
  2
TATEGAKI
 70
    68
 40
0.0
 41
1.0
 50
0.0
 71
     0
 42
1.0
  3
txt
  4
bigfont.shx
  0
ENDTAB
  0
TABLE
  2
LAYER
 70
   13
  0
LAYER
  2
_0-0_
 70
   64
 62
    7
  6
CONTINUOUS
  0
LAYER
  2
_1-0_
 70
   64
 62
    7
  6
CONTINUOUS
  0
LAYER
  2
_1-1_
 70
   64
 62
    7
  6
CONTINUOUS
  0
LAYER
  2
_1-2_
 70
   64
 62
    7
  6
CONTINUOUS
  0
LAYER
  2
_1-3_
 70
   64
 62
    7
  6
CONTINUOUS
  0
LAYER
  2
_1-4_
 70
   64
 62
    7
  6
CONTINUOUS
  0
LAYER
  2
_1-5_
 70
   64
 62
    7
  6
CONTINUOUS
  0
LAYER
  2
_1-6_
 70
   64
 62
    7
  6
CONTINUOUS
  0
LAYER
  2
_1-7_
 70
   64
 62
    7
  6
CONTINUOUS
  0
LAYER
  2
_1-a_
 70
   64
 62
    7
  6
CONTINUOUS
  0
LAYER
  2
_1-b_
 70
   64
 62
    7
  6
CONTINUOUS
  0
LAYER
  2
_1-c_
 70
   64
 62
    7
  6
CONTINUOUS
  0
LAYER
  2
ADD_LINE
 70
   64
 62
    7
  6
CONTINUOUS
  0
ENDTAB
  0
ENDSEC
  0
SECTION
  2
BLOCKS
  0
ENDSEC
  0
SECTION
  2
ENTITIES
  0
LINE
  8
_1-1_
  6
DASHED1
 62
    3
 10
33.243243243243228
 20
101.9448233939506
 11
181.99290507548565
 21
168.88218235325169
  0
LINE
  8
_1-2_
  6
CONTINUOUS
 62
    7
 10
176.99288857949747
 20
177.04925537109375
 11
186.99289682749156
 21
177.04925537109375
  0
LINE
  8
_1-2_
  6
CONTINUOUS
 62
    7
 10
177.39288742477831
 20
176.64925652581294
 11
186.59289798221073
 21
176.64925652581294
  0
LINE
  8
_0-0_
  6
CONTINUOUS
 62
    5
 10
6.7567526327597136
 20
280.13513513513516
 11
406.75677325274495
 21
280.13513513513516
  0
LINE
  8
_0-0_
  6
CONTINUOUS
 62
    5
 10
406.75677325274495
 20
10.13513513513513
 11
6.7567526327597136
 21
10.13513513513513
  0
LINE
  8
_0-0_
  6
CONTINUOUS
 62
    5
 10
406.75677325274495
 20
30.135133073136615
 11
6.7567402607685949
 21
30.135133073136615
  0
LINE
  8
_0-0_
  6
CONTINUOUS
 62
    5
 10
371.75678150073907
 20
10.13513513513513
 11
371.75678150073907
 21
30.135133073136615
  0
LINE
  8
_0-0_
  6
CONTINUOUS
 62
    5
 10
137.02703939901818
 20
30.135133073136615
 11
137.02703939901818
 21
10.13513513513513
  0
LINE
  8
_0-0_
  6
CONTINUOUS
 62
    5
 10
214.86486486486487
 20
30.135133073136615
 11
214.86486486486487
 21
10.13513513513513
  0
LINE
  8
_0-0_
  6
CONTINUOUS
 62
    5
 10
137.02703939901818
 20
20.135134104135886
 11
214.86486486486487
 21
20.135134104135886
  0
LINE
  8
_0-0_
  6
CONTINUOUS
 62
    5
 10
396.48648648648651
 20
25.945945945945951
 11
383.91891891891896
 21
13.378379924877265
  0
LINE
  8
_1-1_
  6
CONTINUOUS
 62
    7
 10
40.483542777396536
 20
109.3699852195946
 11
44.860765611803203
 21
111.33974229967272
  0
LINE
  8
_1-1_
  6
CONTINUOUS
 62
    7
 10
44.860765611803203
 20
111.33974229967272
 11
46.091865333350938
 21
108.60397338867187
  0
LINE
  8
_1-1_
  6
CONTINUOUS
 62
    7
 10
46.091865333350938
 20
108.60397338867187
 11
41.714642498944272
 21
106.63421630859375
  0
LINE
  8
_1-1_
  6
CONTINUOUS
 62
    7
 10
84.574956120671459
 20
125.9213586755701
 11
83.343844027132604
 21
128.65712758657097
  0
LINE
  8
_1-1_
  6
CONTINUOUS
 62
    7
 10
83.343844027132604
 20
128.65712758657097
 11
87.721079233530403
 21
130.62688466664909
  0
LINE
  8
_1-1_
  6
CONTINUOUS
 62
    7
 10
87.721079233530403
 20
130.62688466664909
 11
88.952166583086992
 21
127.89111575564823
  0
LINE
  8
_1-1_
  6
CONTINUOUS
 62
    7
 10
88.952166583086992
 20
127.89111575564823
 11
84.574956120671459
 21
125.9213586755701
  0
LINE
  8
_1-1_
  6
CONTINUOUS
 62
    7
 10
127.43526974239866
 20
145.20850104254646
 11
126.20415764885981
 21
147.94426995354732
  0
LINE
  8
_1-1_
  6
CONTINUOUS
 62
    7
 10
126.20415764885981
 20
147.94426995354732
 11
130.5813928552576
 21
149.91402703362544
  0
LINE
  8
_1-1_
  6
CONTINUOUS
 62
    7
 10
130.5813928552576
 20
149.91402703362544
 11
131.81248020481419
 21
147.17825812262458
  0
LINE
  8
_1-1_
  6
CONTINUOUS
 62
    7
 10
131.81248020481419
 20
147.17825812262458
 11
127.43526974239866
 21
145.20850104254646
  0
LINE
  8
_1-1_
  6
CONTINUOUS
 62
    7
 10
170.29558336412586
 20
164.49566815350508
 11
169.06447127058701
 21
167.23141232052365
  0
LINE
  8
_1-1_
  6
CONTINUOUS
 62
    7
 10
173.44170647698482
 20
169.20118177259292
 11
174.67279382654141
 21
166.46541286159206
  0
LINE
  8
_1-1_
  6
CONTINUOUS
 62
    7
 10
174.67279382654141
 20
166.46541286159206
 11
170.29558336412586
 21
164.49566815350508
  0
LINE
  8
_1-1_
  6
CONTINUOUS
 62
    7
 10
126.20415764885981
 20
147.94426995354732
 11
131.81248020481419
 21
147.17825812262458
  0
LINE
  8
_1-1_
  6
CONTINUOUS
 62
    7
 10
83.343844027132604
 20
128.65712758657097
 11
88.952166583086992
 21
127.89111575564823
  0
LINE
  8
_1-b_
  6
CONTINUOUS
 62
    3
 10
45.729452597128386
 20
109.557260049356
 11
47.418662406302786
 21
110.1790020916913
  0
LINE
  8
_1-b_
  6
CONTINUOUS
 62
    3
 10
45.038612984322214
 20
111.43415296399917
 11
45.729452597128386
 21
109.557260049356
  0
LINE
  8
_1-1_
  6
CONTINUOUS
 62
    7
 10
40.483555149387655
 20
109.36999759158573
 11
44.86077798379435
 21
111.33975467166385
  0
LINE
  8
_1-1_
  6
CONTINUOUS
 62
    7
 10
84.574956120671459
 20
125.9213586755701
 11
83.34386877111487
 21
128.65712758657097
  0
LINE
  8
_1-1_
  6
CONTINUOUS
 62
    7
 10
83.34386877111487
 20
128.65712758657097
 11
87.721079233530403
 21
130.62688466664909
  0
LINE
  8
_1-1_
  6
CONTINUOUS
 62
    7
 10
87.721079233530403
 20
130.62688466664909
 11
88.952191327069258
 21
127.89111575564823
  0
LINE
  8
_1-1_
  6
CONTINUOUS
 62
    7
 10
88.952191327069258
 20
127.89111575564823
 11
84.574956120671459
 21
125.9213586755701
  0
LINE
  8
_1-1_
  6
CONTINUOUS
 62
    7
 10
83.34386877111487
 20
128.65712758657097
 11
88.952191327069258
 21
127.89111575564823
  0
LINE
  8
_1-b_
  6
CONTINUOUS
 62
    3
 10
88.589766218855573
 20
128.84440241633234
 11
90.278963656038854
 21
129.46614445866766
  0
LINE
  8
_1-b_
  6
CONTINUOUS
 62
    3
 10
87.898938978040547
 20
130.72129533097552
 11
88.589766218855573
 21
128.84440241633234
  0
LINE
  8
_1-b_
  6
CONTINUOUS
 62
    3
 10
32.921076594172291
 20
113.46918466928844
 11
87.119454048775339
 21
133.4180429819468
  0
LINE
  8
_1-1_
  6
CONTINUOUS
 62
    7
 10
83.34386877111487
 20
128.65713995856208
 11
87.721079233530403
 21
130.62689703864021
  0
LINE
  8
_1-1_
  6
CONTINUOUS
 62
    7
 10
127.43526974239866
 20
145.20850104254646
 11
126.20415764885981
 21
147.94426995354732
  0
LINE
  8
_1-1_
  6
CONTINUOUS
 62
    7
 10
126.20415764885981
 20
147.94426995354732
 11
130.5813928552576
 21
149.91402703362544
  0
LINE
  8
_1-1_
  6
CONTINUOUS
 62
    7
 10
130.5813928552576
 20
149.91402703362544
 11
131.81248020481419
 21
147.17825812262458
  0
LINE
  8
_1-1_
  6
CONTINUOUS
 62
    7
 10
131.81248020481419
 20
147.17825812262458
 11
127.43526974239866
 21
145.20850104254646
  0
LINE
  8
_1-1_
  6
CONTINUOUS
 62
    7
 10
126.20415764885981
 20
147.94426995354732
 11
131.81248020481419
 21
147.17825812262458
  0
LINE
  8
_1-b_
  6
CONTINUOUS
 62
    3
 10
75.065101417335313
 20
129.50903815192146
 11
130.75922785578547
 21
150.00843769795188
  0
LINE
  8
_1-b_
  6
CONTINUOUS
 62
    3
 10
131.45007984058279
 20
148.1315447833087
 11
133.13930202174831
 21
148.75328682564401
  0
LINE
  8
_1-b_
  6
CONTINUOUS
 62
    3
 10
130.75922785578547
 20
150.00843769795188
 11
131.45007984058279
 21
148.1315447833087
  0
LINE
  8
_1-b_
  6
CONTINUOUS
 62
    3
 10
75.781390215899478
 20
132.75632703626479
 11
129.97976767050255
 21
152.70518534892315
  0
LINE
  8
_1-b_
  6
CONTINUOUS
 62
    3
 10
74.832532728040547
 20
130.70213111671242
 11
75.249864732896981
 21
129.56828761745143
  0
LINE
  8
_1-1_
  6
CONTINUOUS
 62
    7
 10
126.20415764885981
 20
147.94426995354732
 11
130.5813928552576
 21
149.91402703362544
  0
LINE
  8
_1-1_
  6
CONTINUOUS
 62
    7
 10
130.5813928552576
 20
149.91402703362544
 11
131.81248020481419
 21
147.17825812262458
  0
LINE
  8
_1-1_
  6
CONTINUOUS
 62
    7
 10
170.29558336412586
 20
164.49564340952281
 11
169.06447127058701
 21
167.23141232052365
  0
LINE
  8
_1-1_
  6
CONTINUOUS
 62
    7
 10
173.44170647698482
 20
169.20118177259292
 11
174.67279382654141
 21
166.46538811760982
  0
LINE
  8
_1-1_
  6
CONTINUOUS
 62
    7
 10
126.20415764885981
 20
147.94426995354732
 11
131.81248020481419
 21
147.17825812262458
  0
LINE
  8
_1-1_
  6
CONTINUOUS
 62
    7
 10
126.20418239284207
 20
147.94426995354732
 11
130.5813928552576
 21
149.91402703362544
  0
LINE
  8
_1-1_
  6
CONTINUOUS
 62
    7
 10
130.5813928552576
 20
149.91402703362544
 11
131.81250494879646
 21
147.17825812262458
  0
LINE
  8
_1-1_
  6
CONTINUOUS
 62
    7
 10
126.20418239284207
 20
147.94426995354732
 11
131.81250494879646
 21
147.17825812262458
  0
LINE
  8
_1-b_
  6
CONTINUOUS
 62
    3
 10
131.45007984058279
 20
148.1315447833087
 11
133.13927727776604
 21
148.75328682564401
  0
LINE
  8
_1-b_
  6
CONTINUOUS
 62
    3
 10
130.75925259976773
 20
150.00843769795188
 11
131.45007984058279
 21
148.1315447833087
  0
LINE
  8
ADD_LINE
  6
DOT
 62
    3
 10
130.5813928552576
 20
149.91403940561656
 11
130.5813928552576
 21
150.3728299527555
  0
LINE
  8
ADD_LINE
  6
DOT
 62
    3
 10
130.5813928552576
 20
149.91403940561656
 11
130.5813928552576
 21
149.53100256017737
  0
LINE
  8
_1-1_
  6
CONTINUOUS
 62
    7
 10
126.20418239284207
 20
147.94428232553844
 11
130.5813928552576
 21
149.91403940561656
  0
LINE
  8
_1-1_
  6
CONTINUOUS
 62
    7
 10
170.29558336412586
 20
164.49564340952281
 11
169.06447127058701
 21
167.23141232052365
  0
LINE
  8
_1-1_
  6
CONTINUOUS
 62
    7
 10
173.44170647698482
 20
169.20118177259292
 11
174.67279382654141
 21
166.46538811760982
  0
LINE
  8
_1-1_
  6
CONTINUOUS
 62
    7
 10
174.67279382654141
 20
166.46538811760982
 11
170.29558336412586
 21
164.49564340952281
  0
LINE
  8
_1-b_
  6
CONTINUOUS
 62
    3
 10
117.9254150390625
 20
148.79618051889781
 11
173.61954147751268
 21
169.29558006492823
  0
LINE
  8
_1-b_
  6
CONTINUOUS
 62
    3
 10
118.64170383762669
 20
152.04346940324115
 11
172.84008129222974
 21
171.99232771589951
  0
LINE
  8
_1-b_
  6
CONTINUOUS
 62
    3
 10
117.69284634976775
 20
149.98927348368878
 11
118.11017835462417
 21
148.85542998442779
  0
LINE
  8
_1-1_
  6
CONTINUOUS
 62
    7
 10
169.05776565139359
 20
167.24628345386404
 11
173.43500085779141
 21
169.21602816195102
  0
LINE
  8
_1-1_
  6
CONTINUOUS
 62
    7
 10
173.43500085779141
 20
169.21602816195102
 11
174.666088207348
 21
166.48028399493245
  0
LINE
  8
_1-1_
  6
CONTINUOUS
 62
    7
 10
169.05776565139359
 20
167.24628345386404
 11
173.43500085779141
 21
169.21602816195102
  0
LINE
  8
_1-1_
  6
CONTINUOUS
 62
    7
 10
173.43500085779141
 20
169.21602816195102
 11
174.666088207348
 21
166.48028399493245
  0
LINE
  8
_1-1_
  6
CONTINUOUS
 62
    7
 10
169.05776565139359
 20
167.24628345386404
 11
174.666088207348
 21
166.48028399493245
  0
LINE
  8
_1-1_
  6
CONTINUOUS
 62
    7
 10
169.05776565139359
 20
167.24628345386404
 11
173.43500085779141
 21
169.21602816195102
  0
LINE
  8
_1-1_
  6
CONTINUOUS
 62
    7
 10
173.43500085779141
 20
169.21602816195102
 11
174.666088207348
 21
166.48028399493245
  0
LINE
  8
_1-1_
  6
CONTINUOUS
 62
    7
 10
169.05776565139359
 20
167.24628345386404
 11
174.666088207348
 21
166.48028399493245
  0
LINE
  8
_1-1_
  6
CONTINUOUS
 62
    7
 10
169.05779039537586
 20
167.24628345386404
 11
173.43500085779141
 21
169.21602816195102
  0
LINE
  8
_1-1_
  6
CONTINUOUS
 62
    7
 10
173.43500085779141
 20
169.21602816195102
 11
174.66611295133023
 21
166.48028399493245
  0
LINE
  8
_1-1_
  6
CONTINUOUS
 62
    7
 10
169.05779039537586
 20
167.2463081978463
 11
173.43500085779141
 21
169.21605290593328
  0
LINE
  8
_1-b_
  6
CONTINUOUS
 62
    3
 10
172.66224629170188
 20
172.47208878800677
 11
172.83337567303633
 21
172.00719884923987
  0
LINE
  8
_1-b_
  6
CONTINUOUS
 62
    3
 10
172.66227103568414
 20
172.47206404402451
 11
172.83337567303633
 21
172.00719884923987
  0
LINE
  8
_1-b_
  6
CONTINUOUS
 62
    3
 10
129.80866303315034
 20
153.17005054370779
 11
129.97976767050255
 21
152.70518534892315
  0
LINE
  8
_1-b_
  6
CONTINUOUS
 62
    3
 10
131.3101526208826
 20
153.72273213154563
 11
133.13927727776604
 21
148.75328682564401
  0
LINE
  8
_1-b_
  6
CONTINUOUS
 62
    3
 10
129.80866303315034
 20
153.17005054370779
 11
129.97976767050255
 21
152.70518534892315
  0
LINE
  8
_1-b_
  6
CONTINUOUS
 62
    3
 10
131.31017736486487
 20
153.72273213154563
 11
133.13930202174831
 21
148.75328682564401
  0
LINE
  8
_1-b_
  6
CONTINUOUS
 62
    3
 10
86.948349411423152
 20
133.88292054872255
 11
87.119454048775339
 21
133.4180429819468
  0
LINE
  8
_1-b_
  6
CONTINUOUS
 62
    3
 10
88.449838999155403
 20
134.43557739257812
 11
90.278963656038854
 21
129.46614445866766
  0
LINE
  8
_1-b_
  6
CONTINUOUS
 62
    3
 10
44.088023417704818
 20
114.59577818174621
 11
44.259140427048152
 21
114.13090061497044
  0
LINE
  8
_1-b_
  6
CONTINUOUS
 62
    3
 10
45.589550121410468
 20
115.14843502560178
 11
47.418662406302786
 21
110.1790020916913
  0
LINE
  8
_1-c_
  6
CONTINUOUS
 62
    7
 10
72.345539814717085
 20
137.4589827254012
 11
74.832532728040547
 21
130.70214348870354
  0
LINE
  8
_1-c_
  6
CONTINUOUS
 62
    7
 10
115.20585343644426
 20
156.74610034839529
 11
117.69284634976775
 21
149.98927348368878
  0
LINE
  8
_1-c_
  6
CONTINUOUS
 62
    7
 10
73.294384930584897
 20
139.51316627296242
 11
115.79144452069258
 21
155.15511177681589
  0
LINE
  8
_1-4_
  6
CONTINUOUS
 62
    7
 10
106.21621621621622
 20
149.18918918918919
 11
91.144483411634297
 21
175.29417708113388
  0
LINE
  8
_1-4_
  6
CONTINUOUS
 62
    7
 10
91.144483411634297
 20
175.29417708113388
 11
83.513513513513516
 21
175.29417708113388
  0
LINE
  8
_1-b_
  6
CONTINUOUS
 62
    3
 10
33.243243243243228
 20
107.0926233240076
 11
45.038612984322214
 21
111.43415296399917
  0
LINE
  8
_1-b_
  6
CONTINUOUS
 62
    3
 10
33.243243243243228
 20
110.0762650773332
 11
44.259140427048152
 21
114.13090061497044
  0
LINE
  8
_1-b_
  6
CONTINUOUS
 62
    3
 10
33.243243243243228
 20
110.6041160789696
 11
87.898938978040547
 21
130.72129533097552
  0
LINE
  8
_1-c_
  6
CONTINUOUS
 62
    7
 10
33.243243243243228
 20
121.26000069283151
 11
72.931143270956511
 21
135.86796940983953
  0
LINE
  8
_1-0_
  6
CONTINUOUS
 62
    7
 10
33.243243243243228
 20
84.618790085251277
 11
181.99290507548565
 21
151.55613667256125
  0
LINE
  8
_1-0_
  6
CONTINUOUS
 62
    7
 10
33.243243243243228
 20
97.777800688872475
 11
181.99290507548565
 21
164.71514727618245
  0
LINE
  8
_1-b_
  6
CONTINUOUS
 62
    3
 10
173.92709680505703
 20
173.67113268053211
 11
175.99961564347552
 21
168.04044156461148
  0
LINE
  8
_1-1_
  6
CONTINUOUS
 62
    3
 10
172.42555772936024
 20
173.11846346468539
 11
173.92709680505703
 21
173.67113268053211
  0
LINE
  8
_1-b_
  6
CONTINUOUS
 62
    3
 10
172.42555772936024
 20
173.11846346468539
 11
172.84008129222974
 21
171.99232771589951
  0
LINE
  8
_1-1_
  6
CONTINUOUS
 62
    7
 10
172.42555772936024
 20
173.11846346468539
 11
169.95728363861909
 21
178.60349912901182
  0
LINE
  8
_1-1_
  6
CONTINUOUS
 62
    7
 10
323.50227974556589
 20
109.3699852195946
 11
319.12504453916807
 21
111.33974229967272
  0
LINE
  8
_1-1_
  6
CONTINUOUS
 62
    7
 10
319.12504453916807
 20
111.33974229967272
 11
317.89395718961151
 21
108.60397338867187
  0
LINE
  8
_1-1_
  6
CONTINUOUS
 62
    7
 10
317.89395718961151
 20
108.60397338867187
 11
322.27116765202703
 21
106.63421630859375
  0
LINE
  8
_1-1_
  6
CONTINUOUS
 62
    7
 10
279.41085403029984
 20
125.9213586755701
 11
280.6419661238387
 21
128.65712758657097
  0
LINE
  8
_1-1_
  6
CONTINUOUS
 62
    7
 10
280.6419661238387
 20
128.65712758657097
 11
276.26473091744089
 21
130.62688466664909
  0
LINE
  8
_1-1_
  6
CONTINUOUS
 62
    7
 10
276.26473091744089
 20
130.62688466664909
 11
275.03364356788433
 21
127.89111575564823
  0
LINE
  8
_1-1_
  6
CONTINUOUS
 62
    7
 10
275.03364356788433
 20
127.89111575564823
 11
279.41085403029984
 21
125.9213586755701
  0
LINE
  8
_1-1_
  6
CONTINUOUS
 62
    7
 10
236.55054040857266
 20
145.20850104254646
 11
237.78165250211151
 21
147.94426995354732
  0
LINE
  8
_1-1_
  6
CONTINUOUS
 62
    7
 10
237.78165250211151
 20
147.94426995354732
 11
233.4044172957137
 21
149.91402703362544
  0
LINE
  8
_1-1_
  6
CONTINUOUS
 62
    7
 10
233.4044172957137
 20
149.91402703362544
 11
232.17332994615711
 21
147.17825812262458
  0
LINE
  8
_1-1_
  6
CONTINUOUS
 62
    7
 10
232.17332994615711
 20
147.17825812262458
 11
236.55054040857266
 21
145.20850104254646
  0
LINE
  8
_1-1_
  6
CONTINUOUS
 62
    7
 10
190.54410367398648
 20
169.20118177259292
 11
189.3130163244299
 21
166.46541286159206
  0
LINE
  8
_1-1_
  6
CONTINUOUS
 62
    7
 10
189.3130163244299
 20
166.46541286159206
 11
193.69022678684544
 21
164.49566815350508
  0
LINE
  8
_1-1_
  6
CONTINUOUS
 62
    7
 10
237.78165250211151
 20
147.94426995354732
 11
232.17332994615711
 21
147.17825812262458
  0
LINE
  8
_1-1_
  6
CONTINUOUS
 62
    7
 10
280.6419661238387
 20
128.65712758657097
 11
275.03364356788433
 21
127.89111575564823
  0
LINE
  8
_1-b_
  6
CONTINUOUS
 62
    3
 10
318.25635755384292
 20
109.557260049356
 11
316.5671353726774
 21
110.1790020916913
  0
LINE
  8
_1-b_
  6
CONTINUOUS
 62
    3
 10
318.94720953864021
 20
111.43415296399917
 11
318.25635755384292
 21
109.557260049356
  0
LINE
  8
_1-1_
  6
CONTINUOUS
 62
    7
 10
323.50225500158365
 20
109.36999759158573
 11
319.12501979518584
 21
111.33975467166385
  0
LINE
  8
_1-1_
  6
CONTINUOUS
 62
    7
 10
279.41085403029984
 20
125.9213586755701
 11
280.64194137985646
 21
128.65712758657097
  0
LINE
  8
_1-1_
  6
CONTINUOUS
 62
    7
 10
280.64194137985646
 20
128.65712758657097
 11
276.26473091744089
 21
130.62688466664909
  0
LINE
  8
_1-1_
  6
CONTINUOUS
 62
    7
 10
276.26473091744089
 20
130.62688466664909
 11
275.03361882390203
 21
127.89111575564823
  0
LINE
  8
_1-1_
  6
CONTINUOUS
 62
    7
 10
275.03361882390203
 20
127.89111575564823
 11
279.41085403029984
 21
125.9213586755701
  0
LINE
  8
_1-1_
  6
CONTINUOUS
 62
    7
 10
280.64194137985646
 20
128.65712758657097
 11
275.03361882390203
 21
127.89111575564823
  0
LINE
  8
_1-b_
  6
CONTINUOUS
 62
    3
 10
275.39604393211573
 20
128.84440241633234
 11
273.70684649493245
 21
129.46614445866766
  0
LINE
  8
_1-b_
  6
CONTINUOUS
 62
    3
 10
276.08687117293078
 20
130.72129533097552
 11
275.39604393211573
 21
128.84440241633234
  0
LINE
  8
_1-b_
  6
CONTINUOUS
 62
    3
 10
331.06473355679901
 20
113.46918466928844
 11
276.86635610219594
 21
133.4180429819468
  0
LINE
  8
_1-1_
  6
CONTINUOUS
 62
    7
 10
280.64194137985646
 20
128.65713995856208
 11
276.26473091744089
 21
130.62689703864021
  0
LINE
  8
_1-1_
  6
CONTINUOUS
 62
    7
 10
236.55054040857266
 20
145.20850104254646
 11
237.78165250211151
 21
147.94426995354732
  0
LINE
  8
_1-1_
  6
CONTINUOUS
 62
    7
 10
237.78165250211151
 20
147.94426995354732
 11
233.4044172957137
 21
149.91402703362544
  0
LINE
  8
_1-1_
  6
CONTINUOUS
 62
    7
 10
233.4044172957137
 20
149.91402703362544
 11
232.17332994615711
 21
147.17825812262458
  0
LINE
  8
_1-1_
  6
CONTINUOUS
 62
    7
 10
232.17332994615711
 20
147.17825812262458
 11
236.55054040857266
 21
145.20850104254646
  0
LINE
  8
_1-1_
  6
CONTINUOUS
 62
    7
 10
237.78165250211151
 20
147.94426995354732
 11
232.17332994615711
 21
147.17825812262458
  0
LINE
  8
_1-b_
  6
CONTINUOUS
 62
    3
 10
288.92070873363599
 20
129.50903815192146
 11
233.22658229518584
 21
150.00843769795188
  0
LINE
  8
_1-b_
  6
CONTINUOUS
 62
    3
 10
232.53573031038852
 20
148.1315447833087
 11
230.846508129223
 21
148.75328682564401
  0
LINE
  8
_1-b_
  6
CONTINUOUS
 62
    3
 10
233.22658229518584
 20
150.00843769795188
 11
232.53573031038852
 21
148.1315447833087
  0
LINE
  8
_1-b_
  6
CONTINUOUS
 62
    3
 10
288.20441993507183
 20
132.75632703626479
 11
234.00604248046875
 21
152.70518534892315
  0
LINE
  8
_1-b_
  6
CONTINUOUS
 62
    3
 10
289.15327742293078
 20
130.70213111671242
 11
288.73594541807432
 21
129.56828761745143
  0
LINE
  8
_1-1_
  6
CONTINUOUS
 62
    7
 10
237.78165250211151
 20
147.94426995354732
 11
233.4044172957137
 21
149.91402703362544
  0
LINE
  8
_1-1_
  6
CONTINUOUS
 62
    7
 10
233.4044172957137
 20
149.91402703362544
 11
232.17332994615711
 21
147.17825812262458
  0
LINE
  8
_1-1_
  6
CONTINUOUS
 62
    7
 10
193.69022678684544
 20
164.49564340952281
 11
194.9213388803843
 21
167.23141232052365
  0
LINE
  8
_1-1_
  6
CONTINUOUS
 62
    7
 10
190.54410367398648
 20
169.20118177259292
 11
189.3130163244299
 21
166.46538811760982
  0
LINE
  8
_1-1_
  6
CONTINUOUS
 62
    7
 10
237.78165250211151
 20
147.94426995354732
 11
232.17332994615711
 21
147.17825812262458
  0
LINE
  8
_1-1_
  6
CONTINUOUS
 62
    7
 10
237.78162775812925
 20
147.94426995354732
 11
233.4044172957137
 21
149.91402703362544
  0
LINE
  8
_1-1_
  6
CONTINUOUS
 62
    7
 10
233.4044172957137
 20
149.91402703362544
 11
232.17330520217484
 21
147.17825812262458
  0
LINE
  8
_1-1_
  6
CONTINUOUS
 62
    7
 10
237.78162775812925
 20
147.94426995354732
 11
232.17330520217484
 21
147.17825812262458
  0
LINE
  8
_1-b_
  6
CONTINUOUS
 62
    3
 10
232.53573031038852
 20
148.1315447833087
 11
230.84653287320526
 21
148.75328682564401
  0
LINE
  8
_1-b_
  6
CONTINUOUS
 62
    3
 10
233.22655755120357
 20
150.00843769795188
 11
232.53573031038852
 21
148.1315447833087
  0
LINE
  8
ADD_LINE
  6
DOT
 62
    3
 10
233.4044172957137
 20
149.91403940561656
 11
233.4044172957137
 21
150.3728299527555
  0
LINE
  8
ADD_LINE
  6
DOT
 62
    3
 10
233.4044172957137
 20
149.91403940561656
 11
233.4044172957137
 21
149.53100256017737
  0
LINE
  8
_1-1_
  6
CONTINUOUS
 62
    7
 10
237.78162775812925
 20
147.94428232553844
 11
233.4044172957137
 21
149.91403940561656
  0
LINE
  8
_1-1_
  6
CONTINUOUS
 62
    7
 10
193.69022678684544
 20
164.49564340952281
 11
194.9213388803843
 21
167.23141232052365
  0
LINE
  8
_1-1_
  6
CONTINUOUS
 62
    7
 10
190.54410367398648
 20
169.20118177259292
 11
189.3130163244299
 21
166.46538811760982
  0
LINE
  8
_1-1_
  6
CONTINUOUS
 62
    7
 10
189.3130163244299
 20
166.46538811760982
 11
193.69022678684544
 21
164.49564340952281
  0
LINE
  8
_1-b_
  6
CONTINUOUS
 62
    3
 10
246.0603951119088
 20
148.79618051889781
 11
190.36626867345862
 21
169.29558006492823
  0
LINE
  8
_1-b_
  6
CONTINUOUS
 62
    3
 10
245.34410631334461
 20
152.04346940324115
 11
191.14572885874156
 21
171.99232771589951
  0
LINE
  8
_1-b_
  6
CONTINUOUS
 62
    3
 10
246.29296380120357
 20
149.98927348368878
 11
245.87563179634714
 21
148.85542998442779
  0
LINE
  8
_1-1_
  6
CONTINUOUS
 62
    7
 10
194.92804449957771
 20
167.24628345386404
 11
190.5508092931799
 21
169.21602816195102
  0
LINE
  8
_1-1_
  6
CONTINUOUS
 62
    7
 10
190.5508092931799
 20
169.21602816195102
 11
189.31972194362334
 21
166.48028399493245
  0
LINE
  8
_1-1_
  6
CONTINUOUS
 62
    7
 10
193.69693240603885
 20
164.51051454286318
 11
194.92804449957771
 21
167.24628345386404
  0
LINE
  8
_1-1_
  6
CONTINUOUS
 62
    7
 10
194.92804449957771
 20
167.24628345386404
 11
190.5508092931799
 21
169.21602816195102
  0
LINE
  8
_1-1_
  6
CONTINUOUS
 62
    7
 10
190.5508092931799
 20
169.21602816195102
 11
189.31972194362334
 21
166.48028399493245
  0
LINE
  8
_1-1_
  6
CONTINUOUS
 62
    7
 10
194.92804449957771
 20
167.24628345386404
 11
190.5508092931799
 21
169.21602816195102
  0
LINE
  8
_1-1_
  6
CONTINUOUS
 62
    7
 10
190.5508092931799
 20
169.21602816195102
 11
189.31972194362334
 21
166.48028399493245
  0
LINE
  8
_1-1_
  6
CONTINUOUS
 62
    7
 10
190.5508092931799
 20
169.21602816195102
 11
189.31969719964107
 21
166.48028399493245
  0
LINE
  8
_1-b_
  6
CONTINUOUS
 62
    3
 10
189.68212230785474
 20
167.43357065561656
 11
187.99292487067146
 21
168.05528795396961
  0
LINE
  8
_1-b_
  6
CONTINUOUS
 62
    3
 10
191.32356385926943
 20
172.47208878800677
 11
191.15243447793497
 21
172.00719884923987
  0
LINE
  8
_1-b_
  6
CONTINUOUS
 62
    3
 10
191.32353911528716
 20
172.47206404402451
 11
191.15243447793497
 21
172.00719884923987
  0
LINE
  8
_1-b_
  6
CONTINUOUS
 62
    3
 10
189.8220495275549
 20
173.02474563186234
 11
187.99292487067146
 21
168.05528795396961
  0
LINE
  8
_1-b_
  6
CONTINUOUS
 62
    3
 10
189.82202478357266
 20
173.02474563186234
 11
187.99290012668919
 21
168.05528795396961
  0
LINE
  8
_1-b_
  6
CONTINUOUS
 62
    3
 10
234.17714711782097
 20
153.17005054370779
 11
234.00604248046875
 21
152.70518534892315
  0
LINE
  8
_1-b_
  6
CONTINUOUS
 62
    3
 10
232.6756575300887
 20
153.72273213154563
 11
230.84653287320526
 21
148.75328682564401
  0
LINE
  8
_1-b_
  6
CONTINUOUS
 62
    3
 10
234.17714711782097
 20
153.17005054370779
 11
234.00604248046875
 21
152.70518534892315
  0
LINE
  8
_1-b_
  6
CONTINUOUS
 62
    3
 10
232.67563278610643
 20
153.72273213154563
 11
230.846508129223
 21
148.75328682564401
  0
LINE
  8
_1-b_
  6
CONTINUOUS
 62
    3
 10
277.03746073954818
 20
133.88292054872255
 11
276.86635610219594
 21
133.4180429819468
  0
LINE
  8
_1-b_
  6
CONTINUOUS
 62
    3
 10
275.53597115181589
 20
134.43557739257812
 11
273.70684649493245
 21
129.46614445866766
  0
LINE
  8
_1-b_
  6
CONTINUOUS
 62
    3
 10
319.89777436127537
 20
114.59577818174621
 11
319.72666972392318
 21
114.13090061497044
  0
LINE
  8
_1-b_
  6
CONTINUOUS
 62
    3
 10
318.39626002956084
 20
115.14843502560178
 11
316.5671353726774
 21
110.1790020916913
  0
LINE
  8
_1-c_
  6
CONTINUOUS
 62
    7
 10
291.64027033625422
 20
137.4589827254012
 11
289.15327742293078
 21
130.70214348870354
  0
LINE
  8
_1-c_
  6
CONTINUOUS
 62
    7
 10
248.77995671452703
 20
156.74610034839529
 11
246.29296380120357
 21
149.98927348368878
  0
LINE
  8
_1-c_
  6
CONTINUOUS
 62
    7
 10
290.69141284839526
 20
139.51316627296242
 11
248.19436563027872
 21
155.15511177681589
  0
LINE
  8
_1-b_
  6
CONTINUOUS
 62
    3
 10
330.74256690772808
 20
107.0926233240076
 11
318.94720953864021
 21
111.43415296399917
  0
LINE
  8
_1-b_
  6
CONTINUOUS
 62
    3
 10
330.74256690772808
 20
110.0762650773332
 11
319.72666972392318
 21
114.13090061497044
  0
LINE
  8
_1-b_
  6
CONTINUOUS
 62
    3
 10
330.74256690772808
 20
110.6041160789696
 11
276.08687117293078
 21
130.72129533097552
  0
LINE
  8
_1-c_
  6
CONTINUOUS
 62
    7
 10
330.74256690772808
 20
121.26000069283151
 11
291.05465450802365
 21
135.86796940983953
  0
LINE
  8
_1-0_
  6
CONTINUOUS
 62
    7
 10
330.74256690772808
 20
84.618790085251277
 11
181.99290507548565
 21
151.55613667256125
  0
LINE
  8
_1-0_
  6
CONTINUOUS
 62
    7
 10
330.74256690772808
 20
101.06755024677999
 11
181.99290507548565
 21
168.00490920608109
  0
LINE
  8
_1-0_
  6
CONTINUOUS
 62
    7
 10
330.74256690772808
 20
102.82209654112121
 11
181.99290507548565
 21
169.75944312843117
  0
LINE
  8
_1-0_
  6
CONTINUOUS
 62
    7
 10
330.74256690772808
 20
102.16414168074324
 11
181.99290507548565
 21
169.10151301203547
  0
LINE
  8
_1-1_
  6
CONTINUOUS
 62
    3
 10
191.56025242161107
 20
173.11846346468539
 11
190.05871334591427
 21
173.67113268053211
  0
LINE
  8
_1-b_
  6
CONTINUOUS
 62
    3
 10
191.56025242161107
 20
173.11846346468539
 11
191.14572885874156
 21
171.99232771589951
  0
LINE
  8
_1-1_
  6
CONTINUOUS
 62
    7
 10
205.33511599978885
 20
174.44185824007602
 11
192.57346900733742
 21
179.13905788112331
  0
LINE
  8
_1-1_
  6
CONTINUOUS
 62
    7
 10
189.82202478357266
 20
173.02474563186234
 11
192.57346900733742
 21
179.13905788112331
  0
LINE
  8
_1-1_
  6
CONTINUOUS
 62
    7
 10
191.56025242161107
 20
173.11846346468539
 11
194.02852651235222
 21
178.60349912901182
  0
LINE
  8
_1-1_
  6
CONTINUOUS
 62
    7
 10
205.33511599978885
 20
174.44185824007602
 11
192.57346900733742
 21
179.13905788112331
  0
LINE
  8
_1-3_
  6
CONTINUOUS
 62
    7
 10
229.29040857263516
 20
135.81551216744089
 11
260.70853568412161
 21
190.23324502480997
  0
LINE
  8
_1-3_
  6
CONTINUOUS
 62
    7
 10
260.70853568412161
 20
190.23324502480997
 11
266.45621634818411
 21
190.23324502480997
  0
LINE
  8
_1-3_
  6
CONTINUOUS
 62
    7
 10
162.0271466229413
 20
229.09060091585727
 11
159.45424260319891
 21
229.09060091585727
  0
LINE
  8
_1-1_
  6
CONTINUOUS
 62
    7
 10
40.483545870394323
 20
109.3699852195946
 11
46.091865333350938
 21
108.60397338867187
  0
LINE
  8
_1-3_
  6
CONTINUOUS
 62
    7
 10
40.483545870394323
 20
109.3699852195946
 11
41.71464559194203
 21
106.63421630859375
  0
LINE
  8
_1-b_
  6
CONTINUOUS
 62
    3
 10
173.61954147751268
 20
169.29558006492823
 11
174.31039346230997
 21
167.41867477829393
  0
LINE
  8
_1-1_
  6
CONTINUOUS
 62
    7
 10
193.69693240603885
 20
164.51051454286318
 11
194.92804449957771
 21
167.24628345386404
  0
LINE
  8
_1-3_
  6
CONTINUOUS
 62
    7
 10
194.92804449957771
 20
167.24628345386404
 11
189.3130163244299
 21
166.46541286159206
  0
LINE
  8
_1-b_
  6
CONTINUOUS
 62
    3
 10
189.68104594462628
 20
167.43396655933279
 11
187.99290012668919
 21
168.05528795396961
  0
LINE
  8
_1-b_
  6
CONTINUOUS
 62
    3
 10
190.36626867345862
 20
169.29558006492823
 11
189.68104594462628
 21
167.43396655933279
  0
LINE
  8
_1-b_
  6
CONTINUOUS
 62
    3
 10
174.31039346230997
 20
167.41867477829393
 11
175.99961564347552
 21
168.04044156461148
  0
LINE
  8
_1-3_
  6
CONTINUOUS
 62
    7
 10
323.50225500158365
 20
109.36999759158573
 11
322.46342839421453
 21
106.54771134660051
  0
LINE
  8
_1-1_
  6
CONTINUOUS
 62
    7
 10
323.50225500158365
 20
109.3699852195946
 11
317.89395718961151
 21
108.60397338867187
  0
LINE
  8
_1-1_
  6
DASHED1
 62
    3
 10
227.5889876082137
 20
148.36394026472763
 11
181.99290507548565
 21
168.88218235325169
  0
LINE
  8
_1-1_
  6
DASHED1
 62
    3
 10
136.56243401604729
 20
147.99983256572003
 11
181.99290507548565
 21
168.44354577966641
  0
LINE
  8
_1-1_
  6
DASHED1
 62
    3
 10
227.42483602987755
 20
147.99917685019005
 11
181.99290507548565
 21
168.44354577966641
  0
LINE
  8
_1-1_
  6
DASHED1
 62
    3
 10
227.42483602987755
 20
147.99917685019005
 11
330.65955084723396
 21
101.5435502335832
  0
LINE
  8
_1-a_
  6
CONTINUOUS
 62
    7
 10
167.14009465398016
 20
135.8759493441195
 11
178.69422293998102
 21
161.55178997967695
  0
LINE
  8
_1-a_
  6
CONTINUOUS
 62
    7
 10
212.73616481471709
 20
115.35771962758658
 11
224.29029310071792
 21
141.03354789115289
  0
LINE
  8
_1-a_
  6
CONTINUOUS
 62
    7
 10
167.14009465398016
 20
135.8759493441195
 11
212.73616481471709
 21
115.35771962758658
  0
LINE
  8
_1-a_
  6
CONTINUOUS
 62
    7
 10
151.7914766878695
 20
114.15753751187712
 11
139.60020323057432
 21
141.24924118454393
  0
LINE
  8
_1-a_
  6
CONTINUOUS
 62
    7
 10
197.22194774730787
 20
134.60123835383234
 11
185.03067429001268
 21
161.69295439849029
  0
LINE
  8
_1-a_
  6
CONTINUOUS
 62
    7
 10
151.7914766878695
 20
114.15753751187712
 11
197.22194774730787
 21
134.60123835383234
  0
LINE
  8
_1-2_
  6
CONTINUOUS
 62
    7
 10
181.99290507548565
 20
164.71514727618245
 11
181.99290507548565
 21
151.55613667256125
  0
LINE
  8
_1-2_
  6
CONTINUOUS
 62
    7
 10
199.99287785710516
 20
161.6594510465055
 11
181.99290507548565
 21
169.75944312843117
  0
LINE
  8
_1-2_
  6
CONTINUOUS
 62
    7
 10
176.99288857949747
 20
177.04925537109375
 11
176.99288857949747
 21
167.50943570523648
  0
LINE
  8
_1-2_
  6
CONTINUOUS
 62
    7
 10
186.99289682749156
 20
177.04925537109375
 11
186.99289682749156
 21
167.50944807722763
  0
LINE
  8
_1-2_
  6
CONTINUOUS
 62
    7
 10
181.29289781725086
 20
176.64925652581294
 11
181.29289781725086
 21
169.44443986222552
  0
LINE
  8
_1-2_
  6
CONTINUOUS
 62
    7
 10
182.69288758973818
 20
176.64925652581294
 11
182.69288758973818
 21
169.44445223421664
  0
LINE
  8
_1-2_
  6
CONTINUOUS
 62
    7
 10
181.29289781725086
 20
180.30890387457771
 11
182.69288758973818
 21
180.30890387457771
  0
LINE
  8
_1-2_
  6
CONTINUOUS
 62
    7
 10
181.29289781725086
 20
179.90890502929687
 11
182.69288758973818
 21
179.90890502929687
  0
LINE
  8
_1-2_
  6
CONTINUOUS
 62
    7
 10
181.29289781725086
 20
179.50890618401607
 11
182.69288758973818
 21
179.50890618401607
  0
LINE
  8
_1-2_
  6
CONTINUOUS
 62
    7
 10
181.29289781725086
 20
179.10890733873524
 11
182.69288758973818
 21
179.10890733873524
  0
LINE
  8
_1-2_
  6
CONTINUOUS
 62
    7
 10
181.29289781725086
 20
178.7089084934544
 11
182.69288758973818
 21
178.7089084934544
  0
LINE
  8
_1-2_
  6
CONTINUOUS
 62
    7
 10
181.29289781725086
 20
178.30890964817357
 11
182.69288758973818
 21
178.30890964817357
  0
LINE
  8
_1-2_
  6
CONTINUOUS
 62
    7
 10
181.29289781725086
 20
177.90891080289273
 11
182.69288758973818
 21
177.90891080289273
  0
LINE
  8
_1-2_
  6
CONTINUOUS
 62
    7
 10
181.29289781725086
 20
177.50891195761193
 11
182.69288758973818
 21
177.50891195761193
  0
LINE
  8
_1-2_
  6
CONTINUOUS
 62
    7
 10
181.29289781725086
 20
177.10891311233109
 11
182.69288758973818
 21
177.10891311233109
  0
LINE
  8
_1-2_
  6
CONTINUOUS
 62
    7
 10
181.29289781725086
 20
176.24925768053211
 11
182.69288758973818
 21
176.24925768053211
  0
LINE
  8
_1-2_
  6
CONTINUOUS
 62
    7
 10
186.59289798221073
 20
176.64925652581294
 11
186.59289798221073
 21
167.68944817620357
  0
LINE
  8
_1-2_
  6
CONTINUOUS
 62
    7
 10
177.39288742477831
 20
176.64925652581294
 11
177.39288742477831
 21
167.68943580421242
  0
LINE
  8
_1-2_
  6
CONTINUOUS
 62
    7
 10
177.39288742477831
 20
176.64925652581294
 11
186.59289798221073
 21
176.64925652581294
  0
LINE
  8
_1-2_
  6
CONTINUOUS
 62
    7
 10
181.29289781725086
 20
175.84925883525128
 11
182.69288758973818
 21
175.84925883525128
  0
LINE
  8
_1-2_
  6
CONTINUOUS
 62
    7
 10
181.29289781725086
 20
175.44925998997044
 11
182.69288758973818
 21
175.44925998997044
  0
LINE
  8
_1-2_
  6
CONTINUOUS
 62
    7
 10
181.29289781725086
 20
175.04926114468961
 11
182.69288758973818
 21
175.04926114468961
  0
LINE
  8
_1-2_
  6
CONTINUOUS
 62
    7
 10
181.29289781725086
 20
174.6492622994088
 11
182.69288758973818
 21
174.6492622994088
  0
LINE
  8
_1-2_
  6
CONTINUOUS
 62
    7
 10
181.29289781725086
 20
174.24926345412797
 11
182.69288758973818
 21
174.24926345412797
  0
LINE
  8
_1-2_
  6
CONTINUOUS
 62
    7
 10
181.29289781725086
 20
173.84926460884714
 11
182.69288758973818
 21
173.84926460884714
  0
LINE
  8
_1-2_
  6
CONTINUOUS
 62
    7
 10
181.29289781725086
 20
173.4492657635663
 11
182.69288758973818
 21
173.4492657635663
  0
LINE
  8
_1-2_
  6
CONTINUOUS
 62
    7
 10
181.29289781725086
 20
173.0492669182855
 11
182.69288758973818
 21
173.0492669182855
  0
LINE
  8
_1-2_
  6
CONTINUOUS
 62
    7
 10
181.29289781725086
 20
172.64926807300466
 11
182.69288758973818
 21
172.64926807300466
  0
LINE
  8
_1-2_
  6
CONTINUOUS
 62
    7
 10
181.29289781725086
 20
172.24926922772383
 11
182.69288758973818
 21
172.24926922772383
  0
LINE
  8
_1-2_
  6
CONTINUOUS
 62
    7
 10
181.29289781725086
 20
171.849270382443
 11
182.69288758973818
 21
171.849270382443
  0
LINE
  8
_1-2_
  6
CONTINUOUS
 62
    7
 10
181.29289781725086
 20
171.44927153716216
 11
182.69288758973818
 21
171.44927153716216
  0
LINE
  8
_1-2_
  6
CONTINUOUS
 62
    7
 10
181.29289781725086
 20
171.04927269188136
 11
182.69288758973818
 21
171.04927269188136
  0
LINE
  8
_1-2_
  6
CONTINUOUS
 62
    7
 10
181.29289781725086
 20
170.64927384660052
 11
182.69288758973818
 21
170.64927384660052
  0
LINE
  8
_1-2_
  6
CONTINUOUS
 62
    7
 10
181.29289781725086
 20
170.27384577570734
 11
182.69288758973818
 21
170.27384577570734
  0
LINE
  8
_1-2_
  6
CONTINUOUS
 62
    7
 10
181.29289781725086
 20
169.87384693042654
 11
182.69288758973818
 21
169.87384693042654
  0
LINE
  8
_1-0_
  6
CONTINUOUS
 62
    7
 10
183.54674055769638
 20
164.01591945338893
 11
181.99290507548565
 21
164.71514727618245
  0
LINE
  8
_1-0_
  6
CONTINUOUS
 62
    7
 10
330.74256690772808
 20
97.777800688872475
 11
183.54674055769638
 21
164.01591945338893
  0
LINE
  8
_1-1_
  6
CONTINUOUS
 62
    7
 10
174.16378536739865
 20
173.02474563186234
 11
171.41234114363388
 21
179.13905788112331
  0
LINE
  8
_1-6_
  6
CONTINUOUS
 62
    3
 10
140.07925909918708
 20
172.85109236433701
 11
141.58396540461359
 21
167.6649640057538
  0
LINE
  8
_1-6_
  6
CONTINUOUS
 62
    3
 10
179.45537257838893
 20
184.27568590318836
 11
180.96006651182432
 21
179.08955754460516
  0
LINE
  8
_1-6_
  6
CONTINUOUS
 62
    3
 10
140.30513454127956
 20
179.25078933303422
 11
141.80984084670609
 21
174.06466097445102
  0
LINE
  8
_1-6_
  6
CONTINUOUS
 62
    3
 10
179.68123564849029
 20
190.67538287188557
 11
181.18594195391682
 21
185.48925451330237
  0
LINE
  8
_1-1_
  6
CONTINUOUS
 62
    7
 10
194.92804449957771
 20
167.24628345386404
 11
190.5508092931799
 21
169.21602816195102
  0
LINE
  8
_1-1_
  6
CONTINUOUS
 62
    7
 10
194.92804449957771
 20
167.24628345386404
 11
190.5508092931799
 21
169.21602816195102
  0
LINE
  8
_1-1_
  6
CONTINUOUS
 62
    7
 10
194.92804449957771
 20
167.24628345386404
 11
190.5508092931799
 21
169.21602816195102
  0
LINE
  8
_1-1_
  6
CONTINUOUS
 62
    7
 10
194.92801975559544
 20
167.24628345386404
 11
190.5508092931799
 21
169.21602816195102
  0
LINE
  8
_1-1_
  6
CONTINUOUS
 62
    7
 10
194.92801975559544
 20
167.2463081978463
 11
190.5508092931799
 21
169.21605290593328
  0
LINE
  8
_1-b_
  6
CONTINUOUS
 62
    3
 10
191.32356385926943
 20
172.47208878800677
 11
191.15243447793497
 21
172.00719884923987
  0
LINE
  8
_1-b_
  6
CONTINUOUS
 62
    3
 10
191.32353911528716
 20
172.47206404402451
 11
191.15243447793497
 21
172.00719884923987
  0
LINE
  8
_1-b_
  6
CONTINUOUS
 62
    3
 10
190.05871334591427
 20
173.67113268053211
 11
187.98619450749578
 21
168.04044156461148
  0
LINE
  8
_1-1_
  6
CONTINUOUS
 62
    3
 10
191.56025242161107
 20
173.11846346468539
 11
190.05871334591427
 21
173.67113268053211
  0
LINE
  8
_1-b_
  6
CONTINUOUS
 62
    3
 10
191.56025242161107
 20
173.11846346468539
 11
191.14572885874156
 21
171.99232771589951
  0
LINE
  8
_1-1_
  6
CONTINUOUS
 62
    7
 10
191.56025242161107
 20
173.11846346468539
 11
194.02852651235222
 21
178.60349912901182
  0
LINE
  8
_1-0_
  6
CONTINUOUS
 62
    7
 10
182.14248244826859
 20
167.93760557432432
 11
181.99290507548565
 21
168.00490920608109
  0
LINE
  8
_1-0_
  6
CONTINUOUS
 62
    7
 10
182.55283665012669
 20
168.84954504064612
 11
181.99290507548565
 21
169.10151301203547
  0
LINE
  8
_1-0_
  6
CONTINUOUS
 62
    7
 10
182.79907638962206
 20
169.39667160446581
 11
181.99290507548565
 21
169.75944312843117
  0
LINE
  8
_1-b_
  6
CONTINUOUS
 62
    3
 10
190.36626867345862
 20
169.29558006492823
 11
189.67541668866133
 21
167.41867477829393
  0
LINE
  8
_1-b_
  6
CONTINUOUS
 62
    3
 10
189.67541668866133
 20
167.41867477829393
 11
187.98619450749578
 21
168.04044156461148
  0
LINE
  8
_1-1_
  6
CONTINUOUS
 62
    7
 10
189.82202478357266
 20
173.02474563186234
 11
192.57346900733742
 21
179.13905788112331
  0
LINE
  8
_1-6_
  6
CONTINUOUS
 62
    3
 10
223.90653867979307
 20
172.85109236433701
 11
222.40183237436656
 21
167.6649640057538
  0
LINE
  8
_1-6_
  6
CONTINUOUS
 62
    3
 10
184.53043757258237
 20
184.27568590318836
 11
183.02574363914698
 21
179.08955754460516
  0
LINE
  8
_1-6_
  6
CONTINUOUS
 62
    3
 10
223.68067560969175
 20
179.25078933303422
 11
222.17596930426521
 21
174.06466097445102
  0
LINE
  8
_1-6_
  6
CONTINUOUS
 62
    3
 10
184.30457450248102
 20
190.67538287188557
 11
182.79986819705448
 21
185.48925451330237
  0
LINE
  8
_1-c_
  6
CONTINUOUS
 62
    7
 10
247.83112397065034
 20
158.80029626794763
 11
222.53163930532097
 21
168.11231046109586
  0
LINE
  8
_1-c_
  6
CONTINUOUS
 62
    7
 10
221.61527066617401
 20
168.44959568332982
 11
205.33511599978885
 21
174.44185824007602
  0
LINE
  8
_1-c_
  6
CONTINUOUS
 62
    7
 10
116.15468618032095
 20
158.80029626794763
 11
141.45417084565034
 21
168.11231046109586
  0
LINE
  8
_1-c_
  6
CONTINUOUS
 62
    7
 10
142.37052711280617
 20
168.44959568332982
 11
171.41234114363388
 21
179.13905788112331
  0
LINE
  8
_1-3_
  6
CONTINUOUS
 62
    7
 10
218.66754480310391
 20
216.64249729465794
 11
222.99492088524073
 21
216.64249729465794
  0
LINE
  8
_1-2_
  6
CONTINUOUS
 62
    7
 10
171.29980551229943
 20
249.02836155247044
 11
168.93569121489654
 21
249.02836155247044
  0
LINE
  8
_1-2_
  6
CONTINUOUS
 62
    7
 10
212.85169446790542
 20
244.67213398701438
 11
217.95697186444258
 21
244.67213398701438
  0
LINE
  8
_1-2_
  6
CONTINUOUS
 62
    7
 10
218.66754480310391
 20
216.64249729465794
 11
210.11025918496622
 21
201.82088903478675
  0
LINE
  8
_1-2_
  6
CONTINUOUS
 62
    7
 10
216.46795324377112
 20
175.18955952412375
 11
229.59904026340794
 21
197.93325063344597
  0
LINE
  8
_1-2_
  6
CONTINUOUS
 62
    7
 10
229.59904026340794
 20
197.93325063344597
 11
233.59685124577703
 21
197.93325063344597
  0
LINE
  8
_1-2_
  6
CONTINUOUS
 62
    3
 10
155.22789620064401
 20
209.78945345491977
 11
155.69853911528716
 21
204.41000036291175
  0
LINE
  8
_1-2_
  6
CONTINUOUS
 62
    3
 10
175.33611813107052
 20
215.16246073954815
 11
175.64988419816302
 21
211.5761421822213
  0
LINE
  8
ADD_LINE
  6
DOT
 62
    3
 10
153.15760432062922
 20
197.58346970016893
 11
158.42923550992398
 21
198.04467278557857
  0
LINE
  8
_1-2_
  6
CONTINUOUS
 62
    3
 10
154.09020501214107
 20
203.69846240894216
 11
154.56084792678422
 21
198.31900931693414
  0
LINE
  8
_1-2_
  6
CONTINUOUS
 62
    3
 10
174.19842694256758
 20
209.0714573215794
 11
174.51219300966005
 21
205.48515113624367
  0
LINE
  8
_1-2_
  6
CONTINUOUS
 62
    3
 10
153.15760432062922
 20
197.58346970016893
 11
153.6282472352724
 21
192.20400423616977
  0
LINE
  8
_1-2_
  6
CONTINUOUS
 62
    3
 10
173.26582625105576
 20
202.95646461280617
 11
173.57959231814823
 21
199.37015842747044
  0
LINE
  8
ADD_LINE
  6
DOT
 62
    3
 10
158.5429959683805
 20
193.97683633340372
 11
154.33710046716638
 21
193.60886857316302
  0
LINE
  8
ADD_LINE
  6
DOT
 62
    7
 10
153.15760432062922
 20
197.58345732817779
 11
152.69534961597341
 21
197.58345732817779
  0
LINE
  8
_1-2_
  6
CONTINUOUS
 62
    3
 10
152.17189067118878
 20
191.48482039168076
 11
152.64253358583193
 21
186.10536729967274
  0
LINE
  8
_1-2_
  6
CONTINUOUS
 62
    3
 10
172.28011260161529
 20
196.857815304318
 11
172.59387866870779
 21
193.27150911898227
  0
LINE
  8
_1-2_
  6
CONTINUOUS
 62
    3
 10
155.96357190931167
 20
215.71952201224664
 11
156.43421482395482
 21
210.34008129222974
  0
LINE
  8
_1-2_
  6
CONTINUOUS
 62
    3
 10
176.07179383973818
 20
221.092529296875
 11
176.38555990683068
 21
217.50621073954815
  0
LINE
  8
_1-2_
  6
CONTINUOUS
 62
    3
 10
208.75790157833617
 20
209.78945345491977
 11
208.28727103568414
 21
204.41000036291175
  0
LINE
  8
_1-2_
  6
CONTINUOUS
 62
    3
 10
188.64969201990078
 20
215.16246073954815
 11
188.33592595280828
 21
211.5761421822213
  0
LINE
  8
ADD_LINE
  6
DOT
 62
    3
 10
210.82820583034209
 20
197.58346970016893
 11
205.55657464104732
 21
198.04467278557857
  0
LINE
  8
_1-2_
  6
CONTINUOUS
 62
    3
 10
189.78738320840372
 20
209.0714573215794
 11
189.47361714131125
 21
205.48515113624367
  0
LINE
  8
_1-2_
  6
CONTINUOUS
 62
    3
 10
210.82820583034209
 20
197.58346970016893
 11
210.35757528769005
 21
192.20400423616977
  0
LINE
  8
ADD_LINE
  6
DOT
 62
    3
 10
205.44281418259081
 20
193.97683633340372
 11
209.64870968380492
 21
193.60886857316302
  0
LINE
  8
ADD_LINE
  6
DOT
 62
    7
 10
210.82820583034209
 20
197.58345732817779
 11
211.29047290698904
 21
197.58345732817779
  0
LINE
  8
_1-2_
  6
CONTINUOUS
 62
    3
 10
211.81393185177367
 20
191.48482039168076
 11
211.34327656513938
 21
186.10536729967274
  0
LINE
  8
_1-2_
  6
CONTINUOUS
 62
    3
 10
191.70569754935602
 20
196.857815304318
 11
191.39193148226352
 21
193.27150911898227
  0
LINE
  8
_1-2_
  6
CONTINUOUS
 62
    3
 10
208.02223824165964
 20
215.71952201224664
 11
207.55159532701649
 21
210.34008129222974
  0
LINE
  8
_1-2_
  6
CONTINUOUS
 62
    3
 10
187.91401631123313
 20
221.092529296875
 11
187.60025024414062
 21
217.50621073954815
  0
LINE
  8
_1-2_
  6
CONTINUOUS
 62
    3
 10
203.49290177628802
 20
228.62266746727198
 11
203.49290177628802
 21
217.6226806640625
  0
LINE
  8
_1-2_
  6
CONTINUOUS
 62
    3
 10
160.49290837468328
 20
222.62267241606841
 11
160.49290837468328
 21
228.62266746727198
  0
LINE
  8
_1-2_
  6
CONTINUOUS
 62
    3
 10
160.49290837468328
 20
222.62267241606841
 11
160.49290837468328
 21
217.6226806640625
  0
LINE
  8
ADD_LINE
  6
DOT
 62
    4
 10
181.99290507548565
 20
222.60087296769427
 11
181.99290507548565
 21
246.57670304581927
  0
LINE
  8
_1-2_
  6
CONTINUOUS
 62
    7
 10
188.66909130199537
 20
226.02219865128802
 11
207.06618025496201
 21
257.88683092271958
  0
LINE
  8
_1-2_
  6
CONTINUOUS
 62
    7
 10
207.06618025496201
 20
257.88683092271958
 11
211.2744140625
 21
257.88683092271958
  0
LINE
  8
_1-2_
  6
CONTINUOUS
 62
    3
 10
190.67692937077703
 20
202.46433154956716
 11
190.40621783282307
 21
199.37015842747044
  0
LINE
  8
_1-2_
  6
CONTINUOUS
 62
    3
 10
190.71998389991555
 20
202.95646461280617
 11
190.68234830289273
 21
202.52624099319047
  0
LINE
  8
_1-2_
  6
CONTINUOUS
 62
    3
 10
190.68234830289273
 20
202.52624099319047
 11
190.67692937077703
 21
202.46433154956716
  0
LINE
  8
_1-2_
  6
CONTINUOUS
 62
    7
 10
162.0271466229413
 20
229.09060091585727
 11
174.62941762563347
 21
209.21987172719597
  0
LINE
  8
_1-2_
  6
CONTINUOUS
 62
    7
 10
162.0271466229413
 20
229.09060091585727
 11
174.95261114996833
 21
203.03318332981419
  0
LINE
  8
_1-2_
  6
CONTINUOUS
 62
    7
 10
181.99290507548565
 20
191.22322701119089
 11
212.85169446790542
 21
244.67213398701438
  0
LINE
  8
_1-2_
  6
CONTINUOUS
 62
    3
 10
209.89560513883023
 20
203.69846240894216
 11
209.42497459617823
 21
198.31900931693414
  0
ARC
  8
_1-b_
  6
CONTINUOUS
 62
    3
 10
76.334047059755051
 20
131.25480033255914
 40
1.5999999239638045
 50
110.20680236816406
 51
200.20738220214844
  0
ARC
  8
_1-b_
  6
CONTINUOUS
 62
    3
 10
119.19436068148227
 20
150.54194269953547
 40
1.5999999239638045
 50
110.20680236816406
 51
200.20738220214844
  0
ARC
  8
_1-c_
  6
CONTINUOUS
 62
    7
 10
73.847054146431589
 20
138.01163956925677
 40
1.5999999239638045
 50
110.20722961425781
 51
200.20695495605469
  0
ARC
  8
_1-c_
  6
CONTINUOUS
 62
    7
 10
116.70736776815879
 20
157.29875719225086
 40
1.5999999239638045
 50
110.20748901367187
 51
200.20695495605469
  0
ARC
  8
_1-b_
  6
CONTINUOUS
 62
    3
 10
287.65176309121625
 20
131.25480033255914
 40
1.5999999239638045
 50
339.79261779785156
 51
69.793197631835938
  0
ARC
  8
_1-b_
  6
CONTINUOUS
 62
    3
 10
244.79144946948904
 20
150.54194269953547
 40
1.5999999239638045
 50
339.79261779785156
 51
69.793197631835938
  0
ARC
  8
_1-c_
  6
CONTINUOUS
 62
    7
 10
290.13875600453969
 20
138.01163956925677
 40
1.5999999239638045
 50
339.79304504394526
 51
69.792770385742131
  0
ARC
  8
_1-c_
  6
CONTINUOUS
 62
    7
 10
247.2784423828125
 20
157.29875719225086
 40
1.5999999239638045
 50
339.79304504394526
 51
69.792510986328125
  0
ARC
  8
_1-6_
  6
CONTINUOUS
 62
    3
 10
171.36244490339951
 20
138.59951947186445
 40
41.611992088524076
 50
76.664901733398438
 51
135.69422912597656
  0
ARC
  8
_1-6_
  6
CONTINUOUS
 62
    3
 10
175.75577607025971
 20
130.63558217641472
 40
60.167986895586999
 50
86.259262084960938
 51
126.09986877441405
  0
ARC
  8
_1-6_
  6
CONTINUOUS
 62
    3
 10
171.58830797350086
 20
144.99921644056167
 40
41.611992088524076
 50
76.664901733398438
 51
135.69422912597656
  0
ARC
  8
_1-6_
  6
CONTINUOUS
 62
    3
 10
188.45589715081294
 20
124.23588520771749
 40
60.167986895586999
 50
53.900100708007813
 51
93.740707397460938
  0
ARC
  8
_1-6_
  6
CONTINUOUS
 62
    3
 10
192.6233652475718
 20
138.59951947186445
 40
41.611992088524076
 50
44.305740356445327
 51
103.33506774902347
  0
ARC
  8
_1-6_
  6
CONTINUOUS
 62
    3
 10
188.23003408071159
 20
130.63558217641472
 40
60.167986895586999
 50
53.900100708007813
 51
93.740707397460938
  0
ARC
  8
_1-6_
  6
CONTINUOUS
 62
    3
 10
192.39750217747044
 20
144.99921644056167
 40
41.611992088524076
 50
44.305740356445327
 51
103.33506774902347
  0
ARC
  8
_1-2_
  6
CONTINUOUS
 62
    3
 10
179.2766096785262
 20
170.12247446421031
 40
41.612016832506335
 50
95
 51
124.5146484375
  0
ARC
  8
_1-2_
  6
CONTINUOUS
 62
    3
 10
180.58011029217695
 20
155.22338042388091
 40
60.168024011560391
 50
95
 51
114.92028808593749
  0
ARC
  8
_1-2_
  6
CONTINUOUS
 62
    3
 10
178.13891849002323
 20
164.03148341823268
 40
41.612016832506335
 50
95
 51
124.5146484375
  0
ARC
  8
_1-2_
  6
CONTINUOUS
 62
    3
 10
179.44241910367398
 20
149.13238937790331
 40
60.168024011560391
 50
95
 51
114.92028808593749
  0
ARC
  8
_1-2_
  6
CONTINUOUS
 62
    3
 10
177.20631779851141
 20
157.91647833746833
 40
41.612016832506335
 50
95
 51
124.5146484375
  0
ARC
  8
_1-2_
  6
CONTINUOUS
 62
    3
 10
178.50981841216216
 20
143.01738429713893
 40
60.168024011560391
 50
95
 51
114.92028808593749
  0
ARC
  8
_1-2_
  6
CONTINUOUS
 62
    3
 10
177.52410476272172
 20
136.9187473606419
 40
60.168024011560391
 50
95
 51
114.92028808593749
  0
ARC
  8
_1-2_
  6
CONTINUOUS
 62
    3
 10
176.22060414907097
 20
151.8178414009713
 40
41.612016832506335
 50
97.61248779296875
 51
124.51463317871092
  0
ARC
  8
_1-2_
  6
CONTINUOUS
 62
    3
 10
176.22060414907097
 20
151.8178414009713
 40
41.612016832506335
 50
95.711288452148438
 51
97.612503051757813
  0
ARC
  8
_1-2_
  6
CONTINUOUS
 62
    3
 10
176.22060414907097
 20
151.8178414009713
 40
41.612016832506335
 50
95
 51
95.593093872070312
  0
ARC
  8
_1-2_
  6
CONTINUOUS
 62
    3
 10
176.22060414907097
 20
151.8178414009713
 40
41.612016832506335
 50
95.593093872070327
 51
95.711288452148452
  0
ARC
  8
_1-2_
  6
CONTINUOUS
 62
    3
 10
180.01228538719386
 20
176.05255539352831
 40
41.612016832506335
 50
95
 51
124.5146484375
  0
ARC
  8
_1-2_
  6
CONTINUOUS
 62
    3
 10
181.31578600084461
 20
161.15346135319891
 40
60.168024011560391
 50
95
 51
114.92028808593749
  0
ARC
  8
_1-2_
  6
CONTINUOUS
 62
    3
 10
184.7092004724451
 20
170.12247446421031
 40
41.612016832506335
 50
55.485351562500036
 51
85.000000000000028
  0
ARC
  8
_1-2_
  6
CONTINUOUS
 62
    3
 10
183.40569985879435
 20
155.22338042388091
 40
60.168024011560391
 50
65.079711914062472
 51
84.999999999999972
  0
ARC
  8
_1-2_
  6
CONTINUOUS
 62
    3
 10
186.7794923524599
 20
157.91647833746833
 40
41.612016832506335
 50
55.485351562500036
 51
85.000000000000028
  0
ARC
  8
_1-2_
  6
CONTINUOUS
 62
    3
 10
186.46170538824958
 20
136.9187473606419
 40
60.168024011560391
 50
65.079711914062472
 51
84.999999999999972
  0
ARC
  8
_1-2_
  6
CONTINUOUS
 62
    3
 10
187.76520600190034
 20
151.8178414009713
 40
41.612016832506335
 50
55.485351562500036
 51
82.38749694824223
  0
ARC
  8
_1-2_
  6
CONTINUOUS
 62
    3
 10
187.76520600190034
 20
151.8178414009713
 40
41.612016832506335
 50
82.387496948242145
 51
84.28871154785152
  0
ARC
  8
_1-2_
  6
CONTINUOUS
 62
    3
 10
187.76520600190034
 20
151.8178414009713
 40
41.612016832506335
 50
84.406906127929702
 51
85.000000000000014
  0
ARC
  8
_1-2_
  6
CONTINUOUS
 62
    3
 10
187.76520600190034
 20
151.8178414009713
 40
41.612016832506335
 50
84.28871154785152
 51
84.406906127929645
  0
ARC
  8
_1-2_
  6
CONTINUOUS
 62
    3
 10
183.97352476377745
 20
176.05255539352831
 40
41.612016832506335
 50
55.485351562500036
 51
85.000000000000028
  0
ARC
  8
_1-2_
  6
CONTINUOUS
 62
    3
 10
182.67002415012669
 20
161.15346135319891
 40
60.168024011560391
 50
65.079711914062472
 51
84.999999999999972
  0
ARC
  8
_1-2_
  6
CONTINUOUS
 62
    3
 10
181.99290507548565
 20
173.8978741620038
 40
48.724841556033574
 50
63.816116333007827
 51
116.1838836669922
  0
ARC
  8
_1-2_
  6
CONTINUOUS
 62
    3
 10
181.99290507548565
 20
187.10183220940669
 40
41.520850722854206
 50
58.814392089843743
 51
121.18560791015624
  0
ARC
  8
_1-2_
  6
CONTINUOUS
 62
    3
 10
181.99290507548565
 20
172.84145458324537
 40
59.781219894821582
 50
68.921615600585909
 51
111.07835388183591
  0
ARC
  8
_1-2_
  6
CONTINUOUS
 62
    3
 10
185.84689166094807
 20
164.03148341823268
 40
41.612016832506335
 50
55.485351562500036
 51
75.227996826171918
  0
ARC
  8
_1-2_
  6
CONTINUOUS
 62
    3
 10
185.84689166094807
 20
164.03148341823268
 40
41.612016832506335
 50
75.227996826171875
 51
85
  0
ARC
  8
_1-2_
  6
CONTINUOUS
 62
    3
 10
185.47599173880914
 20
143.01738429713893
 40
60.168024011560391
 50
65.079711914062472
 51
82.705245971679659
  0
ARC
  8
_1-2_
  6
CONTINUOUS
 62
    3
 10
185.47599173880914
 20
143.01738429713893
 40
60.168024011560391
 50
82.705245971679688
 51
83.565948486328139
  0
ARC
  8
_1-2_
  6
CONTINUOUS
 62
    3
 10
185.47599173880914
 20
143.01738429713893
 40
60.168024011560391
 50
83.565948486328125
 51
84.999999999999986
  0
ARC
  8
_1-2_
  6
CONTINUOUS
 62
    3
 10
181.99294219145904
 20
172.19666352143159
 40
49.277238588075384
 50
90.581420898437514
 51
97.718475341796889
  0
ARC
  8
_1-2_
  6
CONTINUOUS
 62
    3
 10
181.99294219145904
 20
172.19666352143159
 40
49.277238588075384
 50
82.281280517578139
 51
89.418670654296889
  0
ARC
  8
_1-2_
  6
CONTINUOUS
 62
    3
 10
181.80947793496622
 20
722.31682854729729
 40
523.25742979307438
 50
268.88902282714844
 51
269.94342041015625
  0
ARC
  8
_1-2_
  6
CONTINUOUS
 62
    3
 10
181.80947793496622
 20
722.31682854729729
 40
523.25742979307438
 50
270.09672546386719
 51
271.14599609375
  0
ARC
  8
_1-2_
  6
CONTINUOUS
 62
    3
 10
182.05350308804898
 20
158.78782530088682
 40
39.583341237661003
 50
91.10101318359375
 51
106.7450714111328
  0
ARC
  8
_1-2_
  6
CONTINUOUS
 62
    3
 10
182.05350308804898
 20
158.78782530088682
 40
39.583341237661003
 50
73.139495849609375
 51
89.074462890625
  0
ARC
  8
_1-2_
  6
CONTINUOUS
 62
    3
 10
182.21325023754224
 20
284.0533447265625
 40
91.552858094911329
 50
263.19461059570312
 51
269.42401123046875
  0
ARC
  8
_1-2_
  6
CONTINUOUS
 62
    3
 10
182.21325023754224
 20
284.0533447265625
 40
91.552858094911329
 50
270.30015563964844
 51
276.66529846191406
  0
ARC
  8
_1-2_
  6
CONTINUOUS
 62
    3
 10
184.54339104729732
 20
149.13238937790331
 40
60.168024011560391
 50
65.079711914062472
 51
84.999999999999972
  0
TEXT
  8
_0-0_
 62
    7
 10
141.89189395389042
 20
14.594594594594582
 40
2.5
 41
1
 50
0
  1
縮尺
  0
TEXT
  8
_0-0_
 62
    7
 10
377.10214563318203
 20
22.865493362014362
 40
2.5
 41
1
 50
0
  1
ＮＯ
  0
TEXT
  8
_0-0_
 62
    7
 10
14.594594336844779
 20
24.324324324324323
 40
2.5
 41
1
 50
0
  1
和形
  0
TEXT
  8
_0-0_
 62
    7
 10
25.556194717819636
 20
20.211577544341225
 40
2.5
 41
1
 50
0
  1
木造
  0
TEXT
  8
_0-0_
 62
    7
 10
383.23801896378802
 20
18.523427086907475
 40
3
 41
1
 50
0
  1
Ｊ
  0
TEXT
  8
_1-0_
 62
    7
 10
169.90681828679266
 20
13.3181144095756
 40
2.5
 41
1
 50
0
  1
1/5
  0
TEXT
  8
_1-5_
 62
    7
 10
77.173497999036641
 20
174.37339164115289
 40
2.5
 41
1
 50
0
  1
桟瓦
  0
TEXT
  8
_1-5_
 62
    7
 10
269.76520435230151
 20
182.18276565139359
 40
2.5
 41
1
 50
0
  1
瓦桟　
  0
TEXT
  8
_1-5_
 62
    7
 10
269.76676322318411
 20
161.18277060019005
 40
2.5
 41
1
 50
0
  1
野地板
  0
TEXT
  8
_1-5_
 62
    7
 10
283.77126332875844
 20
161.18277060019005
 40
2.5
 41
1
 50
0
  1
ｔ＝12
  0
TEXT
  8
_1-5_
 62
    7
 10
269.09446510108739
 20
188.60953253668708
 40
2.5
 41
1
 50
0
  1
桟瓦
  0
TEXT
  8
_1-3_
 62
    7
 10
39.721903414339636
 20
15.395235628695104
 40
2.5
 41
1
 50
0
  1
棟　　2
  0
TEXT
  8
_1-a_
 62
    7
 10
188.43346603782669
 20
126.84223103136762
 40
2.5
 41
1
 50
-24.227719460851677
  1
250
  0
TEXT
  8
_1-a_
 62
    7
 10
172.59167576122195
 20
124.06591848167082
 40
2.5
 41
1
 50
24.227719460851677
  1
250
  0
TEXT
  8
_1-3_
 62
    7
 10
393.618910505965
 20
15.474277187038126
 40
2.5
 41
1
 50
0
  1
15
  0
TEXT
  8
_1-3_
 62
    7
 10
224.23380258921031
 20
215.80397322371201
 40
2.5
 41
1
 50
0
  1
のし瓦
  0
TEXT
  8
_1-2_
 62
    7
 10
233.86448628193625
 20
196.73450366870779
 40
2.5
 41
1
 50
0
  1
台のし瓦
  0
TEXT
  8
_1-2_
 62
    7
 10
284.1854528478674
 20
178.89463682432432
 40
2.5
 41
1
 50
0
  1
※　地域により瓦桟木の大きさは、異なります
  0
TEXT
  8
_1-2_
 62
    7
 10
212.69711881070526
 20
257.00572245829818
 40
2.5
 41
1
 50
0
  1
紐伏間
  0
POINT
  8
_1-a_
 62
    7
 10
167.14009465398016
 20
135.8759493441195
  0
POINT
  8
_1-a_
 62
    7
 10
212.73616481471709
 20
115.35771962758658
  0
POINT
  8
_1-a_
 62
    7
 10
151.7914766878695
 20
114.15753751187712
  0
POINT
  8
_1-a_
 62
    7
 10
197.22194774730787
 20
134.60123835383234
  0
LINE
  8
ADD_LINE
  6
DOT
 62
    4
 10
181.99290507548565
 20
164.71514727618245
 11
181.99290507548565
 21
228.08716336032393
  0
LINE
  8
_1-2_
  6
CONTINUOUS
 62
    7
 10
171.29980551229943
 20
249.02836155247044
 11
182.08258963919977
 21
229.21979440445403
  0
LINE
  8
_1-2_
  6
DASHED1
 62
    7
 10
180.99288940429687
 20
228.619678602617
 11
180.99288940429687
 21
229.06781686539153
  0
LINE
  8
_1-2_
  6
DASHED1
 62
    7
 10
180.99288940429687
 20
229.06781686539153
 11
182.99289600269216
 21
229.06781686539153
  0
ARC
  8
_1-2_
  6
DASHED1
 62
    7
 10
181.99289270349453
 20
228.41452624567023
 40
1.1944762113932017
 50
33.155624389648445
 51
146.84437561035156
  0
LINE
  8
_1-2_
  6
DASHED1
 62
    7
 10
181.86605505041175
 20
229.60082698732987
 11
182.13254773938979
 21
229.60082698732987
  0
LINE
  8
_1-2_
  6
DASHED1
 62
    7
 10
182.99289600269216
 20
228.619678602617
 11
182.99289600269216
 21
229.06781686539153
  0
TEXT
  8
_1-2_
 62
    7
 10
138.54496526864546
 20
247.42850518132565
 40
2.5
 41
1
 50
0
  1
パッキン付ステンレスネジ
  0
TEXT
  8
_1-3_
 62
    7
 10
124.60023643345394
 20
227.69135052228538
 40
2.5
 41
1
 50
0
  1
のし瓦全数相互銅線緊結
  0
LINE
  8
_1-2_
  6
CONTINUOUS
 62
    7
 10
159.45424260319891
 20
229.09060091585727
 11
154.63503700155869
 21
229.09060091585727
  0
LINE
  8
_1-2_
  6
CONTINUOUS
 62
    7
 10
156.60994296545084
 20
171.71267032992989
 11
142.76286537290449
 21
195.69649472048823
  0
LINE
  8
_1-2_
  6
CONTINUOUS
 62
    7
 10
142.76286537290449
 20
195.69649472048823
 11
139.32150943566842
 21
195.69649472048823
  0
TEXT
  8
_1-2_
 62
    7
 10
130.95528571997383
 20
194.43150830979781
 40
2.5
 41
1
 50
0
  1
葺き土
  0
TEXT
  8
_1-2_
 62
    7
 10
219.25642683699326
 20
243.09695682010135
 40
2.5
 41
1
 50
0
  1
棟補強金具
  0
TEXT
  8
_1-3_
 62
    7
 10
283.77126745275552
 20
182.07871720597552
 40
2.5
 41
1
 50
0
  1
15×21以上　（樹脂桟木）
  0
TEXT
  8
_1-5_
 62
    7
 10
269.76676322318411
 20
175.1827673009924
 40
2.5
 41
1
 50
0
  1
縦桟
  0
TEXT
  8
_1-5_
 62
    7
 10
269.76676734718114
 20
168.18276895059122
 40
2.5
 41
1
 50
0
  1
ルーフィング
  0
TEXT
  8
_1-3_
 62
    7
 10
269.76675909918708
 20
155.51012606234164
 40
2.5
 41
1
 50
0
  1
たる木
  0
LINE
  8
_1-2_
  6
CONTINUOUS
 62
    7
 10
266.45621634818411
 20
183.20517100728449
 11
256.65087081575416
 21
183.20517100728449
  0
LINE
  8
_1-2_
  6
CONTINUOUS
 62
    7
 10
266.45621634818411
 20
176.23643998663135
 11
252.62746768011638
 21
176.23643998663135
  0
LINE
  8
_1-2_
  6
CONTINUOUS
 62
    7
 10
266.45621634818411
 20
169.07413310429342
 11
248.49230334626643
 21
169.07413310429342
  0
LINE
  8
_1-2_
  6
CONTINUOUS
 62
    7
 10
266.45621634818411
 20
162.16992737086858
 11
244.50615394336603
 21
162.16992737086858
  0
LINE
  8
_1-2_
  6
CONTINUOUS
 62
    7
 10
266.45621634818411
 20
156.29812623309604
 11
241.1160642642638
 21
156.29812623309604
  0
TEXT
  8
_1-3_
 62
    7
 10
119.50269132047087
 20
77.52737509237754
 40
2.5
 41
1
 50
0
  1
棟部分のルーフィングは、両方向へそれぞれ250ｍｍ以上重ね合わせること。
  0
TEXT
  8
_1-3_
 62
    7
 10
119.59048296954181
 20
73.416051091374584
 40
2.5
 41
1
 50
0
  1
隅棟部分のルーフィングは、重ね貼りの上に両方向へそれぞれ250ｍｍ以上増し貼りをすること。
  0
LINE
  8
ADD_LINE
  6
DOT
 62
    4
 10
179.2550329259924
 20
205.6161139662749
 11
186.03466137035474
 21
205.6161139662749
  0
LINE
  8
_1-2_
  6
CONTINUOUS
 62
    7
 10
178.99289517789273
 20
203.44235512442526
 11
178.99289517789273
 21
209.4423501756288
  0
LINE
  8
_1-2_
  6
CONTINUOUS
 62
    7
 10
178.99289517789273
 20
209.4423501756288
 11
184.9928902290963
 21
209.4423501756288
  0
LINE
  8
_1-2_
  6
CONTINUOUS
 62
    7
 10
184.9928902290963
 20
209.4423501756288
 11
184.9928902290963
 21
203.44235512442526
  0
LINE
  8
_1-2_
  6
CONTINUOUS
 62
    7
 10
184.9928902290963
 20
203.44235512442526
 11
178.99289517789273
 21
203.44235512442526
  0
LINE
  8
_1-2_
  6
CONTINUOUS
 62
    7
 10
178.39289072397594
 20
203.03479699256292
 11
185.5928946830131
 21
203.03479699256292
  0
LINE
  8
_1-2_
  6
CONTINUOUS
 62
    7
 10
178.39289072397594
 20
203.03479699256292
 11
178.39289072397594
 21
208.02654899847505
  0
LINE
  8
_1-2_
  6
CONTINUOUS
 62
    7
 10
185.5928946830131
 20
208.02654899847505
 11
185.5928946830131
 21
203.03479699256292
  0
LINE
  8
_1-2_
  6
CONTINUOUS
 62
    7
 10
184.9928902290963
 20
208.02654899847505
 11
185.5928946830131
 21
208.02654899847505
  0
LINE
  8
_1-2_
  6
CONTINUOUS
 62
    7
 10
178.99289517789273
 20
209.4423501756288
 11
184.9928902290963
 21
203.44235512442526
  0
LINE
  8
_1-2_
  6
CONTINUOUS
 62
    7
 10
184.9928902290963
 20
209.4423501756288
 11
178.99289517789273
 21
203.44235512442526
  0
LINE
  8
_1-2_
  6
CONTINUOUS
 62
    7
 10
181.29289781725086
 20
203.03479699256292
 11
181.29289781725086
 21
177.04925537109375
  0
LINE
  8
_1-2_
  6
CONTINUOUS
 62
    7
 10
182.69288758973818
 20
203.03479699256292
 11
182.69288758973818
 21
177.04925537109375
  0
LINE
  8
_1-2_
  6
DASHED1
 62
    7
 10
178.39289072397594
 20
206.0423538047462
 11
185.5928946830131
 21
206.0423538047462
  0
LINE
  8
_1-2_
  6
DASHED1
 62
    7
 10
178.39289072397594
 20
206.84235149530787
 11
185.5928946830131
 21
206.84235149530787
  0
LINE
  8
_1-2_
  6
DASHED1
 62
    7
 10
181.48455233187289
 20
206.9506806496575
 11
181.99289270349453
 21
205.5423521551474
  0
LINE
  8
_1-2_
  6
DASHED1
 62
    7
 10
181.99289270349453
 20
205.5423521551474
 11
182.49289435309333
 21
206.94234192763469
  0
LINE
  8
_1-2_
  6
DASHED1
 62
    7
 10
181.4928910538957
 20
206.9506806496575
 11
182.50123307511615
 21
206.9506806496575
  0
LINE
  8
_1-2_
  6
CONTINUOUS
 62
    7
 10
178.39289072397594
 20
208.02654899847505
 11
179.01152739653716
 21
208.02654899847505
  0
LINE
  8
_1-2_
  6
DASHED1
 62
    7
 10
182.49289435309333
 20
228.65253861106299
 11
182.49289435309333
 21
206.94234192763469
  0
LINE
  8
_1-2_
  6
DASHED1
 62
    7
 10
181.4928910538957
 20
228.65253861106299
 11
181.4928910538957
 21
206.9506806496575
  0
ARC
  8
_1-2_
  6
CONTINUOUS
 62
    3
 10
181.58790794578761
 20
142.28271071975297
 40
61.255243662241348
 50
92.989851940069684
 51
98.06640625
  0
ARC
  8
_1-2_
  6
CONTINUOUS
 62
    3
 10
181.58790794578761
 20
142.28271071975297
 40
61.255243662241348
 50
81.434661865234375
 51
86.251216590628346
  0
ARC
  8
_1-2_
  6
CONTINUOUS
 62
    3
 10
182.73350289584371
 20
-184.37404616567551
 40
401.76056308098163
 50
89.077024640285288
 51
91.168851589589025
  0
ARC
  8
_1-2_
  6
CONTINUOUS
 62
    3
 10
182.05502741342963
 20
178.77418478921066
 40
37.172402295481561
 50
76.828708210167775
 51
102.97145159300494
  0
ARC
  8
_1-2_
  6
CONTINUOUS
 62
    3
 10
182.69147718274917
 20
305.04621351087417
 40
94.113761283255911
 50
264.52784729003906
 51
274.95272886621507
  0
ARC
  8
_1-2_
  6
CONTINUOUS
 62
    3
 10
182.04554558695602
 20
154.60588958965388
 40
55.107254317742267
 50
80.13652228730389
 51
99.647575236428878
  0
ARC
  8
_1-2_
  6
CONTINUOUS
 62
    3
 10
184.90943936459837
 20
500.34387301445798
 40
295.18764999365908
 50
267.77550263972404
 51
268.73503831324047
  0
ARC
  8
_1-2_
  6
CONTINUOUS
 62
    3
 10
184.90943936459837
 20
500.34387301445798
 40
295.18764999365908
 50
270.1326584639254
 51
271.31280664578549
  0
LINE
  8
_1-2_
  6
CONTINUOUS
 62
    7
 10
199.9928902290963
 20
161.6594510465055
 11
199.9928902290963
 21
161.00151684838823
  0
LINE
  8
_1-0_
  6
CONTINUOUS
 62
    7
 10
33.243243243243228
 20
102.82209654112121
 11
181.18488095764999
 21
169.39583785559654
  0
LINE
  8
_1-0_
  6
CONTINUOUS
 62
    7
 10
181.18488095764999
 20
169.39583785559654
 11
181.99290507548565
 21
169.75944312843117
  0
LINE
  8
_1-0_
  6
CONTINUOUS
 62
    7
 10
179.09016212360382
 20
167.79528509745631
 11
180.99524008261193
 21
168.65257056983742
  0
LINE
  8
_1-0_
  6
CONTINUOUS
 62
    7
 10
33.243243243243228
 20
101.06755024677999
 11
182.00683094889263
 21
168.01117527318894
  0
LINE
  8
_1-0_
  6
CONTINUOUS
 62
    7
 10
181.84332770270271
 20
167.93760557432432
 11
182.00683094889263
 21
168.01117527318894
  0
LINE
  8
_1-0_
  6
CONTINUOUS
 62
    7
 10
163.99289517789273
 20
161.00154833011473
 11
181.99290507548565
 21
169.10151301203547
  0
LINE
  8
_1-2_
  6
CONTINUOUS
 62
    7
 10
163.99289517789273
 20
161.65943867451438
 11
163.99289517789273
 21
161.00154833011473
  0
LINE
  8
_1-7_
  6
CONTINUOUS
 62
    3
 10
172.26923366089895
 20
221.64261626919006
 11
172.06182802802871
 21
220.60558810483889
  0
LINE
  8
_1-7_
  6
CONTINUOUS
 62
    3
 10
170.92728485225524
 20
216.6607160284174
 11
170.50346355196947
 21
214.54160952698862
  0
LINE
  8
_1-7_
  6
CONTINUOUS
 62
    3
 10
168.33992968928641
 20
210.27155883336815
 11
167.92310157611951
 21
208.18741826753373
  0
LINE
  8
_1-7_
  6
CONTINUOUS
 62
    3
 10
165.37631245011437
 20
203.63799591225154
 11
164.97749138315464
 21
201.64389057745296
  0
LINE
  8
_1-7_
  6
CONTINUOUS
 62
    3
 10
162.52805459624375
 20
196.85371673766494
 11
162.17660154803016
 21
195.09645149659713
  0
LINE
  8
_1-7_
  6
CONTINUOUS
 62
    3
 10
160.36022694974869
 20
190.28871843755584
 11
160.04576461935227
 21
188.71640678557367
  0
ARC
  8
_1-6_
  6
CONTINUOUS
 62
    3
 10
175.52991300015836
 20
124.23588520771749
 40
60.167986895586999
 50
106.66563810764029
 51
126.09986877441405
  0
ARC
  8
_1-6_
  6
CONTINUOUS
 62
    3
 10
175.52991300015836
 20
124.23588520771749
 40
60.167986895586999
 50
86.259262084960938
 51
106.50867056779222
  0
ARC
  8
_1-6_
  6
CONTINUOUS
 62
    3
 10
175.52991300015836
 20
124.23588520771749
 40
60.167986895586999
 50
106.50867056779222
 51
106.66563810764029
  0
LINE
  8
_1-7_
  6
CONTINUOUS
 62
    3
 10
157.62217195700731
 20
184.19749357545871
 11
157.11978866921316
 21
181.51811604055666
  0
ARC
  8
_1-7_
  6
CONTINUOUS
 62
    1
 10
133.40961229635496
 20
169.2475534668248
 40
19.57833918658056
 50
345.86756611372095
 51
18.394853860555795
  0
ARC
  8
_1-7_
  6
CONTINUOUS
 62
    1
 10
133.40961229635496
 20
169.2475534668248
 40
19.57833918658056
 50
345.86756611372095
 51
18.394853860555795
  0
SOLID
  8
_1-7_
  6
CONTINUOUS
 62
    8
 10
153.78996554997593
 20
170.00598377075281
 11
152.39539258364314
 21
164.46722793527201
 12
172.84008129222974
 22
171.99232771589951
 13
172.84008129222974
 23
171.99232771589951
  0
SOLID
  8
_1-7_
  6
CONTINUOUS
 62
    8
 10
153.78996554997593
 20
170.00598377075281
 11
172.84008129222974
 21
171.99232771589951
 12
172.42555772936024
 22
173.11846346468539
 13
172.42555772936024
 23
173.11846346468539
  0
SOLID
  8
_1-7_
  6
CONTINUOUS
 62
    8
 10
153.78996554997593
 20
170.00598377075281
 11
172.42555772936024
 21
173.11846346468539
 12
173.88061039558582
 22
173.65402249812939
 13
173.88061039558582
 23
173.65402249812939
  0
SOLID
  8
_1-7_
  6
CONTINUOUS
 62
    8
 10
174.31039346230997
 20
167.41867477829393
 11
174.67279382654141
 21
166.46538811760982
 12
176.99288857949747
 22
167.50943570523648
 13
176.99288857949747
 23
167.50943570523648
  0
SOLID
  8
_1-7_
  6
CONTINUOUS
 62
    8
 10
181.29289781725086
 20
177.04925537109375
 11
180.96006511941869
 21
179.08956234371692
 12
178.88042291267729
 22
179.48245973134993
 13
178.88042291267729
 23
179.48245973134993
  0
SOLID
  8
_1-7_
  6
CONTINUOUS
 62
    8
 10
181.29289781725086
 20
177.04925537109375
 11
178.88042291267729
 21
179.48245973134993
 12
176.61774693175465
 22
179.83600285336908
 13
176.61774693175465
 23
179.83600285336908
  0
SOLID
  8
_1-7_
  6
CONTINUOUS
 62
    8
 10
181.29289781725086
 20
177.04925537109375
 11
176.61774693175465
 21
179.83600285336908
 12
174.1782993898224
 22
180.0834830387825
 13
174.1782993898224
 23
180.0834830387825
  0
SOLID
  8
_1-7_
  6
CONTINUOUS
 62
    8
 10
181.29289781725086
 20
177.04925537109375
 11
174.1782993898224
 21
180.0834830387825
 12
171.56208028688059
 22
180.15419166318634
 13
171.56208028688059
 23
180.15419166318634
  0
SOLID
  8
_1-7_
  6
CONTINUOUS
 62
    8
 10
181.29289781725086
 20
177.04925537109375
 11
171.56208028688059
 21
180.15419166318634
 12
168.98121549614066
 22
180.15419166318634
 13
168.98121549614066
 23
180.15419166318634
  0
SOLID
  8
_1-7_
  6
CONTINUOUS
 62
    8
 10
181.29289781725086
 20
177.04925537109375
 11
168.98121549614066
 21
180.15419166318634
 12
166.50641364200652
 22
179.90671147777292
 13
166.50641364200652
 23
179.90671147777292
  0
SOLID
  8
_1-7_
  6
CONTINUOUS
 62
    8
 10
181.29289781725086
 20
177.04925537109375
 11
166.50641364200652
 21
179.90671147777292
 12
164.42050922209344
 22
179.62387698015758
 13
164.42050922209344
 23
179.62387698015758
  0
SOLID
  8
_1-7_
  6
CONTINUOUS
 62
    8
 10
181.29289781725086
 20
177.04925537109375
 11
164.42050922209344
 21
179.62387698015758
 12
162.47602205098804
 22
179.19962523373459
 13
162.47602205098804
 23
179.19962523373459
  0
SOLID
  8
_1-7_
  6
CONTINUOUS
 62
    8
 10
181.29289781725086
 20
177.04925537109375
 11
162.47602205098804
 21
179.19962523373459
 12
160.60224350428643
 22
178.77537348731158
 13
160.60224350428643
 23
178.77537348731158
  0
SOLID
  8
_1-7_
  6
CONTINUOUS
 62
    8
 10
181.29289781725086
 20
177.04925537109375
 11
160.60224350428643
 21
178.77537348731158
 12
159.43555120162321
 22
178.42183036529241
 13
159.43555120162321
 23
178.42183036529241
  0
SOLID
  8
_1-7_
  6
CONTINUOUS
 62
    8
 10
181.29289781725086
 20
177.04925537109375
 11
159.43555120162321
 21
178.42183036529241
 12
157.4910640305178
 22
177.82080705785984
 13
157.4910640305178
 23
177.82080705785984
  0
SOLID
  8
_1-7_
  6
CONTINUOUS
 62
    8
 10
181.29289781725086
 20
177.04925537109375
 11
157.4910640305178
 21
177.82080705785984
 12
155.82941135702771
 22
177.21978375042727
 13
155.82941135702771
 23
177.21978375042727
  0
SOLID
  8
_1-7_
  6
CONTINUOUS
 62
    8
 10
155.82941135702771
 20
177.21978375042727
 11
154.30917593234531
 21
176.51269750638892
 12
151.98758368251629
 22
175.42576878192733
 13
151.98758368251629
 23
175.42576878192733
  0
SOLID
  8
_1-7_
  6
CONTINUOUS
 62
    8
 10
155.82941135702771
 20
177.21978375042727
 11
151.98758368251629
 21
175.42576878192733
 12
153.78996554997593
 22
170.00598377075281
 13
153.78996554997593
 23
170.00598377075281
  0
SOLID
  8
_1-7_
  6
CONTINUOUS
 62
    8
 10
155.82941135702771
 20
177.21978375042727
 11
153.78996554997593
 21
170.00598377075281
 12
173.88061039558582
 22
173.65402249812939
 13
173.88061039558582
 23
173.65402249812939
  0
SOLID
  8
_1-7_
  6
CONTINUOUS
 62
    8
 10
175.99961564347552
 20
168.04044156461148
 11
174.31039346230997
 21
167.41867477829393
 12
176.99288857949747
 22
167.50943570523648
 13
176.99288857949747
 23
167.50943570523648
  0
SOLID
  8
_1-7_
  6
CONTINUOUS
 62
    8
 10
175.99961564347552
 20
168.04044156461148
 11
176.99288857949747
 21
167.50943570523648
 12
176.99288857949747
 22
177.04925537109375
 13
176.99288857949747
 23
177.04925537109375
  0
SOLID
  8
_1-7_
  6
CONTINUOUS
 62
    8
 10
176.99288857949747
 20
177.04925537109375
 11
181.29289781725086
 21
177.04925537109375
 12
155.82941135702771
 22
177.21978375042727
 13
155.82941135702771
 23
177.21978375042727
  0
SOLID
  8
_1-7_
  6
CONTINUOUS
 62
    8
 10
176.99288857949747
 20
177.04925537109375
 11
155.82941135702771
 21
177.21978375042727
 12
173.88061039558582
 22
173.65402249812939
 13
173.88061039558582
 23
173.65402249812939
  0
SOLID
  8
_1-7_
  6
CONTINUOUS
 62
    8
 10
176.99288857949747
 20
177.04925537109375
 11
173.88061039558582
 21
173.65402249812939
 12
175.99961564347552
 22
168.04044156461148
 13
175.99961564347552
 23
168.04044156461148
  0
SOLID
  8
_1-7_
  6
CONTINUOUS
 62
    8
 10
157.62217195700731
 20
184.19749357545871
 11
157.11978866921316
 21
181.51811604055666
 12
159.36846428687957
 22
182.19921018851323
 13
159.36846428687957
 23
182.19921018851323
  0
SOLID
  8
_1-7_
  6
CONTINUOUS
 62
    8
 10
157.62217195700731
 20
184.19749357545871
 11
159.36846428687957
 21
182.19921018851323
 12
161.19071285022184
 22
182.67457937895034
 13
161.19071285022184
 23
182.67457937895034
  0
SOLID
  8
_1-7_
  6
CONTINUOUS
 62
    8
 10
157.62217195700731
 20
184.19749357545871
 11
161.19071285022184
 21
182.67457937895034
 12
163.28233728814513
 22
183.14994856938745
 13
163.28233728814513
 23
183.14994856938745
  0
SOLID
  8
_1-7_
  6
CONTINUOUS
 62
    8
 10
157.62217195700731
 20
184.19749357545871
 11
163.28233728814513
 21
183.14994856938745
 12
165.02535765308119
 22
183.45101572333095
 13
165.02535765308119
 23
183.45101572333095
  0
SOLID
  8
_1-7_
  6
CONTINUOUS
 62
    8
 10
157.62217195700731
 20
184.19749357545871
 11
165.02535765308119
 21
183.45101572333095
 12
166.35639138630512
 22
183.70454595823074
 13
166.35639138630512
 23
183.70454595823074
  0
SOLID
  8
_1-7_
  6
CONTINUOUS
 62
    8
 10
157.62217195700731
 20
184.19749357545871
 11
166.35639138630512
 21
183.70454595823074
 12
167.8141902369789
 22
183.94223055344929
 13
167.8141902369789
 23
183.94223055344929
  0
SOLID
  8
_1-7_
  6
CONTINUOUS
 62
    8
 10
157.62217195700731
 20
184.19749357545871
 11
167.8141902369789
 21
183.94223055344929
 12
169.3512172860589
 22
184.08484131058043
 13
169.3512172860589
 23
184.08484131058043
  0
SOLID
  8
_1-7_
  6
CONTINUOUS
 62
    8
 10
157.62217195700731
 20
184.19749357545871
 11
169.3512172860589
 21
184.08484131058043
 12
170.93578125418259
 22
184.2432977073928
 13
170.93578125418259
 23
184.2432977073928
  0
SOLID
  8
_1-7_
  6
CONTINUOUS
 62
    8
 10
157.62217195700731
 20
184.19749357545871
 11
170.93578125418259
 21
184.2432977073928
 12
172.93233185401846
 22
184.35421718516147
 13
172.93233185401846
 23
184.35421718516147
  0
SOLID
  8
_1-7_
  6
CONTINUOUS
 62
    8
 10
157.62217195700731
 20
184.19749357545871
 11
172.93233185401846
 21
184.35421718516147
 12
174.83380861576691
 22
184.38590846452394
 13
174.83380861576691
 23
184.38590846452394
  0
SOLID
  8
_1-7_
  6
CONTINUOUS
 62
    8
 10
180.96007794777597
 20
179.08955930292518
 11
181.29289781725086
 21
177.04925537109375
 12
181.29085545010531
 22
185.48815580191831
 13
181.29085545010531
 23
185.48815580191831
  0
SOLID
  8
_1-7_
  6
CONTINUOUS
 62
    8
 10
180.96007794777597
 20
179.08955930292518
 11
181.29085545010531
 21
185.48815580191831
 12
181.18594101787733
 22
185.48925627162239
 13
181.18594101787733
 23
185.48925627162239
  0
SOLID
  8
_1-7_
  6
CONTINUOUS
 62
    8
 10
180.96007794777597
 20
179.08955930292518
 11
181.18594101787733
 21
185.48925627162239
 12
180.82968915484685
 22
185.57511858902421
 13
180.82968915484685
 23
185.57511858902421
  0
SOLID
  8
_1-7_
  6
CONTINUOUS
 62
    8
 10
180.96007794777597
 20
179.08955930292518
 11
180.82968915484685
 21
185.57511858902421
 12
180.43703899488392
 22
185.66208137613009
 13
180.43703899488392
 23
185.66208137613009
  0
SOLID
  8
_1-7_
  6
CONTINUOUS
 62
    8
 10
180.96007794777597
 20
179.08955930292518
 11
180.43703899488392
 21
185.66208137613009
 12
180.10499926229781
 22
185.72532703947982
 13
180.10499926229781
 23
185.72532703947982
  0
SOLID
  8
_1-7_
  6
CONTINUOUS
 62
    8
 10
180.10499926229781
 20
185.72532703947982
 11
178.88077736259552
 21
185.96695074375197
 12
178.16652950326869
 22
186.08413203317278
 13
178.16652950326869
 23
186.08413203317278
  0
SOLID
  8
_1-7_
  6
CONTINUOUS
 62
    8
 10
180.10499926229781
 20
185.72532703947982
 11
178.16652950326869
 21
186.08413203317278
 12
177.32952029312003
 22
186.21247344539557
 13
177.32952029312003
 23
186.21247344539557
  0
SOLID
  8
_1-7_
  6
CONTINUOUS
 62
    8
 10
180.10499926229781
 20
185.72532703947982
 11
177.32952029312003
 21
186.21247344539557
 12
176.62643255659515
 22
186.31291455061341
 13
176.62643255659515
 23
186.31291455061341
  0
SOLID
  8
_1-7_
  6
CONTINUOUS
 62
    8
 10
180.10499926229781
 20
185.72532703947982
 11
176.62643255659515
 21
186.31291455061341
 12
176.05726629369408
 22
186.36313510322233
 13
176.05726629369408
 23
186.36313510322233
  0
SOLID
  8
_1-7_
  6
CONTINUOUS
 62
    8
 10
180.10499926229781
 20
185.72532703947982
 11
176.05726629369408
 21
186.36313510322233
 12
175.22583714494641
 22
186.44125596283621
 13
175.22583714494641
 23
186.44125596283621
  0
SOLID
  8
_1-7_
  6
CONTINUOUS
 62
    8
 10
180.10499926229781
 20
185.72532703947982
 11
175.22583714494641
 21
186.44125596283621
 12
174.39440799619877
 22
186.5082166996481
 13
174.39440799619877
 23
186.5082166996481
  0
SOLID
  8
_1-7_
  6
CONTINUOUS
 62
    8
 10
180.10499926229781
 20
185.72532703947982
 11
174.39440799619877
 21
186.5082166996481
 12
173.5573987860501
 22
186.569597375059
 13
173.5573987860501
 23
186.569597375059
  0
SOLID
  8
_1-7_
  6
CONTINUOUS
 62
    8
 10
180.10499926229781
 20
185.72532703947982
 11
173.5573987860501
 21
186.569597375059
 12
172.77619018991138
 22
186.59191762066297
 13
172.77619018991138
 23
186.59191762066297
  0
SOLID
  8
_1-7_
  6
CONTINUOUS
 62
    8
 10
180.10499926229781
 20
185.72532703947982
 11
172.77619018991138
 21
186.59191762066297
 12
172.11216288319343
 22
186.60307774346495
 13
172.11216288319343
 23
186.60307774346495
  0
SOLID
  8
_1-7_
  6
CONTINUOUS
 62
    8
 10
180.10499926229781
 20
185.72532703947982
 11
172.11216288319343
 21
186.60307774346495
 12
171.50393619048543
 22
186.61423786626693
 13
171.50393619048543
 23
186.61423786626693
  0
SOLID
  8
_1-7_
  6
CONTINUOUS
 62
    8
 10
180.10499926229781
 20
185.72532703947982
 11
171.50393619048543
 21
186.61423786626693
 12
170.85106900656947
 22
186.59191762066297
 13
170.85106900656947
 23
186.59191762066297
  0
SOLID
  8
_1-7_
  6
CONTINUOUS
 62
    8
 10
180.10499926229781
 20
185.72532703947982
 11
170.85106900656947
 21
186.59191762066297
 12
170.04196010342577
 22
186.57517743645997
 13
170.04196010342577
 23
186.57517743645997
  0
SOLID
  8
_1-7_
  6
CONTINUOUS
 62
    8
 10
180.10499926229781
 20
185.72532703947982
 11
170.04196010342577
 21
186.57517743645997
 12
169.13241009506424
 22
186.54727712945504
 13
169.13241009506424
 23
186.54727712945504
  0
SOLID
  8
_1-7_
  6
CONTINUOUS
 62
    8
 10
180.10499926229781
 20
185.72532703947982
 11
169.13241009506424
 21
186.54727712945504
 12
168.26192051650963
 22
186.48031639264315
 13
168.26192051650963
 23
186.48031639264315
  0
SOLID
  8
_1-7_
  6
CONTINUOUS
 62
    8
 10
180.10499926229781
 20
185.72532703947982
 11
168.26192051650963
 21
186.48031639264315
 12
167.11800792930649
 22
186.35755504182134
 13
167.11800792930649
 23
186.35755504182134
  0
SOLID
  8
_1-7_
  6
CONTINUOUS
 62
    8
 10
180.10499926229781
 20
185.72532703947982
 11
167.11800792930649
 21
186.35755504182134
 12
166.36469964017272
 22
186.27943418220747
 13
166.36469964017272
 23
186.27943418220747
  0
SOLID
  8
_1-7_
  6
CONTINUOUS
 62
    8
 10
180.10499926229781
 20
185.72532703947982
 11
166.36469964017272
 21
186.27943418220747
 12
165.67835208785081
 22
186.17899307698963
 13
165.67835208785081
 23
186.17899307698963
  0
SOLID
  8
_1-7_
  6
CONTINUOUS
 62
    8
 10
180.10499926229781
 20
185.72532703947982
 11
165.67835208785081
 21
186.17899307698963
 12
165.06454533374179
 22
186.09529215597476
 13
165.06454533374179
 23
186.09529215597476
  0
SOLID
  8
_1-7_
  6
CONTINUOUS
 62
    8
 10
180.10499926229781
 20
185.72532703947982
 11
165.06454533374179
 21
186.09529215597476
 12
164.56233980765262
 22
186.01159123495989
 13
164.56233980765262
 23
186.01159123495989
  0
SOLID
  8
_1-7_
  6
CONTINUOUS
 62
    8
 10
180.10499926229781
 20
185.72532703947982
 11
164.56233980765262
 21
186.01159123495989
 12
163.31798611523161
 22
185.78280871751926
 13
163.31798611523161
 23
185.78280871751926
  0
SOLID
  8
_1-7_
  6
CONTINUOUS
 62
    8
 10
180.10499926229781
 20
185.72532703947982
 11
163.31798611523161
 21
185.78280871751926
 12
162.57583794889982
 22
185.62098693689052
 13
162.57583794889982
 23
185.62098693689052
  0
SOLID
  8
_1-7_
  6
CONTINUOUS
 62
    8
 10
180.10499926229781
 20
185.72532703947982
 11
162.57583794889982
 21
185.62098693689052
 12
161.77788916855809
 22
185.43684491065781
 13
161.77788916855809
 23
185.43684491065781
  0
SOLID
  8
_1-7_
  6
CONTINUOUS
 62
    8
 10
180.10499926229781
 20
185.72532703947982
 11
161.77788916855809
 21
185.43684491065781
 12
161.16966247585009
 22
185.29176331423204
 13
161.16966247585009
 23
185.29176331423204
  0
SOLID
  8
_1-7_
  6
CONTINUOUS
 62
    8
 10
180.10499926229781
 20
185.72532703947982
 11
161.16966247585009
 21
185.29176331423204
 12
160.04249007284989
 22
184.97927987577657
 13
160.04249007284989
 23
184.97927987577657
  0
SOLID
  8
_1-7_
  6
CONTINUOUS
 62
    8
 10
180.10499926229781
 20
185.72532703947982
 11
160.04249007284989
 21
184.97927987577657
 12
159.19432073989927
 22
184.72259705133098
 13
159.19432073989927
 23
184.72259705133098
  0
SOLID
  8
_1-7_
  6
CONTINUOUS
 62
    8
 10
180.10499926229781
 20
185.72532703947982
 11
159.19432073989927
 21
184.72259705133098
 12
158.20664987192384
 22
184.41011361287548
 13
158.20664987192384
 23
184.41011361287548
  0
SOLID
  8
_1-7_
  6
CONTINUOUS
 62
    8
 10
180.10499926229781
 20
185.72532703947982
 11
158.20664987192384
 21
184.41011361287548
 12
157.62217195700731
 22
184.19749357545871
 13
157.62217195700731
 23
184.19749357545871
  0
SOLID
  8
_1-7_
  6
CONTINUOUS
 62
    8
 10
180.10499926229781
 20
185.72532703947982
 11
157.62217195700731
 21
184.19749357545871
 12
174.83380861576691
 22
184.38590846452394
 13
174.83380861576691
 23
184.38590846452394
  0
SOLID
  8
_1-7_
  6
CONTINUOUS
 62
    8
 10
180.10499926229781
 20
185.72532703947982
 11
174.83380861576691
 21
184.38590846452394
 12
176.70359409815288
 22
184.40175410420517
 13
176.70359409815288
 23
184.40175410420517
  0
SOLID
  8
_1-7_
  6
CONTINUOUS
 62
    8
 10
180.10499926229781
 20
185.72532703947982
 11
176.70359409815288
 21
184.40175410420517
 12
178.22477550755164
 22
184.35421718516147
 13
178.22477550755164
 23
184.35421718516147
  0
SOLID
  8
_1-7_
  6
CONTINUOUS
 62
    8
 10
180.10499926229781
 20
185.72532703947982
 11
178.22477550755164
 21
184.35421718516147
 12
179.45537320245921
 22
184.27568375224695
 13
179.45537320245921
 23
184.27568375224695
  0
SOLID
  8
_1-7_
  6
CONTINUOUS
 62
    8
 10
180.10499926229781
 20
185.72532703947982
 11
179.45537320245921
 21
184.27568375224695
 12
180.96007794777597
 22
179.08955930292518
 13
180.96007794777597
 23
179.08955930292518
  0
SOLID
  8
_1-7_
  6
CONTINUOUS
 62
    8
 10
160.36022694974869
 20
190.28871843755584
 11
160.04576461935227
 21
188.71640678557367
 12
162.23749598793174
 22
189.24391753649451
 13
162.23749598793174
 23
189.24391753649451
  0
SOLID
  8
_1-7_
  6
CONTINUOUS
 62
    8
 10
160.36022694974869
 20
190.28871843755584
 11
162.23749598793174
 21
189.24391753649451
 12
164.13889837863499
 22
189.71237899507355
 13
164.13889837863499
 23
189.71237899507355
  0
SOLID
  8
_1-7_
  6
CONTINUOUS
 62
    8
 10
160.36022694974869
 20
190.28871843755584
 11
164.13889837863499
 21
189.71237899507355
 12
165.5993958671462
 22
189.96038800255661
 13
165.5993958671462
 23
189.96038800255661
  0
SOLID
  8
_1-7_
  6
CONTINUOUS
 62
    8
 10
160.36022694974869
 20
190.28871843755584
 11
165.5993958671462
 21
189.96038800255661
 12
167.77636382171949
 22
190.23595356642664
 13
167.77636382171949
 23
190.23595356642664
  0
SOLID
  8
_1-7_
  6
CONTINUOUS
 62
    8
 10
160.36022694974869
 20
190.28871843755584
 11
167.77636382171949
 21
190.23595356642664
 12
170.00844488906677
 22
190.51151913029668
 13
170.00844488906677
 23
190.51151913029668
  0
SOLID
  8
_1-7_
  6
CONTINUOUS
 62
    8
 10
160.36022694974869
 20
190.28871843755584
 11
170.00844488906677
 21
190.51151913029668
 12
172.43342185112311
 22
190.67685846861869
 13
172.43342185112311
 23
190.67685846861869
  0
SOLID
  8
_1-7_
  6
CONTINUOUS
 62
    8
 10
160.36022694974869
 20
190.28871843755584
 11
172.43342185112311
 21
190.67685846861869
 12
174.66550291847039
 22
190.81464125055371
 13
174.66550291847039
 23
190.81464125055371
  0
SOLID
  8
_1-7_
  6
CONTINUOUS
 62
    8
 10
181.18594144505687
 20
185.48925626714163
 11
181.29085545010531
 21
185.48815580191831
 12
181.29290433611985
 22
198.36385836479658
 13
181.29290433611985
 23
198.36385836479658
  0
SOLID
  8
_1-7_
  6
CONTINUOUS
 62
    8
 10
181.29290433611985
 20
198.36385836479658
 11
172.28011594033524
 21
196.85781387561519
 12
172.59387791480583
 22
193.27151194641857
 13
172.59387791480583
 23
193.27151194641857
  0
SOLID
  8
_1-7_
  6
CONTINUOUS
 62
    8
 10
171.80234468925522
 20
193.21495041712384
 11
170.82158179602686
 21
193.07484143237693
 12
169.93668294499375
 22
192.94210660472197
 13
169.93668294499375
 23
192.94210660472197
  0
SOLID
  8
_1-7_
  6
CONTINUOUS
 62
    8
 10
171.80234468925522
 20
193.21495041712384
 11
169.93668294499375
 21
192.94210660472197
 12
168.91167510921375
 22
192.78724930579119
 13
168.91167510921375
 23
192.78724930579119
  0
SOLID
  8
_1-7_
  6
CONTINUOUS
 62
    8
 10
171.80234468925522
 20
193.21495041712384
 11
168.91167510921375
 21
192.78724930579119
 12
167.58432683266409
 22
192.52177965048125
 13
167.58432683266409
 23
192.52177965048125
  0
SOLID
  8
_1-7_
  6
CONTINUOUS
 62
    8
 10
171.80234468925522
 20
193.21495041712384
 11
167.58432683266409
 21
192.52177965048125
 12
166.6551830390793
 22
192.30792909481491
 13
166.6551830390793
 23
192.30792909481491
  0
SOLID
  8
_1-7_
  6
CONTINUOUS
 62
    8
 10
171.80234468925522
 20
193.21495041712384
 11
166.6551830390793
 21
192.30792909481491
 12
165.91039317279314
 22
192.12357516751635
 13
165.91039317279314
 23
192.12357516751635
  0
SOLID
  8
_1-7_
  6
CONTINUOUS
 62
    8
 10
171.80234468925522
 20
193.21495041712384
 11
165.91039317279314
 21
192.12357516751635
 12
165.2319707203344
 22
191.94659539730972
 13
165.2319707203344
 23
191.94659539730972
  0
SOLID
  8
_1-7_
  6
CONTINUOUS
 62
    8
 10
171.80234468925522
 20
193.21495041712384
 11
165.2319707203344
 21
191.94659539730972
 12
164.57567073915152
 22
191.76224147001116
 13
164.57567073915152
 23
191.76224147001116
  0
SOLID
  8
_1-7_
  6
CONTINUOUS
 62
    8
 10
171.80234468925522
 20
193.21495041712384
 11
164.57567073915152
 21
191.76224147001116
 12
163.12296179203884
 22
191.30504373031073
 13
163.12296179203884
 23
191.30504373031073
  0
SOLID
  8
_1-7_
  6
CONTINUOUS
 62
    8
 10
171.80234468925522
 20
193.21495041712384
 11
163.12296179203884
 21
191.30504373031073
 12
162.24543709809768
 22
190.99532913244914
 13
162.24543709809768
 23
190.99532913244914
  0
SOLID
  8
_1-7_
  6
CONTINUOUS
 62
    8
 10
171.80234468925522
 20
193.21495041712384
 11
162.24543709809768
 21
190.99532913244914
 12
161.39740903252428
 22
190.70036284877145
 13
161.39740903252428
 23
190.70036284877145
  0
SOLID
  8
_1-7_
  6
CONTINUOUS
 62
    8
 10
171.80234468925522
 20
193.21495041712384
 11
161.39740903252428
 21
190.70036284877145
 12
160.36022694974869
 22
190.28871843755584
 13
160.36022694974869
 23
190.28871843755584
  0
SOLID
  8
_1-7_
  6
CONTINUOUS
 62
    8
 10
171.80234468925522
 20
193.21495041712384
 11
160.36022694974869
 21
190.28871843755584
 12
174.66550291847039
 22
190.81464125055371
 13
174.66550291847039
 23
190.81464125055371
  0
SOLID
  8
_1-7_
  6
CONTINUOUS
 62
    8
 10
171.80234468925522
 20
193.21495041712384
 11
174.66550291847039
 21
190.81464125055371
 12
176.78735776026969
 22
190.75952813777971
 13
176.78735776026969
 23
190.75952813777971
  0
SOLID
  8
_1-7_
  6
CONTINUOUS
 62
    8
 10
171.80234468925522
 20
193.21495041712384
 11
176.78735776026969
 21
190.75952813777971
 12
178.68876015097294
 22
190.75952813777971
 13
178.68876015097294
 23
190.75952813777971
  0
SOLID
  8
_1-7_
  6
CONTINUOUS
 62
    8
 10
171.80234468925522
 20
193.21495041712384
 11
178.68876015097294
 21
190.75952813777971
 12
179.68123627256577
 22
190.67538072094385
 13
179.68123627256577
 23
190.67538072094385
  0
SOLID
  8
_1-7_
  6
CONTINUOUS
 62
    8
 10
179.68123627256577
 20
190.67538072094385
 11
181.18594144505687
 21
185.48925626714163
 12
181.29290433611985
 22
198.36385836479658
 13
181.29290433611985
 23
198.36385836479658
  0
SOLID
  8
_1-7_
  6
CONTINUOUS
 62
    8
 10
179.68123627256577
 20
190.67538072094385
 11
181.29290433611985
 21
198.36385836479658
 12
172.59387791480583
 22
193.27151194641857
 13
172.59387791480583
 23
193.27151194641857
  0
SOLID
  8
_1-7_
  6
CONTINUOUS
 62
    8
 10
179.68123627256577
 20
190.67538072094385
 11
172.59387791480583
 21
193.27151194641857
 12
171.80234468925522
 22
193.21495041712384
 13
171.80234468925522
 23
193.21495041712384
  0
SOLID
  8
_1-7_
  6
CONTINUOUS
 62
    8
 10
162.52805459624375
 20
196.85371673766494
 11
162.17660154803016
 21
195.0964514965971
 12
163.8845932411121
 22
195.54284278684557
 13
163.8845932411121
 23
195.54284278684557
  0
SOLID
  8
_1-7_
  6
CONTINUOUS
 62
    8
 10
162.52805459624375
 20
196.85371673766494
 11
163.8845932411121
 21
195.54284278684557
 12
165.069570371314
 22
195.78154321595099
 13
165.069570371314
 23
195.78154321595099
  0
SOLID
  8
_1-7_
  6
CONTINUOUS
 62
    8
 10
162.52805459624375
 20
196.85371673766494
 11
165.069570371314
 21
195.78154321595099
 12
166.38242273139377
 22
196.05434370635717
 13
166.38242273139377
 23
196.05434370635717
  0
SOLID
  8
_1-7_
  6
CONTINUOUS
 62
    8
 10
162.52805459624375
 20
196.85371673766494
 11
166.38242273139377
 21
196.05434370635717
 12
167.22639924858791
 22
196.20779398221066
 13
167.22639924858791
 23
196.20779398221066
  0
SOLID
  8
_1-7_
  6
CONTINUOUS
 62
    8
 10
162.52805459624375
 20
196.85371673766494
 11
167.22639924858791
 21
196.20779398221066
 12
168.03627570448128
 22
196.33566921208853
 13
168.03627570448128
 23
196.33566921208853
  0
SOLID
  8
_1-7_
  6
CONTINUOUS
 62
    8
 10
162.52805459624375
 20
196.85371673766494
 11
168.03627570448128
 21
196.33566921208853
 12
168.75237699179752
 22
196.42944438066567
 13
168.75237699179752
 23
196.42944438066567
  0
SOLID
  8
_1-7_
  6
CONTINUOUS
 62
    8
 10
162.52805459624375
 20
196.85371673766494
 11
168.75237699179752
 21
196.42944438066567
 12
169.80947889212149
 22
196.59994468716954
 13
169.80947889212149
 23
196.59994468716954
  0
SOLID
  8
_1-7_
  6
CONTINUOUS
 62
    8
 10
162.52805459624375
 20
196.85371673766494
 11
169.80947889212149
 21
196.59994468716954
 12
170.64899240042638
 22
196.6926803924581
 13
170.64899240042638
 23
196.6926803924581
  0
SOLID
  8
_1-7_
  6
CONTINUOUS
 62
    8
 10
162.52805459624375
 20
196.85371673766494
 11
170.64899240042638
 21
196.6926803924581
 12
172.28011275102477
 22
196.8578135965866
 13
172.28011275102477
 23
196.8578135965866
  0
SOLID
  8
_1-7_
  6
CONTINUOUS
 62
    8
 10
162.52805459624375
 20
196.85371673766494
 11
172.28011275102477
 21
196.8578135965866
 12
181.29289781725086
 22
198.36385823951204
 13
181.29289781725086
 23
198.36385823951204
  0
SOLID
  8
_1-7_
  6
CONTINUOUS
 62
    8
 10
181.29289781725086
 20
198.36385823951204
 11
181.29289781725086
 21
203.03479699256292
 12
178.39289072397594
 22
203.03479699256292
 13
178.39289072397594
 23
203.03479699256292
  0
SOLID
  8
_1-7_
  6
CONTINUOUS
 62
    8
 10
178.99289517789273
 20
209.4423501756288
 11
181.4928910538957
 21
209.4423501756288
 12
175.64988419816302
 22
211.5761421822213
 13
175.64988419816302
 23
211.5761421822213
  0
SOLID
  8
_1-7_
  6
CONTINUOUS
 62
    8
 10
178.99289517789273
 20
209.4423501756288
 11
175.64988419816302
 21
211.5761421822213
 12
174.41686103313734
 22
211.44470995768418
 13
174.41686103313734
 23
211.44470995768418
  0
SOLID
  8
_1-7_
  6
CONTINUOUS
 62
    8
 10
178.99289517789273
 20
209.4423501756288
 11
174.41686103313734
 21
211.44470995768418
 12
173.47850660655649
 22
211.32618097748451
 13
173.47850660655649
 23
211.32618097748451
  0
SOLID
  8
_1-7_
  6
CONTINUOUS
 62
    8
 10
178.99289517789273
 20
209.4423501756288
 11
173.47850660655649
 21
211.32618097748451
 12
172.62904891512545
 22
211.18789716725155
 13
172.62904891512545
 23
211.18789716725155
  0
SOLID
  8
_1-7_
  6
CONTINUOUS
 62
    8
 10
178.99289517789273
 20
209.4423501756288
 11
172.62904891512545
 21
211.18789716725155
 12
171.72032673359453
 22
211.02985852698529
 13
171.72032673359453
 23
211.02985852698529
  0
SOLID
  8
_1-7_
  6
CONTINUOUS
 62
    8
 10
178.99289517789273
 20
209.4423501756288
 11
171.72032673359453
 21
211.02985852698529
 12
171.04438914220179
 22
210.91206247279541
 13
171.04438914220179
 23
210.91206247279541
  0
SOLID
  8
_1-7_
  6
CONTINUOUS
 62
    8
 10
178.99289517789273
 20
209.4423501756288
 11
171.04438914220179
 21
210.91206247279541
 12
170.24859189611513
 22
210.72365866146944
 13
170.24859189611513
 23
210.72365866146944
  0
SOLID
  8
_1-7_
  6
CONTINUOUS
 62
    8
 10
178.99289517789273
 20
209.4423501756288
 11
170.24859189611513
 21
210.72365866146944
 12
169.52754059990039
 22
210.56562002120319
 13
169.52754059990039
 23
210.56562002120319
  0
SOLID
  8
_1-7_
  6
CONTINUOUS
 62
    8
 10
178.99289517789273
 20
209.4423501756288
 11
169.52754059990039
 21
210.56562002120319
 12
168.85587637876887
 22
210.40758138093696
 13
168.85587637876887
 23
210.40758138093696
  0
SOLID
  8
_1-7_
  6
CONTINUOUS
 62
    8
 10
178.99289517789273
 20
209.4423501756288
 11
168.85587637876887
 21
210.40758138093696
 12
168.33992968928641
 22
210.27155883336815
 13
168.33992968928641
 23
210.27155883336815
  0
SOLID
  8
_1-7_
  6
CONTINUOUS
 62
    8
 10
168.33992968928641
 20
210.27155883336815
 11
167.92310157611951
 21
208.18741826753373
 12
169.3596245446175
 22
208.45185320764219
 13
169.3596245446175
 23
208.45185320764219
  0
SOLID
  8
_1-7_
  6
CONTINUOUS
 62
    8
 10
168.33992968928641
 20
210.27155883336815
 11
169.3596245446175
 21
208.45185320764219
 12
170.78197230701372
 22
208.66915633800826
 13
170.78197230701372
 23
208.66915633800826
  0
SOLID
  8
_1-7_
  6
CONTINUOUS
 62
    8
 10
168.33992968928641
 20
210.27155883336815
 11
170.78197230701372
 21
208.66915633800826
 12
171.8388557137942
 22
208.81731756325786
 13
171.8388557137942
 23
208.81731756325786
  0
SOLID
  8
_1-7_
  6
CONTINUOUS
 62
    8
 10
168.33992968928641
 20
210.27155883336815
 11
171.8388557137942
 21
208.81731756325786
 12
172.49076510489249
 22
208.90621429840763
 13
172.49076510489249
 23
208.90621429840763
  0
SOLID
  8
_1-7_
  6
CONTINUOUS
 62
    8
 10
168.33992968928641
 20
210.27155883336815
 11
172.49076510489249
 21
208.90621429840763
 12
173.02414551579105
 22
208.95560137349082
 13
173.02414551579105
 23
208.95560137349082
  0
SOLID
  8
_1-7_
  6
CONTINUOUS
 62
    8
 10
168.33992968928641
 20
210.27155883336815
 11
173.02414551579105
 21
208.95560137349082
 12
173.60691300177282
 22
209.01486586359067
 13
173.60691300177282
 23
209.01486586359067
  0
SOLID
  8
_1-7_
  6
CONTINUOUS
 62
    8
 10
168.33992968928641
 20
210.27155883336815
 11
173.60691300177282
 21
209.01486586359067
 12
174.19843028128753
 22
209.0714558928766
 13
174.19843028128753
 23
209.0714558928766
  0
SOLID
  8
_1-7_
  6
CONTINUOUS
 62
    8
 10
174.01944953105001
 20
205.43515178003204
 11
173.45171596675067
 21
205.37867289193952
 12
172.75242807527704
 22
205.29437161827948
 13
172.75242807527704
 23
205.29437161827948
  0
SOLID
  8
_1-7_
  6
CONTINUOUS
 62
    8
 10
174.01944953105001
 20
205.43515178003204
 11
172.75242807527704
 21
205.29437161827948
 12
172.1691959765879
 22
205.20387008572428
 13
172.1691959765879
 23
205.20387008572428
  0
SOLID
  8
_1-7_
  6
CONTINUOUS
 62
    8
 10
174.01944953105001
 20
205.43515178003204
 11
172.1691959765879
 21
205.20387008572428
 12
171.2692085139555
 22
205.07314564981118
 13
171.2692085139555
 23
205.07314564981118
  0
SOLID
  8
_1-7_
  6
CONTINUOUS
 62
    8
 10
174.01944953105001
 20
205.43515178003204
 11
171.2692085139555
 21
205.07314564981118
 12
170.4546947209586
 22
204.91225403637969
 13
170.4546947209586
 23
204.91225403637969
  0
SOLID
  8
_1-7_
  6
CONTINUOUS
 62
    8
 10
174.01944953105001
 20
205.43515178003204
 11
170.4546947209586
 21
204.91225403637969
 12
169.56476298416567
 22
204.74130669710877
 13
169.56476298416567
 23
204.74130669710877
  0
SOLID
  8
_1-7_
  6
CONTINUOUS
 62
    8
 10
174.01944953105001
 20
205.43515178003204
 11
169.56476298416567
 21
204.74130669710877
 12
168.64969193277409
 22
204.54522004323911
 13
168.64969193277409
 23
204.54522004323911
  0
SOLID
  8
_1-7_
  6
CONTINUOUS
 62
    8
 10
174.01944953105001
 20
205.43515178003204
 11
168.64969193277409
 21
204.54522004323911
 12
168.11673846328227
 22
204.41952347024579
 13
168.11673846328227
 23
204.41952347024579
  0
SOLID
  8
_1-7_
  6
CONTINUOUS
 62
    8
 10
174.01944953105001
 20
205.43515178003204
 11
168.11673846328227
 21
204.41952347024579
 12
167.47317200955632
 22
204.25360399389456
 13
167.47317200955632
 23
204.25360399389456
  0
SOLID
  8
_1-7_
  6
CONTINUOUS
 62
    8
 10
174.01944953105001
 20
205.43515178003204
 11
167.47317200955632
 21
204.25360399389456
 12
166.76424333787384
 22
204.05248947710518
 13
166.76424333787384
 23
204.05248947710518
  0
SOLID
  8
_1-7_
  6
CONTINUOUS
 62
    8
 10
174.01944953105001
 20
205.43515178003204
 11
166.76424333787384
 21
204.05248947710518
 12
166.07039825495053
 22
203.85137496031584
 13
166.07039825495053
 23
203.85137496031584
  0
SOLID
  8
_1-7_
  6
CONTINUOUS
 62
    8
 10
174.01944953105001
 20
205.43515178003204
 11
166.07039825495053
 21
203.85137496031584
 12
165.37631245011437
 22
203.63799591225154
 13
165.37631245011437
 23
203.63799591225154
  0
SOLID
  8
_1-7_
  6
CONTINUOUS
 62
    8
 10
174.01944953105001
 20
205.43515178003204
 11
165.37631245011437
 21
203.63799591225154
 12
164.97749138315464
 22
201.64389057745296
 13
164.97749138315464
 23
201.64389057745296
  0
SOLID
  8
_1-7_
  6
CONTINUOUS
 62
    8
 10
174.01944953105001
 20
205.43515178003204
 11
164.97749138315464
 21
201.64389057745296
 12
166.0502868032716
 22
201.87542483286038
 13
166.0502868032716
 23
201.87542483286038
  0
SOLID
  8
_1-7_
  6
CONTINUOUS
 62
    8
 10
174.01944953105001
 20
205.43515178003204
 11
166.0502868032716
 21
201.87542483286038
 12
167.05585938721842
 22
202.09162293840893
 13
167.05585938721842
 23
202.09162293840893
  0
SOLID
  8
_1-7_
  6
CONTINUOUS
 62
    8
 10
174.01944953105001
 20
205.43515178003204
 11
167.05585938721842
 21
202.09162293840893
 12
168.18712854415855
 22
202.28770959227856
 13
168.18712854415855
 23
202.28770959227856
  0
SOLID
  8
_1-7_
  6
CONTINUOUS
 62
    8
 10
174.01944953105001
 20
205.43515178003204
 11
168.18712854415855
 21
202.28770959227856
 12
169.74073818635637
 22
202.54413060118497
 13
169.74073818635637
 23
202.54413060118497
  0
SOLID
  8
_1-7_
  6
CONTINUOUS
 62
    8
 10
174.01944953105001
 20
205.43515178003204
 11
169.74073818635637
 21
202.54413060118497
 12
170.81167298825972
 22
202.69496648877703
 13
170.81167298825972
 23
202.69496648877703
  0
SOLID
  8
_1-7_
  6
CONTINUOUS
 62
    8
 10
174.01944953105001
 20
205.43515178003204
 11
170.81167298825972
 21
202.69496648877703
 12
171.75188335424997
 22
202.80557947301116
 13
171.75188335424997
 23
202.80557947301116
  0
SOLID
  8
_1-7_
  6
CONTINUOUS
 62
    8
 10
174.01944953105001
 20
205.43515178003204
 11
171.75188335424997
 21
202.80557947301116
 12
172.50103492929034
 22
202.87596955388744
 13
172.50103492929034
 23
202.87596955388744
  0
SOLID
  8
_1-7_
  6
CONTINUOUS
 62
    8
 10
174.01944953105001
 20
205.43515178003204
 11
172.50103492929034
 21
202.87596955388744
 12
172.97868190666509
 22
202.93127604600451
 13
172.97868190666509
 23
202.93127604600451
  0
SOLID
  8
_1-7_
  6
CONTINUOUS
 62
    8
 10
174.01944953105001
 20
205.43515178003204
 11
172.97868190666509
 21
202.93127604600451
 12
173.26582747466887
 22
202.95645062706433
 13
173.26582747466887
 23
202.95645062706433
  0
SOLID
  8
_1-7_
  6
CONTINUOUS
 62
    8
 10
174.01944953105001
 20
205.43515178003204
 11
173.26582747466887
 21
202.95645062706433
 12
173.57959156424627
 22
199.3701488829156
 13
173.57959156424627
 23
199.3701488829156
  0
SOLID
  8
_1-7_
  6
CONTINUOUS
 62
    8
 10
172.00830436315641
 20
199.19557389664214
 11
171.30440355439364
 21
199.10507236408694
 12
170.73122718154397
 22
199.02462655737119
 13
170.73122718154397
 23
199.02462655737119
  0
SOLID
  8
_1-7_
  6
CONTINUOUS
 62
    8
 10
172.00830436315641
 20
199.19557389664214
 11
170.73122718154397
 21
199.02462655737119
 12
169.94185270314574
 22
198.8939021214581
 13
169.94185270314574
 23
198.8939021214581
  0
SOLID
  8
_1-7_
  6
CONTINUOUS
 62
    8
 10
172.00830436315641
 20
199.19557389664214
 11
169.94185270314574
 21
198.8939021214581
 12
168.28538712925086
 22
198.55519845489027
 13
168.28538712925086
 23
198.55519845489027
  0
SOLID
  8
_1-7_
  6
CONTINUOUS
 62
    8
 10
172.00830436315641
 20
199.19557389664214
 11
168.28538712925086
 21
198.55519845489027
 12
167.12316072962744
 22
198.29895956363472
 13
167.12316072962744
 23
198.29895956363472
  0
SOLID
  8
_1-7_
  6
CONTINUOUS
 62
    8
 10
172.00830436315641
 20
199.19557389664214
 11
167.12316072962744
 21
198.29895956363472
 12
166.1622648874191
 22
198.02441789443233
 13
166.1622648874191
 23
198.02441789443233
  0
SOLID
  8
_1-7_
  6
CONTINUOUS
 62
    8
 10
172.00830436315641
 20
199.19557389664214
 11
166.1622648874191
 21
198.02441789443233
 12
165.1647634893171
 22
197.74072483625656
 13
165.1647634893171
 23
197.74072483625656
  0
SOLID
  8
_1-7_
  6
CONTINUOUS
 62
    8
 10
172.00830436315641
 20
199.19557389664214
 11
165.1647634893171
 21
197.74072483625656
 12
164.231321814029
 22
197.42957761116051
 13
164.231321814029
 23
197.42957761116051
  0
SOLID
  8
_1-7_
  6
CONTINUOUS
 62
    8
 10
172.00830436315641
 20
199.19557389664214
 11
164.231321814029
 21
197.42957761116051
 12
163.21551763798016
 22
197.09097621914424
 13
163.21551763798016
 23
197.09097621914424
  0
SOLID
  8
_1-7_
  6
CONTINUOUS
 62
    8
 10
172.00830436315641
 20
199.19557389664214
 11
163.21551763798016
 21
197.09097621914424
 12
162.52805459624375
 22
196.85371673766494
 13
162.52805459624375
 23
196.85371673766494
  0
SOLID
  8
_1-7_
  6
CONTINUOUS
 62
    8
 10
172.00830436315641
 20
199.19557389664214
 11
162.52805459624375
 21
196.85371673766494
 12
181.29289781725086
 22
198.36385823951204
 13
181.29289781725086
 23
198.36385823951204
  0
SOLID
  8
_1-7_
  6
CONTINUOUS
 62
    8
 10
178.99289517789273
 20
209.4423501756288
 11
168.33992968928641
 21
210.27155883336815
 12
174.19843028128753
 22
209.0714558928766
 13
174.19843028128753
 23
209.0714558928766
  0
SOLID
  8
_1-7_
  6
CONTINUOUS
 62
    8
 10
178.99289517789273
 20
209.4423501756288
 11
174.19843028128753
 21
209.0714558928766
 12
174.51219225575809
 22
205.48515396367998
 13
174.51219225575809
 23
205.48515396367998
  0
SOLID
  8
_1-7_
  6
CONTINUOUS
 62
    8
 10
174.51219225575809
 20
205.48515396367998
 11
174.01944953105001
 21
205.43515178003204
 12
173.57959156424627
 22
199.3701488829156
 13
173.57959156424627
 23
199.3701488829156
  0
SOLID
  8
_1-7_
  6
CONTINUOUS
 62
    8
 10
172.67198226856129
 20
199.27601970335789
 11
172.00830436315641
 21
199.19557389664214
 12
181.29289781725086
 22
198.36385823951204
 13
181.29289781725086
 23
198.36385823951204
  0
SOLID
  8
_1-7_
  6
CONTINUOUS
 62
    8
 10
178.99289517789273
 20
209.4423501756288
 11
174.51219225575809
 21
205.48515396367998
 12
173.57959156424627
 22
199.3701488829156
 13
173.57959156424627
 23
199.3701488829156
  0
SOLID
  8
_1-7_
  6
CONTINUOUS
 62
    8
 10
173.14460138301629
 20
199.34138192131445
 11
172.67198226856129
 21
199.27601970335789
 12
181.29289781725086
 22
198.36385823951204
 13
181.29289781725086
 23
198.36385823951204
  0
SOLID
  8
_1-7_
  6
CONTINUOUS
 62
    8
 10
173.57959156424627
 20
199.3701488829156
 11
173.14460138301629
 21
199.34138192131445
 12
181.29289781725086
 22
198.36385823951204
 13
181.29289781725086
 23
198.36385823951204
  0
SOLID
  8
_1-7_
  6
CONTINUOUS
 62
    8
 10
173.57959156424627
 20
199.3701488829156
 11
181.29289781725086
 21
198.36385823951204
 12
178.39289072397594
 22
203.03479699256292
 13
178.39289072397594
 23
203.03479699256292
  0
SOLID
  8
_1-7_
  6
CONTINUOUS
 62
    8
 10
173.57959156424627
 20
199.3701488829156
 11
178.39289072397594
 21
203.03479699256292
 12
178.39289072397594
 22
208.02654899847505
 13
178.39289072397594
 23
208.02654899847505
  0
SOLID
  8
_1-7_
  6
CONTINUOUS
 62
    8
 10
178.39289072397594
 20
208.02654899847505
 11
178.99289517789273
 21
208.02654899847505
 12
178.99289517789273
 22
209.4423501756288
 13
178.99289517789273
 23
209.4423501756288
  0
SOLID
  8
_1-7_
  6
CONTINUOUS
 62
    8
 10
178.39289072397594
 20
208.02654899847505
 11
178.99289517789273
 21
209.4423501756288
 12
173.57959156424627
 22
199.3701488829156
 13
173.57959156424627
 23
199.3701488829156
  0
SOLID
  8
_1-7_
  6
CONTINUOUS
 62
    8
 10
172.26923366089895
 20
221.64261626919006
 11
172.06182802802871
 21
220.60558810483889
 12
173.2114572680415
 22
220.76852009784517
 13
173.2114572680415
 23
220.76852009784517
  0
SOLID
  8
_1-7_
  6
CONTINUOUS
 62
    8
 10
172.26923366089895
 20
221.64261626919006
 11
173.2114572680415
 21
220.76852009784517
 12
174.53087196868535
 22
220.90237376312788
 13
174.53087196868535
 23
220.90237376312788
  0
SOLID
  8
_1-7_
  6
CONTINUOUS
 62
    8
 10
172.26923366089895
 20
221.64261626919006
 11
174.53087196868535
 21
220.90237376312788
 12
175.37472686422961
 22
221.02744754901536
 13
175.37472686422961
 23
221.02744754901536
  0
SOLID
  8
_1-7_
  6
CONTINUOUS
 62
    8
 10
172.26923366089895
 20
221.64261626919006
 11
175.37472686422961
 21
221.02744754901536
 12
176.07179398914715
 22
221.09252758914357
 13
176.07179398914715
 23
221.09252758914357
  0
SOLID
  8
_1-7_
  6
CONTINUOUS
 62
    8
 10
175.42960372129784
 20
217.42217846577745
 11
174.53803186597389
 21
217.3029189465226
 12
173.83720008599136
 22
217.19530811628891
 13
173.83720008599136
 23
217.19530811628891
  0
SOLID
  8
_1-7_
  6
CONTINUOUS
 62
    8
 10
175.42960372129784
 20
217.42217846577745
 11
173.83720008599136
 21
217.19530811628891
 12
173.10199125059319
 22
217.08363082483601
 13
173.10199125059319
 23
217.08363082483601
  0
SOLID
  8
_1-7_
  6
CONTINUOUS
 62
    8
 10
175.42960372129784
 20
217.42217846577745
 11
173.10199125059319
 21
217.08363082483601
 12
172.40711032599742
 22
216.96264709242871
 13
172.40711032599742
 23
216.96264709242871
  0
SOLID
  8
_1-7_
  6
CONTINUOUS
 62
    8
 10
175.42960372129784
 20
217.42217846577745
 11
172.40711032599742
 21
216.96264709242871
 12
171.60675640391838
 22
216.80753974318858
 13
171.60675640391838
 23
216.80753974318858
  0
SOLID
  8
_1-7_
  6
CONTINUOUS
 62
    8
 10
175.42960372129784
 20
217.42217846577745
 11
171.60675640391838
 21
216.80753974318858
 12
170.92728485225524
 22
216.6607160284174
 13
170.92728485225524
 23
216.6607160284174
  0
SOLID
  8
_1-7_
  6
CONTINUOUS
 62
    8
 10
175.42960372129784
 20
217.42217846577745
 11
170.92728485225524
 21
216.6607160284174
 12
170.50346355196947
 22
214.54160952698862
 13
170.50346355196947
 23
214.54160952698862
  0
SOLID
  8
_1-7_
  6
CONTINUOUS
 62
    8
 10
175.42960372129784
 20
217.42217846577745
 11
170.50346355196947
 21
214.54160952698862
 12
172.09351119441266
 22
214.78308662109561
 13
172.09351119441266
 23
214.78308662109561
  0
SOLID
  8
_1-7_
  6
CONTINUOUS
 62
    8
 10
175.42960372129784
 20
217.42217846577745
 11
172.09351119441266
 21
214.78308662109561
 12
173.19827859138252
 22
214.92429749138498
 13
173.19827859138252
 23
214.92429749138498
  0
SOLID
  8
_1-7_
  6
CONTINUOUS
 62
    8
 10
175.42960372129784
 20
217.42217846577745
 11
173.19827859138252
 21
214.92429749138498
 12
174.21167424875338
 22
215.04058879632919
 13
174.21167424875338
 23
215.04058879632919
  0
SOLID
  8
_1-7_
  6
CONTINUOUS
 62
    8
 10
175.42960372129784
 20
217.42217846577745
 11
174.21167424875338
 21
215.04058879632919
 12
175.3361214697905
 22
215.1624469388542
 13
175.3361214697905
 23
215.1624469388542
  0
SOLID
  8
_1-7_
  6
CONTINUOUS
 62
    8
 10
175.42960372129784
 20
217.42217846577745
 11
175.3361214697905
 21
215.1624469388542
 12
175.64988344426106
 22
211.57614500965758
 13
175.64988344426106
 23
211.57614500965758
  0
SOLID
  8
_1-7_
  6
CONTINUOUS
 62
    8
 10
175.42960372129784
 20
217.42217846577745
 11
175.64988344426106
 21
211.57614500965758
 12
181.4928910538957
 22
209.4423501756288
 13
181.4928910538957
 23
209.4423501756288
  0
SOLID
  8
_1-7_
  6
CONTINUOUS
 62
    8
 10
181.4928910538957
 20
209.4423501756288
 11
181.4928910538957
 21
222.62015008009683
 12
179.62453911630291
 22
222.55333169676447
 13
179.62453911630291
 23
222.55333169676447
  0
SOLID
  8
_1-7_
  6
CONTINUOUS
 62
    8
 10
181.4928910538957
 20
209.4423501756288
 11
179.62453911630291
 21
222.55333169676447
 12
178.38196633461766
 22
222.48723739986633
 13
178.38196633461766
 23
222.48723739986633
  0
SOLID
  8
_1-7_
  6
CONTINUOUS
 62
    8
 10
181.4928910538957
 20
209.4423501756288
 11
178.38196633461766
 21
222.48723739986633
 12
177.16583127169167
 22
222.38148652482931
 13
177.16583127169167
 23
222.38148652482931
  0
SOLID
  8
_1-7_
  6
CONTINUOUS
 62
    8
 10
181.4928910538957
 20
209.4423501756288
 11
177.16583127169167
 21
222.38148652482931
 12
175.89682077124718
 22
222.23607907165336
 13
175.89682077124718
 23
222.23607907165336
  0
SOLID
  8
_1-7_
  6
CONTINUOUS
 62
    8
 10
175.89682077124718
 20
222.23607907165336
 11
174.48240281762673
 21
222.05101504033854
 12
173.13407916090443
 22
221.81307557150518
 13
173.13407916090443
 23
221.81307557150518
  0
SOLID
  8
_1-7_
  6
CONTINUOUS
 62
    8
 10
175.89682077124718
 20
222.23607907165336
 11
173.13407916090443
 21
221.81307557150518
 12
172.26923366089895
 22
221.64261626919006
 13
172.26923366089895
 23
221.64261626919006
  0
SOLID
  8
_1-7_
  6
CONTINUOUS
 62
    8
 10
175.89682077124718
 20
222.23607907165336
 11
172.26923366089895
 21
221.64261626919006
 12
176.07179398914715
 22
221.09252758914357
 13
176.07179398914715
 23
221.09252758914357
  0
SOLID
  8
_1-7_
  6
CONTINUOUS
 62
    8
 10
176.38555858141137
 20
217.50622588897428
 11
175.42960372129784
 21
217.42217846577745
 12
181.4928910538957
 22
209.4423501756288
 13
181.4928910538957
 23
209.4423501756288
  0
SOLID
  8
_1-7_
  6
CONTINUOUS
 62
    8
 10
181.4928910538957
 20
209.4423501756288
 11
175.89682077124718
 21
222.23607907165336
 12
176.07179398914715
 22
221.09252758914357
 13
176.07179398914715
 23
221.09252758914357
  0
SOLID
  8
_1-7_
  6
CONTINUOUS
 62
    8
 10
181.4928910538957
 20
209.4423501756288
 11
176.07179398914715
 21
221.09252758914357
 12
176.38555858141137
 22
217.50622588897428
 13
176.38555858141137
 23
217.50622588897428
  0
LINE
  8
_1-7_
  6
CONTINUOUS
 62
    3
 10
191.71657649007236
 20
221.64261626919006
 11
191.92398212294259
 21
220.60558810483889
  0
LINE
  8
_1-7_
  6
CONTINUOUS
 62
    3
 10
193.05852529871606
 20
216.6607160284174
 11
193.48234659900183
 21
214.54160952698862
  0
LINE
  8
_1-7_
  6
CONTINUOUS
 62
    3
 10
195.6458804616849
 20
210.27155883336815
 11
196.0627085748518
 21
208.18741826753373
  0
LINE
  8
_1-7_
  6
CONTINUOUS
 62
    3
 10
198.60949770085693
 20
203.63799591225154
 11
199.00831876781666
 21
201.64389057745296
  0
LINE
  8
_1-7_
  6
CONTINUOUS
 62
    3
 10
201.45775555472756
 20
196.85371673766494
 11
201.80920860294114
 21
195.09645149659713
  0
LINE
  8
_1-7_
  6
CONTINUOUS
 62
    3
 10
203.62558320122261
 20
190.28871843755584
 11
203.94004553161903
 21
188.71640678557367
  0
LINE
  8
_1-7_
  6
CONTINUOUS
 62
    3
 10
206.36363819396399
 20
184.19749357545871
 11
206.86602148175814
 21
181.51811604055666
  0
ARC
  8
_1-7_
  6
CONTINUOUS
 62
    1
 10
230.57619785461634
 20
169.2475534668248
 40
19.57833918658056
 50
161.6051461394442
 51
194.13243388627905
  0
ARC
  8
_1-7_
  6
CONTINUOUS
 62
    1
 10
230.57619785461634
 20
169.2475534668248
 40
19.57833918658056
 50
161.6051461394442
 51
194.13243388627905
  0
SOLID
  8
_1-7_
  6
CONTINUOUS
 62
    8
 10
210.19584460099537
 20
170.00598377075281
 11
211.59041756732816
 21
164.46722793527201
 12
191.14572885874156
 22
171.99232771589951
 13
191.14572885874156
 23
171.99232771589951
  0
SOLID
  8
_1-7_
  6
CONTINUOUS
 62
    8
 10
210.19584460099537
 20
170.00598377075281
 11
191.14572885874156
 21
171.99232771589951
 12
191.56025242161107
 22
173.11846346468539
 13
191.56025242161107
 23
173.11846346468539
  0
SOLID
  8
_1-7_
  6
CONTINUOUS
 62
    8
 10
210.19584460099537
 20
170.00598377075281
 11
191.56025242161107
 21
173.11846346468539
 12
190.10519975538548
 22
173.65402249812939
 13
190.10519975538548
 23
173.65402249812939
  0
SOLID
  8
_1-7_
  6
CONTINUOUS
 62
    8
 10
189.67541668866133
 20
167.41867477829393
 11
189.3130163244299
 21
166.46538811760982
 12
186.99292157147383
 22
167.50943570523648
 13
186.99292157147383
 23
167.50943570523648
  0
SOLID
  8
_1-7_
  6
CONTINUOUS
 62
    8
 10
182.69291233372044
 20
177.04925537109375
 11
183.02574503155262
 21
179.08956234371692
 12
185.10538723829399
 22
179.48245973134993
 13
185.10538723829399
 23
179.48245973134993
  0
SOLID
  8
_1-7_
  6
CONTINUOUS
 62
    8
 10
182.69291233372044
 20
177.04925537109375
 11
185.10538723829399
 21
179.48245973134993
 12
187.36806321921665
 22
179.83600285336908
 13
187.36806321921665
 23
179.83600285336908
  0
SOLID
  8
_1-7_
  6
CONTINUOUS
 62
    8
 10
182.69291233372044
 20
177.04925537109375
 11
187.36806321921665
 21
179.83600285336908
 12
189.8075107611489
 22
180.0834830387825
 13
189.8075107611489
 23
180.0834830387825
  0
SOLID
  8
_1-7_
  6
CONTINUOUS
 62
    8
 10
182.69291233372044
 20
177.04925537109375
 11
189.8075107611489
 21
180.0834830387825
 12
192.42372986409072
 22
180.15419166318634
 13
192.42372986409072
 23
180.15419166318634
  0
SOLID
  8
_1-7_
  6
CONTINUOUS
 62
    8
 10
182.69291233372044
 20
177.04925537109375
 11
192.42372986409072
 21
180.15419166318634
 12
195.00459465483064
 22
180.15419166318634
 13
195.00459465483064
 23
180.15419166318634
  0
SOLID
  8
_1-7_
  6
CONTINUOUS
 62
    8
 10
182.69291233372044
 20
177.04925537109375
 11
195.00459465483064
 21
180.15419166318634
 12
197.47939650896478
 22
179.90671147777292
 13
197.47939650896478
 23
179.90671147777292
  0
SOLID
  8
_1-7_
  6
CONTINUOUS
 62
    8
 10
182.69291233372044
 20
177.04925537109375
 11
197.47939650896478
 21
179.90671147777292
 12
199.56530092887786
 22
179.62387698015758
 13
199.56530092887786
 23
179.62387698015758
  0
SOLID
  8
_1-7_
  6
CONTINUOUS
 62
    8
 10
182.69291233372044
 20
177.04925537109375
 11
199.56530092887786
 21
179.62387698015758
 12
201.50978809998327
 22
179.19962523373459
 13
201.50978809998327
 23
179.19962523373459
  0
SOLID
  8
_1-7_
  6
CONTINUOUS
 62
    8
 10
182.69291233372044
 20
177.04925537109375
 11
201.50978809998327
 21
179.19962523373459
 12
203.38356664668487
 22
178.77537348731158
 13
203.38356664668487
 23
178.77537348731158
  0
SOLID
  8
_1-7_
  6
CONTINUOUS
 62
    8
 10
182.69291233372044
 20
177.04925537109375
 11
203.38356664668487
 21
178.77537348731158
 12
204.55025894934809
 22
178.42183036529241
 13
204.55025894934809
 23
178.42183036529241
  0
SOLID
  8
_1-7_
  6
CONTINUOUS
 62
    8
 10
182.69291233372044
 20
177.04925537109375
 11
204.55025894934809
 21
178.42183036529241
 12
206.4947461204535
 22
177.82080705785984
 13
206.4947461204535
 23
177.82080705785984
  0
SOLID
  8
_1-7_
  6
CONTINUOUS
 62
    8
 10
182.69291233372044
 20
177.04925537109375
 11
206.4947461204535
 21
177.82080705785984
 12
208.15639879394359
 22
177.21978375042727
 13
208.15639879394359
 23
177.21978375042727
  0
SOLID
  8
_1-7_
  6
CONTINUOUS
 62
    8
 10
208.15639879394359
 20
177.21978375042727
 11
209.67663421862599
 21
176.51269750638892
 12
211.99822646845502
 22
175.42576878192733
 13
211.99822646845502
 23
175.42576878192733
  0
SOLID
  8
_1-7_
  6
CONTINUOUS
 62
    8
 10
208.15639879394359
 20
177.21978375042727
 11
211.99822646845502
 21
175.42576878192733
 12
210.19584460099537
 22
170.00598377075281
 13
210.19584460099537
 23
170.00598377075281
  0
SOLID
  8
_1-7_
  6
CONTINUOUS
 62
    8
 10
208.15639879394359
 20
177.21978375042727
 11
210.19584460099537
 21
170.00598377075281
 12
190.10519975538548
 22
173.65402249812939
 13
190.10519975538548
 23
173.65402249812939
  0
SOLID
  8
_1-7_
  6
CONTINUOUS
 62
    8
 10
187.98619450749578
 20
168.04044156461148
 11
189.67541668866133
 21
167.41867477829393
 12
186.99292157147383
 22
167.50943570523648
 13
186.99292157147383
 23
167.50943570523648
  0
SOLID
  8
_1-7_
  6
CONTINUOUS
 62
    8
 10
187.98619450749578
 20
168.04044156461148
 11
186.99292157147383
 21
167.50943570523648
 12
186.99292157147383
 22
177.04925537109375
 13
186.99292157147383
 23
177.04925537109375
  0
SOLID
  8
_1-7_
  6
CONTINUOUS
 62
    8
 10
186.99292157147383
 20
177.04925537109375
 11
182.69291233372044
 21
177.04925537109375
 12
208.15639879394359
 22
177.21978375042727
 13
208.15639879394359
 23
177.21978375042727
  0
SOLID
  8
_1-7_
  6
CONTINUOUS
 62
    8
 10
186.99292157147383
 20
177.04925537109375
 11
208.15639879394359
 21
177.21978375042727
 12
190.10519975538548
 22
173.65402249812939
 13
190.10519975538548
 23
173.65402249812939
  0
SOLID
  8
_1-7_
  6
CONTINUOUS
 62
    8
 10
186.99292157147383
 20
177.04925537109375
 11
190.10519975538548
 21
173.65402249812939
 12
187.98619450749578
 22
168.04044156461148
 13
187.98619450749578
 23
168.04044156461148
  0
SOLID
  8
_1-7_
  6
CONTINUOUS
 62
    8
 10
206.36363819396399
 20
184.19749357545871
 11
206.86602148175814
 21
181.51811604055666
 12
204.61734586409173
 22
182.19921018851323
 13
204.61734586409173
 23
182.19921018851323
  0
SOLID
  8
_1-7_
  6
CONTINUOUS
 62
    8
 10
206.36363819396399
 20
184.19749357545871
 11
204.61734586409173
 21
182.19921018851323
 12
202.79509730074946
 22
182.67457937895034
 13
202.79509730074946
 23
182.67457937895034
  0
SOLID
  8
_1-7_
  6
CONTINUOUS
 62
    8
 10
206.36363819396399
 20
184.19749357545871
 11
202.79509730074946
 21
182.67457937895034
 12
200.70347286282617
 22
183.14994856938745
 13
200.70347286282617
 23
183.14994856938745
  0
SOLID
  8
_1-7_
  6
CONTINUOUS
 62
    8
 10
206.36363819396399
 20
184.19749357545871
 11
200.70347286282617
 21
183.14994856938745
 12
198.96045249789012
 22
183.45101572333095
 13
198.96045249789012
 23
183.45101572333095
  0
SOLID
  8
_1-7_
  6
CONTINUOUS
 62
    8
 10
206.36363819396399
 20
184.19749357545871
 11
198.96045249789012
 21
183.45101572333095
 12
197.62941876466618
 22
183.70454595823074
 13
197.62941876466618
 23
183.70454595823074
  0
SOLID
  8
_1-7_
  6
CONTINUOUS
 62
    8
 10
206.36363819396399
 20
184.19749357545871
 11
197.62941876466618
 21
183.70454595823074
 12
196.1716199139924
 22
183.94223055344929
 13
196.1716199139924
 23
183.94223055344929
  0
SOLID
  8
_1-7_
  6
CONTINUOUS
 62
    8
 10
206.36363819396399
 20
184.19749357545871
 11
196.1716199139924
 21
183.94223055344929
 12
194.63459286491241
 22
184.08484131058043
 13
194.63459286491241
 23
184.08484131058043
  0
SOLID
  8
_1-7_
  6
CONTINUOUS
 62
    8
 10
206.36363819396399
 20
184.19749357545871
 11
194.63459286491241
 21
184.08484131058043
 12
193.05002889678872
 22
184.2432977073928
 13
193.05002889678872
 23
184.2432977073928
  0
SOLID
  8
_1-7_
  6
CONTINUOUS
 62
    8
 10
206.36363819396399
 20
184.19749357545871
 11
193.05002889678872
 21
184.2432977073928
 12
191.05347829695285
 22
184.35421718516147
 13
191.05347829695285
 23
184.35421718516147
  0
SOLID
  8
_1-7_
  6
CONTINUOUS
 62
    8
 10
206.36363819396399
 20
184.19749357545871
 11
191.05347829695285
 21
184.35421718516147
 12
189.15200153520439
 22
184.38590846452394
 13
189.15200153520439
 23
184.38590846452394
  0
SOLID
  8
_1-7_
  6
CONTINUOUS
 62
    8
 10
183.02573220319533
 20
179.08955930292518
 11
182.69291233372044
 21
177.04925537109375
 12
182.69495470086599
 22
185.48815580191831
 13
182.69495470086599
 23
185.48815580191831
  0
SOLID
  8
_1-7_
  6
CONTINUOUS
 62
    8
 10
183.02573220319533
 20
179.08955930292518
 11
182.69495470086599
 21
185.48815580191831
 12
182.79986913309398
 22
185.48925627162239
 13
182.79986913309398
 23
185.48925627162239
  0
SOLID
  8
_1-7_
  6
CONTINUOUS
 62
    8
 10
183.02573220319533
 20
179.08955930292518
 11
182.79986913309398
 21
185.48925627162239
 12
183.15612099612446
 22
185.57511858902421
 13
183.15612099612446
 23
185.57511858902421
  0
SOLID
  8
_1-7_
  6
CONTINUOUS
 62
    8
 10
183.02573220319533
 20
179.08955930292518
 11
183.15612099612446
 21
185.57511858902421
 12
183.54877115608738
 22
185.66208137613009
 13
183.54877115608738
 23
185.66208137613009
  0
SOLID
  8
_1-7_
  6
CONTINUOUS
 62
    8
 10
183.02573220319533
 20
179.08955930292518
 11
183.54877115608738
 21
185.66208137613009
 12
183.88081088867349
 22
185.72532703947982
 13
183.88081088867349
 23
185.72532703947982
  0
SOLID
  8
_1-7_
  6
CONTINUOUS
 62
    8
 10
183.88081088867349
 20
185.72532703947982
 11
185.10503278837578
 21
185.96695074375197
 12
185.81928064770261
 22
186.08413203317278
 13
185.81928064770261
 23
186.08413203317278
  0
SOLID
  8
_1-7_
  6
CONTINUOUS
 62
    8
 10
183.88081088867349
 20
185.72532703947982
 11
185.81928064770261
 21
186.08413203317278
 12
186.65628985785128
 22
186.21247344539557
 13
186.65628985785128
 23
186.21247344539557
  0
SOLID
  8
_1-7_
  6
CONTINUOUS
 62
    8
 10
183.88081088867349
 20
185.72532703947982
 11
186.65628985785128
 21
186.21247344539557
 12
187.35937759437616
 22
186.31291455061341
 13
187.35937759437616
 23
186.31291455061341
  0
SOLID
  8
_1-7_
  6
CONTINUOUS
 62
    8
 10
183.88081088867349
 20
185.72532703947982
 11
187.35937759437616
 21
186.31291455061341
 12
187.92854385727722
 22
186.36313510322233
 13
187.92854385727722
 23
186.36313510322233
  0
SOLID
  8
_1-7_
  6
CONTINUOUS
 62
    8
 10
183.88081088867349
 20
185.72532703947982
 11
187.92854385727722
 21
186.36313510322233
 12
188.75997300602489
 22
186.44125596283621
 13
188.75997300602489
 23
186.44125596283621
  0
SOLID
  8
_1-7_
  6
CONTINUOUS
 62
    8
 10
183.88081088867349
 20
185.72532703947982
 11
188.75997300602489
 21
186.44125596283621
 12
189.59140215477254
 22
186.5082166996481
 13
189.59140215477254
 23
186.5082166996481
  0
SOLID
  8
_1-7_
  6
CONTINUOUS
 62
    8
 10
183.88081088867349
 20
185.72532703947982
 11
189.59140215477254
 21
186.5082166996481
 12
190.4284113649212
 22
186.569597375059
 13
190.4284113649212
 23
186.569597375059
  0
SOLID
  8
_1-7_
  6
CONTINUOUS
 62
    8
 10
183.88081088867349
 20
185.72532703947982
 11
190.4284113649212
 21
186.569597375059
 12
191.20961996105993
 22
186.59191762066297
 13
191.20961996105993
 23
186.59191762066297
  0
SOLID
  8
_1-7_
  6
CONTINUOUS
 62
    8
 10
183.88081088867349
 20
185.72532703947982
 11
191.20961996105993
 21
186.59191762066297
 12
191.87364726777787
 22
186.60307774346495
 13
191.87364726777787
 23
186.60307774346495
  0
SOLID
  8
_1-7_
  6
CONTINUOUS
 62
    8
 10
183.88081088867349
 20
185.72532703947982
 11
191.87364726777787
 21
186.60307774346495
 12
192.48187396048587
 22
186.61423786626693
 13
192.48187396048587
 23
186.61423786626693
  0
SOLID
  8
_1-7_
  6
CONTINUOUS
 62
    8
 10
183.88081088867349
 20
185.72532703947982
 11
192.48187396048587
 21
186.61423786626693
 12
193.13474114440183
 22
186.59191762066297
 13
193.13474114440183
 23
186.59191762066297
  0
SOLID
  8
_1-7_
  6
CONTINUOUS
 62
    8
 10
183.88081088867349
 20
185.72532703947982
 11
193.13474114440183
 21
186.59191762066297
 12
193.94385004754554
 22
186.57517743645997
 13
193.94385004754554
 23
186.57517743645997
  0
SOLID
  8
_1-7_
  6
CONTINUOUS
 62
    8
 10
183.88081088867349
 20
185.72532703947982
 11
193.94385004754554
 21
186.57517743645997
 12
194.85340005590706
 22
186.54727712945504
 13
194.85340005590706
 23
186.54727712945504
  0
SOLID
  8
_1-7_
  6
CONTINUOUS
 62
    8
 10
183.88081088867349
 20
185.72532703947982
 11
194.85340005590706
 21
186.54727712945504
 12
195.72388963446167
 22
186.48031639264315
 13
195.72388963446167
 23
186.48031639264315
  0
SOLID
  8
_1-7_
  6
CONTINUOUS
 62
    8
 10
183.88081088867349
 20
185.72532703947982
 11
195.72388963446167
 21
186.48031639264315
 12
196.86780222166482
 22
186.35755504182134
 13
196.86780222166482
 23
186.35755504182134
  0
SOLID
  8
_1-7_
  6
CONTINUOUS
 62
    8
 10
183.88081088867349
 20
185.72532703947982
 11
196.86780222166482
 21
186.35755504182134
 12
197.62111051079859
 22
186.27943418220747
 13
197.62111051079859
 23
186.27943418220747
  0
SOLID
  8
_1-7_
  6
CONTINUOUS
 62
    8
 10
183.88081088867349
 20
185.72532703947982
 11
197.62111051079859
 21
186.27943418220747
 12
198.30745806312049
 22
186.17899307698963
 13
198.30745806312049
 23
186.17899307698963
  0
SOLID
  8
_1-7_
  6
CONTINUOUS
 62
    8
 10
183.88081088867349
 20
185.72532703947982
 11
198.30745806312049
 21
186.17899307698963
 12
198.92126481722951
 22
186.09529215597476
 13
198.92126481722951
 23
186.09529215597476
  0
SOLID
  8
_1-7_
  6
CONTINUOUS
 62
    8
 10
183.88081088867349
 20
185.72532703947982
 11
198.92126481722951
 21
186.09529215597476
 12
199.42347034331868
 22
186.01159123495989
 13
199.42347034331868
 23
186.01159123495989
  0
SOLID
  8
_1-7_
  6
CONTINUOUS
 62
    8
 10
183.88081088867349
 20
185.72532703947982
 11
199.42347034331868
 21
186.01159123495989
 12
200.6678240357397
 22
185.78280871751926
 13
200.6678240357397
 23
185.78280871751926
  0
SOLID
  8
_1-7_
  6
CONTINUOUS
 62
    8
 10
183.88081088867349
 20
185.72532703947982
 11
200.6678240357397
 21
185.78280871751926
 12
201.40997220207149
 22
185.62098693689052
 13
201.40997220207149
 23
185.62098693689052
  0
SOLID
  8
_1-7_
  6
CONTINUOUS
 62
    8
 10
183.88081088867349
 20
185.72532703947982
 11
201.40997220207149
 21
185.62098693689052
 12
202.20792098241321
 22
185.43684491065781
 13
202.20792098241321
 23
185.43684491065781
  0
SOLID
  8
_1-7_
  6
CONTINUOUS
 62
    8
 10
183.88081088867349
 20
185.72532703947982
 11
202.20792098241321
 21
185.43684491065781
 12
202.81614767512121
 22
185.29176331423204
 13
202.81614767512121
 23
185.29176331423204
  0
SOLID
  8
_1-7_
  6
CONTINUOUS
 62
    8
 10
183.88081088867349
 20
185.72532703947982
 11
202.81614767512121
 21
185.29176331423204
 12
203.94332007812142
 22
184.97927987577657
 13
203.94332007812142
 23
184.97927987577657
  0
SOLID
  8
_1-7_
  6
CONTINUOUS
 62
    8
 10
183.88081088867349
 20
185.72532703947982
 11
203.94332007812142
 21
184.97927987577657
 12
204.79148941107204
 22
184.72259705133098
 13
204.79148941107204
 23
184.72259705133098
  0
SOLID
  8
_1-7_
  6
CONTINUOUS
 62
    8
 10
183.88081088867349
 20
185.72532703947982
 11
204.79148941107204
 21
184.72259705133098
 12
205.77916027904746
 22
184.41011361287548
 13
205.77916027904746
 23
184.41011361287548
  0
SOLID
  8
_1-7_
  6
CONTINUOUS
 62
    8
 10
183.88081088867349
 20
185.72532703947982
 11
205.77916027904746
 21
184.41011361287548
 12
206.36363819396399
 22
184.19749357545871
 13
206.36363819396399
 23
184.19749357545871
  0
SOLID
  8
_1-7_
  6
CONTINUOUS
 62
    8
 10
183.88081088867349
 20
185.72532703947982
 11
206.36363819396399
 21
184.19749357545871
 12
189.15200153520439
 22
184.38590846452394
 13
189.15200153520439
 23
184.38590846452394
  0
SOLID
  8
_1-7_
  6
CONTINUOUS
 62
    8
 10
183.88081088867349
 20
185.72532703947982
 11
189.15200153520439
 21
184.38590846452394
 12
187.28221605281843
 22
184.40175410420517
 13
187.28221605281843
 23
184.40175410420517
  0
SOLID
  8
_1-7_
  6
CONTINUOUS
 62
    8
 10
183.88081088867349
 20
185.72532703947982
 11
187.28221605281843
 21
184.40175410420517
 12
185.76103464341966
 22
184.35421718516147
 13
185.76103464341966
 23
184.35421718516147
  0
SOLID
  8
_1-7_
  6
CONTINUOUS
 62
    8
 10
183.88081088867349
 20
185.72532703947982
 11
185.76103464341966
 21
184.35421718516147
 12
184.53043694851209
 22
184.27568375224695
 13
184.53043694851209
 23
184.27568375224695
  0
SOLID
  8
_1-7_
  6
CONTINUOUS
 62
    8
 10
183.88081088867349
 20
185.72532703947982
 11
184.53043694851209
 21
184.27568375224695
 12
183.02573220319533
 22
179.08955930292518
 13
183.02573220319533
 23
179.08955930292518
  0
SOLID
  8
_1-7_
  6
CONTINUOUS
 62
    8
 10
203.62558320122261
 20
190.28871843755584
 11
203.94004553161903
 21
188.71640678557367
 12
201.74831416303957
 22
189.24391753649451
 13
201.74831416303957
 23
189.24391753649451
  0
SOLID
  8
_1-7_
  6
CONTINUOUS
 62
    8
 10
203.62558320122261
 20
190.28871843755584
 11
201.74831416303957
 21
189.24391753649451
 12
199.84691177233631
 22
189.71237899507355
 13
199.84691177233631
 23
189.71237899507355
  0
SOLID
  8
_1-7_
  6
CONTINUOUS
 62
    8
 10
203.62558320122261
 20
190.28871843755584
 11
199.84691177233631
 21
189.71237899507355
 12
198.3864142838251
 22
189.96038800255661
 13
198.3864142838251
 23
189.96038800255661
  0
SOLID
  8
_1-7_
  6
CONTINUOUS
 62
    8
 10
203.62558320122261
 20
190.28871843755584
 11
198.3864142838251
 21
189.96038800255661
 12
196.20944632925182
 22
190.23595356642664
 13
196.20944632925182
 23
190.23595356642664
  0
SOLID
  8
_1-7_
  6
CONTINUOUS
 62
    8
 10
203.62558320122261
 20
190.28871843755584
 11
196.20944632925182
 21
190.23595356642664
 12
193.97736526190454
 22
190.51151913029668
 13
193.97736526190454
 23
190.51151913029668
  0
SOLID
  8
_1-7_
  6
CONTINUOUS
 62
    8
 10
203.62558320122261
 20
190.28871843755584
 11
193.97736526190454
 21
190.51151913029668
 12
191.55238829984819
 22
190.67685846861869
 13
191.55238829984819
 23
190.67685846861869
  0
SOLID
  8
_1-7_
  6
CONTINUOUS
 62
    8
 10
203.62558320122261
 20
190.28871843755584
 11
191.55238829984819
 21
190.67685846861869
 12
189.32030723250091
 22
190.81464125055371
 13
189.32030723250091
 23
190.81464125055371
  0
SOLID
  8
_1-7_
  6
CONTINUOUS
 62
    8
 10
182.79986870591443
 20
185.48925626714163
 11
182.69495470086599
 21
185.48815580191831
 12
182.69290581485146
 22
198.36385836479658
 13
182.69290581485146
 23
198.36385836479658
  0
SOLID
  8
_1-7_
  6
CONTINUOUS
 62
    8
 10
182.69290581485146
 20
198.36385836479658
 11
191.70569421063607
 21
196.85781387561519
 12
191.39193223616547
 22
193.27151194641857
 13
191.39193223616547
 23
193.27151194641857
  0
SOLID
  8
_1-7_
  6
CONTINUOUS
 62
    8
 10
192.18346546171608
 20
193.21495041712384
 11
193.16422835494444
 21
193.07484143237693
 12
194.04912720597756
 22
192.94210660472197
 13
194.04912720597756
 23
192.94210660472197
  0
SOLID
  8
_1-7_
  6
CONTINUOUS
 62
    8
 10
192.18346546171608
 20
193.21495041712384
 11
194.04912720597756
 21
192.94210660472197
 12
195.07413504175756
 22
192.78724930579119
 13
195.07413504175756
 23
192.78724930579119
  0
SOLID
  8
_1-7_
  6
CONTINUOUS
 62
    8
 10
192.18346546171608
 20
193.21495041712384
 11
195.07413504175756
 21
192.78724930579119
 12
196.40148331830721
 22
192.52177965048125
 13
196.40148331830721
 23
192.52177965048125
  0
SOLID
  8
_1-7_
  6
CONTINUOUS
 62
    8
 10
192.18346546171608
 20
193.21495041712384
 11
196.40148331830721
 21
192.52177965048125
 12
197.330627111892
 22
192.30792909481491
 13
197.330627111892
 23
192.30792909481491
  0
SOLID
  8
_1-7_
  6
CONTINUOUS
 62
    8
 10
192.18346546171608
 20
193.21495041712384
 11
197.330627111892
 21
192.30792909481491
 12
198.07541697817817
 22
192.12357516751635
 13
198.07541697817817
 23
192.12357516751635
  0
SOLID
  8
_1-7_
  6
CONTINUOUS
 62
    8
 10
192.18346546171608
 20
193.21495041712384
 11
198.07541697817817
 21
192.12357516751635
 12
198.7538394306369
 22
191.94659539730972
 13
198.7538394306369
 23
191.94659539730972
  0
SOLID
  8
_1-7_
  6
CONTINUOUS
 62
    8
 10
192.18346546171608
 20
193.21495041712384
 11
198.7538394306369
 21
191.94659539730972
 12
199.41013941181978
 22
191.76224147001116
 13
199.41013941181978
 23
191.76224147001116
  0
SOLID
  8
_1-7_
  6
CONTINUOUS
 62
    8
 10
192.18346546171608
 20
193.21495041712384
 11
199.41013941181978
 21
191.76224147001116
 12
200.86284835893247
 22
191.30504373031073
 13
200.86284835893247
 23
191.30504373031073
  0
SOLID
  8
_1-7_
  6
CONTINUOUS
 62
    8
 10
192.18346546171608
 20
193.21495041712384
 11
200.86284835893247
 21
191.30504373031073
 12
201.74037305287362
 22
190.99532913244914
 13
201.74037305287362
 23
190.99532913244914
  0
SOLID
  8
_1-7_
  6
CONTINUOUS
 62
    8
 10
192.18346546171608
 20
193.21495041712384
 11
201.74037305287362
 21
190.99532913244914
 12
202.58840111844702
 22
190.70036284877145
 13
202.58840111844702
 23
190.70036284877145
  0
SOLID
  8
_1-7_
  6
CONTINUOUS
 62
    8
 10
192.18346546171608
 20
193.21495041712384
 11
202.58840111844702
 21
190.70036284877145
 12
203.62558320122261
 22
190.28871843755584
 13
203.62558320122261
 23
190.28871843755584
  0
SOLID
  8
_1-7_
  6
CONTINUOUS
 62
    8
 10
192.18346546171608
 20
193.21495041712384
 11
203.62558320122261
 21
190.28871843755584
 12
189.32030723250091
 22
190.81464125055371
 13
189.32030723250091
 23
190.81464125055371
  0
SOLID
  8
_1-7_
  6
CONTINUOUS
 62
    8
 10
192.18346546171608
 20
193.21495041712384
 11
189.32030723250091
 21
190.81464125055371
 12
187.19845239070162
 22
190.75952813777971
 13
187.19845239070162
 23
190.75952813777971
  0
SOLID
  8
_1-7_
  6
CONTINUOUS
 62
    8
 10
192.18346546171608
 20
193.21495041712384
 11
187.19845239070162
 21
190.75952813777971
 12
185.29704999999836
 22
190.75952813777971
 13
185.29704999999836
 23
190.75952813777971
  0
SOLID
  8
_1-7_
  6
CONTINUOUS
 62
    8
 10
192.18346546171608
 20
193.21495041712384
 11
185.29704999999836
 21
190.75952813777971
 12
184.30457387840551
 22
190.67538072094385
 13
184.30457387840551
 23
190.67538072094385
  0
SOLID
  8
_1-7_
  6
CONTINUOUS
 62
    8
 10
184.30457387840551
 20
190.67538072094385
 11
182.79986870591443
 21
185.48925626714163
 12
182.69290581485146
 22
198.36385836479658
 13
182.69290581485146
 23
198.36385836479658
  0
SOLID
  8
_1-7_
  6
CONTINUOUS
 62
    8
 10
184.30457387840551
 20
190.67538072094385
 11
182.69290581485146
 21
198.36385836479658
 12
191.39193223616547
 22
193.27151194641857
 13
191.39193223616547
 23
193.27151194641857
  0
SOLID
  8
_1-7_
  6
CONTINUOUS
 62
    8
 10
184.30457387840551
 20
190.67538072094385
 11
191.39193223616547
 21
193.27151194641857
 12
192.18346546171608
 22
193.21495041712384
 13
192.18346546171608
 23
193.21495041712384
  0
SOLID
  8
_1-7_
  6
CONTINUOUS
 62
    8
 10
201.45775555472756
 20
196.85371673766494
 11
201.80920860294114
 21
195.0964514965971
 12
200.1012169098592
 22
195.54284278684557
 13
200.1012169098592
 23
195.54284278684557
  0
SOLID
  8
_1-7_
  6
CONTINUOUS
 62
    8
 10
201.45775555472756
 20
196.85371673766494
 11
200.1012169098592
 21
195.54284278684557
 12
198.9162397796573
 22
195.78154321595099
 13
198.9162397796573
 23
195.78154321595099
  0
SOLID
  8
_1-7_
  6
CONTINUOUS
 62
    8
 10
201.45775555472756
 20
196.85371673766494
 11
198.9162397796573
 21
195.78154321595099
 12
197.60338741957753
 22
196.05434370635717
 13
197.60338741957753
 23
196.05434370635717
  0
SOLID
  8
_1-7_
  6
CONTINUOUS
 62
    8
 10
201.45775555472756
 20
196.85371673766494
 11
197.60338741957753
 21
196.05434370635717
 12
196.75941090238339
 22
196.20779398221066
 13
196.75941090238339
 23
196.20779398221066
  0
SOLID
  8
_1-7_
  6
CONTINUOUS
 62
    8
 10
201.45775555472756
 20
196.85371673766494
 11
196.75941090238339
 21
196.20779398221066
 12
195.94953444649002
 22
196.33566921208853
 13
195.94953444649002
 23
196.33566921208853
  0
SOLID
  8
_1-7_
  6
CONTINUOUS
 62
    8
 10
201.45775555472756
 20
196.85371673766494
 11
195.94953444649002
 21
196.33566921208853
 12
195.23343315917379
 22
196.42944438066567
 13
195.23343315917379
 23
196.42944438066567
  0
SOLID
  8
_1-7_
  6
CONTINUOUS
 62
    8
 10
201.45775555472756
 20
196.85371673766494
 11
195.23343315917379
 21
196.42944438066567
 12
194.17633125884981
 22
196.59994468716954
 13
194.17633125884981
 23
196.59994468716954
  0
SOLID
  8
_1-7_
  6
CONTINUOUS
 62
    8
 10
201.45775555472756
 20
196.85371673766494
 11
194.17633125884981
 21
196.59994468716954
 12
193.33681775054492
 22
196.6926803924581
 13
193.33681775054492
 23
196.6926803924581
  0
SOLID
  8
_1-7_
  6
CONTINUOUS
 62
    8
 10
201.45775555472756
 20
196.85371673766494
 11
193.33681775054492
 21
196.6926803924581
 12
191.70569739994653
 22
196.8578135965866
 13
191.70569739994653
 23
196.8578135965866
  0
SOLID
  8
_1-7_
  6
CONTINUOUS
 62
    8
 10
201.45775555472756
 20
196.85371673766494
 11
191.70569739994653
 21
196.8578135965866
 12
182.69291233372044
 22
198.36385823951204
 13
182.69291233372044
 23
198.36385823951204
  0
SOLID
  8
_1-7_
  6
CONTINUOUS
 62
    8
 10
182.69291233372044
 20
198.36385823951204
 11
182.69291233372044
 21
203.03479699256292
 12
185.59291942699537
 22
203.03479699256292
 13
185.59291942699537
 23
203.03479699256292
  0
SOLID
  8
_1-7_
  6
CONTINUOUS
 62
    8
 10
184.99291497307857
 20
209.4423501756288
 11
182.4929190970756
 21
209.4423501756288
 12
188.33592595280828
 22
211.5761421822213
 13
188.33592595280828
 23
211.5761421822213
  0
SOLID
  8
_1-7_
  6
CONTINUOUS
 62
    8
 10
184.99291497307857
 20
209.4423501756288
 11
188.33592595280828
 21
211.5761421822213
 12
189.56894911783397
 22
211.44470995768418
 13
189.56894911783397
 23
211.44470995768418
  0
SOLID
  8
_1-7_
  6
CONTINUOUS
 62
    8
 10
184.99291497307857
 20
209.4423501756288
 11
189.56894911783397
 21
211.44470995768418
 12
190.50730354441481
 22
211.32618097748451
 13
190.50730354441481
 23
211.32618097748451
  0
SOLID
  8
_1-7_
  6
CONTINUOUS
 62
    8
 10
184.99291497307857
 20
209.4423501756288
 11
190.50730354441481
 21
211.32618097748451
 12
191.35676123584585
 22
211.18789716725155
 13
191.35676123584585
 23
211.18789716725155
  0
SOLID
  8
_1-7_
  6
CONTINUOUS
 62
    8
 10
184.99291497307857
 20
209.4423501756288
 11
191.35676123584585
 21
211.18789716725155
 12
192.26548341737677
 22
211.02985852698529
 13
192.26548341737677
 23
211.02985852698529
  0
SOLID
  8
_1-7_
  6
CONTINUOUS
 62
    8
 10
184.99291497307857
 20
209.4423501756288
 11
192.26548341737677
 21
211.02985852698529
 12
192.94142100876951
 22
210.91206247279541
 13
192.94142100876951
 23
210.91206247279541
  0
SOLID
  8
_1-7_
  6
CONTINUOUS
 62
    8
 10
184.99291497307857
 20
209.4423501756288
 11
192.94142100876951
 21
210.91206247279541
 12
193.73721825485617
 22
210.72365866146944
 13
193.73721825485617
 23
210.72365866146944
  0
SOLID
  8
_1-7_
  6
CONTINUOUS
 62
    8
 10
184.99291497307857
 20
209.4423501756288
 11
193.73721825485617
 21
210.72365866146944
 12
194.45826955107091
 22
210.56562002120319
 13
194.45826955107091
 23
210.56562002120319
  0
SOLID
  8
_1-7_
  6
CONTINUOUS
 62
    8
 10
184.99291497307857
 20
209.4423501756288
 11
194.45826955107091
 21
210.56562002120319
 12
195.12993377220243
 22
210.40758138093696
 13
195.12993377220243
 23
210.40758138093696
  0
SOLID
  8
_1-7_
  6
CONTINUOUS
 62
    8
 10
184.99291497307857
 20
209.4423501756288
 11
195.12993377220243
 21
210.40758138093696
 12
195.6458804616849
 22
210.27155883336815
 13
195.6458804616849
 23
210.27155883336815
  0
SOLID
  8
_1-7_
  6
CONTINUOUS
 62
    8
 10
195.6458804616849
 20
210.27155883336815
 11
196.0627085748518
 21
208.18741826753373
 12
194.6261856063538
 22
208.45185320764219
 13
194.6261856063538
 23
208.45185320764219
  0
SOLID
  8
_1-7_
  6
CONTINUOUS
 62
    8
 10
195.6458804616849
 20
210.27155883336815
 11
194.6261856063538
 21
208.45185320764219
 12
193.20383784395759
 22
208.66915633800826
 13
193.20383784395759
 23
208.66915633800826
  0
SOLID
  8
_1-7_
  6
CONTINUOUS
 62
    8
 10
195.6458804616849
 20
210.27155883336815
 11
193.20383784395759
 21
208.66915633800826
 12
192.1469544371771
 22
208.81731756325786
 13
192.1469544371771
 23
208.81731756325786
  0
SOLID
  8
_1-7_
  6
CONTINUOUS
 62
    8
 10
195.6458804616849
 20
210.27155883336815
 11
192.1469544371771
 21
208.81731756325786
 12
191.49504504607881
 22
208.90621429840763
 13
191.49504504607881
 23
208.90621429840763
  0
SOLID
  8
_1-7_
  6
CONTINUOUS
 62
    8
 10
195.6458804616849
 20
210.27155883336815
 11
191.49504504607881
 21
208.90621429840763
 12
190.96166463518026
 22
208.95560137349082
 13
190.96166463518026
 23
208.95560137349082
  0
SOLID
  8
_1-7_
  6
CONTINUOUS
 62
    8
 10
195.6458804616849
 20
210.27155883336815
 11
190.96166463518026
 21
208.95560137349082
 12
190.37889714919848
 22
209.01486586359067
 13
190.37889714919848
 23
209.01486586359067
  0
SOLID
  8
_1-7_
  6
CONTINUOUS
 62
    8
 10
195.6458804616849
 20
210.27155883336815
 11
190.37889714919848
 21
209.01486586359067
 12
189.78737986968378
 22
209.0714558928766
 13
189.78737986968378
 23
209.0714558928766
  0
SOLID
  8
_1-7_
  6
CONTINUOUS
 62
    8
 10
189.96636061992129
 20
205.43515178003204
 11
190.53409418422063
 21
205.37867289193952
 12
191.23338207569427
 22
205.29437161827948
 13
191.23338207569427
 23
205.29437161827948
  0
SOLID
  8
_1-7_
  6
CONTINUOUS
 62
    8
 10
189.96636061992129
 20
205.43515178003204
 11
191.23338207569427
 21
205.29437161827948
 12
191.8166141743834
 22
205.20387008572428
 13
191.8166141743834
 23
205.20387008572428
  0
SOLID
  8
_1-7_
  6
CONTINUOUS
 62
    8
 10
189.96636061992129
 20
205.43515178003204
 11
191.8166141743834
 21
205.20387008572428
 12
192.7166016370158
 22
205.07314564981118
 13
192.7166016370158
 23
205.07314564981118
  0
SOLID
  8
_1-7_
  6
CONTINUOUS
 62
    8
 10
189.96636061992129
 20
205.43515178003204
 11
192.7166016370158
 21
205.07314564981118
 12
193.5311154300127
 22
204.91225403637969
 13
193.5311154300127
 23
204.91225403637969
  0
SOLID
  8
_1-7_
  6
CONTINUOUS
 62
    8
 10
189.96636061992129
 20
205.43515178003204
 11
193.5311154300127
 21
204.91225403637969
 12
194.42104716680564
 22
204.74130669710877
 13
194.42104716680564
 23
204.74130669710877
  0
SOLID
  8
_1-7_
  6
CONTINUOUS
 62
    8
 10
189.96636061992129
 20
205.43515178003204
 11
194.42104716680564
 21
204.74130669710877
 12
195.33611821819721
 22
204.54522004323911
 13
195.33611821819721
 23
204.54522004323911
  0
SOLID
  8
_1-7_
  6
CONTINUOUS
 62
    8
 10
189.96636061992129
 20
205.43515178003204
 11
195.33611821819721
 21
204.54522004323911
 12
195.86907168768903
 22
204.41952347024579
 13
195.86907168768903
 23
204.41952347024579
  0
SOLID
  8
_1-7_
  6
CONTINUOUS
 62
    8
 10
189.96636061992129
 20
205.43515178003204
 11
195.86907168768903
 21
204.41952347024579
 12
196.51263814141498
 22
204.25360399389456
 13
196.51263814141498
 23
204.25360399389456
  0
SOLID
  8
_1-7_
  6
CONTINUOUS
 62
    8
 10
189.96636061992129
 20
205.43515178003204
 11
196.51263814141498
 21
204.25360399389456
 12
197.22156681309747
 22
204.05248947710518
 13
197.22156681309747
 23
204.05248947710518
  0
SOLID
  8
_1-7_
  6
CONTINUOUS
 62
    8
 10
189.96636061992129
 20
205.43515178003204
 11
197.22156681309747
 21
204.05248947710518
 12
197.91541189602077
 22
203.85137496031584
 13
197.91541189602077
 23
203.85137496031584
  0
SOLID
  8
_1-7_
  6
CONTINUOUS
 62
    8
 10
189.96636061992129
 20
205.43515178003204
 11
197.91541189602077
 21
203.85137496031584
 12
198.60949770085693
 22
203.63799591225154
 13
198.60949770085693
 23
203.63799591225154
  0
SOLID
  8
_1-7_
  6
CONTINUOUS
 62
    8
 10
189.96636061992129
 20
205.43515178003204
 11
198.60949770085693
 21
203.63799591225154
 12
199.00831876781666
 22
201.64389057745296
 13
199.00831876781666
 23
201.64389057745296
  0
SOLID
  8
_1-7_
  6
CONTINUOUS
 62
    8
 10
189.96636061992129
 20
205.43515178003204
 11
199.00831876781666
 21
201.64389057745296
 12
197.9355233476997
 22
201.87542483286038
 13
197.9355233476997
 23
201.87542483286038
  0
SOLID
  8
_1-7_
  6
CONTINUOUS
 62
    8
 10
189.96636061992129
 20
205.43515178003204
 11
197.9355233476997
 21
201.87542483286038
 12
196.92995076375288
 22
202.09162293840893
 13
196.92995076375288
 23
202.09162293840893
  0
SOLID
  8
_1-7_
  6
CONTINUOUS
 62
    8
 10
189.96636061992129
 20
205.43515178003204
 11
196.92995076375288
 21
202.09162293840893
 12
195.79868160681275
 22
202.28770959227856
 13
195.79868160681275
 23
202.28770959227856
  0
SOLID
  8
_1-7_
  6
CONTINUOUS
 62
    8
 10
189.96636061992129
 20
205.43515178003204
 11
195.79868160681275
 21
202.28770959227856
 12
194.24507196461494
 22
202.54413060118497
 13
194.24507196461494
 23
202.54413060118497
  0
SOLID
  8
_1-7_
  6
CONTINUOUS
 62
    8
 10
189.96636061992129
 20
205.43515178003204
 11
194.24507196461494
 21
202.54413060118497
 12
193.17413716271159
 22
202.69496648877703
 13
193.17413716271159
 23
202.69496648877703
  0
SOLID
  8
_1-7_
  6
CONTINUOUS
 62
    8
 10
189.96636061992129
 20
205.43515178003204
 11
193.17413716271159
 21
202.69496648877703
 12
192.23392679672133
 22
202.80557947301116
 13
192.23392679672133
 23
202.80557947301116
  0
SOLID
  8
_1-7_
  6
CONTINUOUS
 62
    8
 10
189.96636061992129
 20
205.43515178003204
 11
192.23392679672133
 21
202.80557947301116
 12
191.48477522168096
 22
202.87596955388744
 13
191.48477522168096
 23
202.87596955388744
  0
SOLID
  8
_1-7_
  6
CONTINUOUS
 62
    8
 10
189.96636061992129
 20
205.43515178003204
 11
191.48477522168096
 21
202.87596955388744
 12
191.00712824430622
 22
202.93127604600451
 13
191.00712824430622
 23
202.93127604600451
  0
SOLID
  8
_1-7_
  6
CONTINUOUS
 62
    8
 10
189.96636061992129
 20
205.43515178003204
 11
191.00712824430622
 21
202.93127604600451
 12
190.71998267630244
 22
202.95645062706433
 13
190.71998267630244
 23
202.95645062706433
  0
SOLID
  8
_1-7_
  6
CONTINUOUS
 62
    8
 10
189.96636061992129
 20
205.43515178003204
 11
190.71998267630244
 21
202.95645062706433
 12
190.40621858672503
 22
199.3701488829156
 13
190.40621858672503
 23
199.3701488829156
  0
SOLID
  8
_1-7_
  6
CONTINUOUS
 62
    8
 10
191.97750578781489
 20
199.19557389664214
 11
192.68140659657766
 21
199.10507236408694
 12
193.25458296942733
 22
199.02462655737119
 13
193.25458296942733
 23
199.02462655737119
  0
SOLID
  8
_1-7_
  6
CONTINUOUS
 62
    8
 10
191.97750578781489
 20
199.19557389664214
 11
193.25458296942733
 21
199.02462655737119
 12
194.04395744782556
 22
198.8939021214581
 13
194.04395744782556
 23
198.8939021214581
  0
SOLID
  8
_1-7_
  6
CONTINUOUS
 62
    8
 10
191.97750578781489
 20
199.19557389664214
 11
194.04395744782556
 21
198.8939021214581
 12
195.70042302172044
 22
198.55519845489027
 13
195.70042302172044
 23
198.55519845489027
  0
SOLID
  8
_1-7_
  6
CONTINUOUS
 62
    8
 10
191.97750578781489
 20
199.19557389664214
 11
195.70042302172044
 21
198.55519845489027
 12
196.86264942134386
 22
198.29895956363472
 13
196.86264942134386
 23
198.29895956363472
  0
SOLID
  8
_1-7_
  6
CONTINUOUS
 62
    8
 10
191.97750578781489
 20
199.19557389664214
 11
196.86264942134386
 21
198.29895956363472
 12
197.82354526355221
 22
198.02441789443233
 13
197.82354526355221
 23
198.02441789443233
  0
SOLID
  8
_1-7_
  6
CONTINUOUS
 62
    8
 10
191.97750578781489
 20
199.19557389664214
 11
197.82354526355221
 21
198.02441789443233
 12
198.82104666165421
 22
197.74072483625656
 13
198.82104666165421
 23
197.74072483625656
  0
SOLID
  8
_1-7_
  6
CONTINUOUS
 62
    8
 10
191.97750578781489
 20
199.19557389664214
 11
198.82104666165421
 21
197.74072483625656
 12
199.7544883369423
 22
197.42957761116051
 13
199.7544883369423
 23
197.42957761116051
  0
SOLID
  8
_1-7_
  6
CONTINUOUS
 62
    8
 10
191.97750578781489
 20
199.19557389664214
 11
199.7544883369423
 21
197.42957761116051
 12
200.77029251299115
 22
197.09097621914424
 13
200.77029251299115
 23
197.09097621914424
  0
SOLID
  8
_1-7_
  6
CONTINUOUS
 62
    8
 10
191.97750578781489
 20
199.19557389664214
 11
200.77029251299115
 21
197.09097621914424
 12
201.45775555472756
 22
196.85371673766494
 13
201.45775555472756
 23
196.85371673766494
  0
SOLID
  8
_1-7_
  6
CONTINUOUS
 62
    8
 10
191.97750578781489
 20
199.19557389664214
 11
201.45775555472756
 21
196.85371673766494
 12
182.69291233372044
 22
198.36385823951204
 13
182.69291233372044
 23
198.36385823951204
  0
SOLID
  8
_1-7_
  6
CONTINUOUS
 62
    8
 10
184.99291497307857
 20
209.4423501756288
 11
195.6458804616849
 21
210.27155883336815
 12
189.78737986968378
 22
209.0714558928766
 13
189.78737986968378
 23
209.0714558928766
  0
SOLID
  8
_1-7_
  6
CONTINUOUS
 62
    8
 10
184.99291497307857
 20
209.4423501756288
 11
189.78737986968378
 21
209.0714558928766
 12
189.47361789521321
 22
205.48515396367998
 13
189.47361789521321
 23
205.48515396367998
  0
SOLID
  8
_1-7_
  6
CONTINUOUS
 62
    8
 10
189.47361789521321
 20
205.48515396367998
 11
189.96636061992129
 21
205.43515178003204
 12
190.40621858672503
 22
199.3701488829156
 13
190.40621858672503
 23
199.3701488829156
  0
SOLID
  8
_1-7_
  6
CONTINUOUS
 62
    8
 10
191.31382788241001
 20
199.27601970335789
 11
191.97750578781489
 21
199.19557389664214
 12
182.69291233372044
 22
198.36385823951204
 13
182.69291233372044
 23
198.36385823951204
  0
SOLID
  8
_1-7_
  6
CONTINUOUS
 62
    8
 10
184.99291497307857
 20
209.4423501756288
 11
189.47361789521321
 21
205.48515396367998
 12
190.40621858672503
 22
199.3701488829156
 13
190.40621858672503
 23
199.3701488829156
  0
SOLID
  8
_1-7_
  6
CONTINUOUS
 62
    8
 10
190.84120876795501
 20
199.34138192131445
 11
191.31382788241001
 21
199.27601970335789
 12
182.69291233372044
 22
198.36385823951204
 13
182.69291233372044
 23
198.36385823951204
  0
SOLID
  8
_1-7_
  6
CONTINUOUS
 62
    8
 10
190.40621858672503
 20
199.3701488829156
 11
190.84120876795501
 21
199.34138192131445
 12
182.69291233372044
 22
198.36385823951204
 13
182.69291233372044
 23
198.36385823951204
  0
SOLID
  8
_1-7_
  6
CONTINUOUS
 62
    8
 10
190.40621858672503
 20
199.3701488829156
 11
182.69291233372044
 21
198.36385823951204
 12
185.59291942699537
 22
203.03479699256292
 13
185.59291942699537
 23
203.03479699256292
  0
SOLID
  8
_1-7_
  6
CONTINUOUS
 62
    8
 10
190.40621858672503
 20
199.3701488829156
 11
185.59291942699537
 21
203.03479699256292
 12
185.59291942699537
 22
208.02654899847505
 13
185.59291942699537
 23
208.02654899847505
  0
SOLID
  8
_1-7_
  6
CONTINUOUS
 62
    8
 10
185.59291942699537
 20
208.02654899847505
 11
184.99291497307857
 21
208.02654899847505
 12
184.99291497307857
 22
209.4423501756288
 13
184.99291497307857
 23
209.4423501756288
  0
SOLID
  8
_1-7_
  6
CONTINUOUS
 62
    8
 10
185.59291942699537
 20
208.02654899847505
 11
184.99291497307857
 21
209.4423501756288
 12
190.40621858672503
 22
199.3701488829156
 13
190.40621858672503
 23
199.3701488829156
  0
SOLID
  8
_1-7_
  6
CONTINUOUS
 62
    8
 10
191.71657649007236
 20
221.64261626919006
 11
191.92398212294259
 21
220.60558810483889
 12
190.7743528829298
 22
220.76852009784517
 13
190.7743528829298
 23
220.76852009784517
  0
SOLID
  8
_1-7_
  6
CONTINUOUS
 62
    8
 10
191.71657649007236
 20
221.64261626919006
 11
190.7743528829298
 21
220.76852009784517
 12
189.45493818228596
 22
220.90237376312788
 13
189.45493818228596
 23
220.90237376312788
  0
SOLID
  8
_1-7_
  6
CONTINUOUS
 62
    8
 10
191.71657649007236
 20
221.64261626919006
 11
189.45493818228596
 21
220.90237376312788
 12
188.61108328674169
 22
221.02744754901536
 13
188.61108328674169
 23
221.02744754901536
  0
SOLID
  8
_1-7_
  6
CONTINUOUS
 62
    8
 10
191.71657649007236
 20
221.64261626919006
 11
188.61108328674169
 21
221.02744754901536
 12
187.91401616182415
 22
221.09252758914357
 13
187.91401616182415
 23
221.09252758914357
  0
SOLID
  8
_1-7_
  6
CONTINUOUS
 62
    8
 10
188.55620642967347
 20
217.42217846577745
 11
189.44777828499741
 21
217.3029189465226
 12
190.14861006497995
 22
217.19530811628891
 13
190.14861006497995
 23
217.19530811628891
  0
SOLID
  8
_1-7_
  6
CONTINUOUS
 62
    8
 10
188.55620642967347
 20
217.42217846577745
 11
190.14861006497995
 21
217.19530811628891
 12
190.88381890037812
 22
217.08363082483601
 13
190.88381890037812
 23
217.08363082483601
  0
SOLID
  8
_1-7_
  6
CONTINUOUS
 62
    8
 10
188.55620642967347
 20
217.42217846577745
 11
190.88381890037812
 21
217.08363082483601
 12
191.57869982497388
 22
216.96264709242871
 13
191.57869982497388
 23
216.96264709242871
  0
SOLID
  8
_1-7_
  6
CONTINUOUS
 62
    8
 10
188.55620642967347
 20
217.42217846577745
 11
191.57869982497388
 21
216.96264709242871
 12
192.37905374705292
 22
216.80753974318858
 13
192.37905374705292
 23
216.80753974318858
  0
SOLID
  8
_1-7_
  6
CONTINUOUS
 62
    8
 10
188.55620642967347
 20
217.42217846577745
 11
192.37905374705292
 21
216.80753974318858
 12
193.05852529871606
 22
216.6607160284174
 13
193.05852529871606
 23
216.6607160284174
  0
SOLID
  8
_1-7_
  6
CONTINUOUS
 62
    8
 10
188.55620642967347
 20
217.42217846577745
 11
193.05852529871606
 21
216.6607160284174
 12
193.48234659900183
 22
214.54160952698862
 13
193.48234659900183
 23
214.54160952698862
  0
SOLID
  8
_1-7_
  6
CONTINUOUS
 62
    8
 10
188.55620642967347
 20
217.42217846577745
 11
193.48234659900183
 21
214.54160952698862
 12
191.89229895655865
 22
214.78308662109561
 13
191.89229895655865
 23
214.78308662109561
  0
SOLID
  8
_1-7_
  6
CONTINUOUS
 62
    8
 10
188.55620642967347
 20
217.42217846577745
 11
191.89229895655865
 21
214.78308662109561
 12
190.78753155958879
 22
214.92429749138498
 13
190.78753155958879
 23
214.92429749138498
  0
SOLID
  8
_1-7_
  6
CONTINUOUS
 62
    8
 10
188.55620642967347
 20
217.42217846577745
 11
190.78753155958879
 21
214.92429749138498
 12
189.77413590221792
 22
215.04058879632919
 13
189.77413590221792
 23
215.04058879632919
  0
SOLID
  8
_1-7_
  6
CONTINUOUS
 62
    8
 10
188.55620642967347
 20
217.42217846577745
 11
189.77413590221792
 21
215.04058879632919
 12
188.64968868118081
 22
215.1624469388542
 13
188.64968868118081
 23
215.1624469388542
  0
SOLID
  8
_1-7_
  6
CONTINUOUS
 62
    8
 10
188.55620642967347
 20
217.42217846577745
 11
188.64968868118081
 21
215.1624469388542
 12
188.33592670671024
 22
211.57614500965758
 13
188.33592670671024
 23
211.57614500965758
  0
SOLID
  8
_1-7_
  6
CONTINUOUS
 62
    8
 10
188.55620642967347
 20
217.42217846577745
 11
188.33592670671024
 21
211.57614500965758
 12
182.4929190970756
 22
209.4423501756288
 13
182.4929190970756
 23
209.4423501756288
  0
SOLID
  8
_1-7_
  6
CONTINUOUS
 62
    8
 10
182.4929190970756
 20
209.4423501756288
 11
182.4929190970756
 21
222.62015008009683
 12
184.36127103466839
 22
222.55333169676447
 13
184.36127103466839
 23
222.55333169676447
  0
SOLID
  8
_1-7_
  6
CONTINUOUS
 62
    8
 10
182.4929190970756
 20
209.4423501756288
 11
184.36127103466839
 21
222.55333169676447
 12
185.60384381635365
 22
222.48723739986633
 13
185.60384381635365
 23
222.48723739986633
  0
SOLID
  8
_1-7_
  6
CONTINUOUS
 62
    8
 10
182.4929190970756
 20
209.4423501756288
 11
185.60384381635365
 21
222.48723739986633
 12
186.81997887927963
 22
222.38148652482931
 13
186.81997887927963
 23
222.38148652482931
  0
SOLID
  8
_1-7_
  6
CONTINUOUS
 62
    8
 10
182.4929190970756
 20
209.4423501756288
 11
186.81997887927963
 21
222.38148652482931
 12
188.08898937972413
 22
222.23607907165336
 13
188.08898937972413
 23
222.23607907165336
  0
SOLID
  8
_1-7_
  6
CONTINUOUS
 62
    8
 10
188.08898937972413
 20
222.23607907165336
 11
189.50340733334457
 21
222.05101504033854
 12
190.85173099006687
 22
221.81307557150518
 13
190.85173099006687
 23
221.81307557150518
  0
SOLID
  8
_1-7_
  6
CONTINUOUS
 62
    8
 10
188.08898937972413
 20
222.23607907165336
 11
190.85173099006687
 21
221.81307557150518
 12
191.71657649007236
 22
221.64261626919006
 13
191.71657649007236
 23
221.64261626919006
  0
SOLID
  8
_1-7_
  6
CONTINUOUS
 62
    8
 10
188.08898937972413
 20
222.23607907165336
 11
191.71657649007236
 21
221.64261626919006
 12
187.91401616182415
 22
221.09252758914357
 13
187.91401616182415
 23
221.09252758914357
  0
SOLID
  8
_1-7_
  6
CONTINUOUS
 62
    8
 10
187.60025156955993
 20
217.50622588897428
 11
188.55620642967347
 21
217.42217846577745
 12
182.4929190970756
 22
209.4423501756288
 13
182.4929190970756
 23
209.4423501756288
  0
SOLID
  8
_1-7_
  6
CONTINUOUS
 62
    8
 10
182.4929190970756
 20
209.4423501756288
 11
188.08898937972413
 21
222.23607907165336
 12
187.91401616182415
 22
221.09252758914357
 13
187.91401616182415
 23
221.09252758914357
  0
SOLID
  8
_1-7_
  6
CONTINUOUS
 62
    8
 10
182.4929190970756
 20
209.4423501756288
 11
187.91401616182415
 21
221.09252758914357
 12
187.60025156955993
 22
217.50622588897428
 13
187.60025156955993
 23
217.50622588897428
  0
LINE
  8
_1-7_
  6
CONTINUOUS
 62
    7
 10
181.4928910538959
 20
222.62015008009686
 11
181.4928910538957
 21
209.4423501756288
  0
LINE
  8
_1-7_
  6
CONTINUOUS
 62
    7
 10
182.4929190970756
 20
209.4423501756288
 11
182.4929190970756
 21
222.62015008009683
  0
LINE
  8
_1-2_
  6
CONTINUOUS
 62
    7
 10
180.93761030758469
 20
207.59701808043695
 11
162.06398720950799
 21
242.26890116121035
  0
LINE
  8
_1-2_
  6
CONTINUOUS
 62
    7
 10
162.06398720950799
 20
242.26890116121035
 11
158.99455806967481
 21
242.26890116121035
  0
TEXT
  8
_1-2_
 62
    7
 10
138.59402258719064
 20
241.06587082888512
 40
2.5
 41
1
 50
0
  1
棟補強芯材40ｘ40
  0
SOLID
  8
_1-7_
  6
CONTINUOUS
 62
    8
 10
177.39288742477831
 20
176.64925652581294
 11
177.39288742477831
 21
167.68943580421242
 12
181.29289781725086
 22
176.64925652581294
 13
181.29289781725086
 23
169.44444469645561
  0
LINE
  8
_1-2_
  6
CONTINUOUS
 62
    7
 10
182.69291233372044
 20
176.64925652581294
 11
182.69291233372044
 21
169.44443986222552
  0
LINE
  8
_1-2_
  6
CONTINUOUS
 62
    7
 10
186.592922726193
 20
176.64925652581294
 11
186.592922726193
 21
167.68943580421242
  0
LINE
  8
_1-0_
  6
CONTINUOUS
 62
    7
 10
184.89564802736749
 20
167.79528509745631
 11
182.99057006835937
 21
168.65257056983742
  0
SOLID
  8
_1-7_
  6
CONTINUOUS
 62
    8
 10
186.592922726193
 20
176.64925652581294
 11
186.592922726193
 21
167.68943580421242
 12
182.69291233372044
 22
176.64925652581294
 13
182.69291233372044
 23
169.44444469645561
  0
ENDSEC
  0
EOF
