0
SECTION
2
HEADER
  9
$EXTMIN
10
0
20
0
30
0
  9
$EXTMAX
10
1552.703
20
1138.784
30
0
  9
$LTSCALE
40
5.000
  9
$DIMSCALE
40
5.000
  9
$PDMODE
70
0
  9
$PDSIZE
40
40
0
ENDSEC
0
SECTION
2
TABLES
0
TABLE
2
LTYPE
70
9
0
LTYPE
5
1f4
2
CONTINUOUS
70
0
3
実線
72
65
73
0
40
0.0
0
LTYPE
5
1f5
2
DOT
70
0
3
--  --  --  --  --  --  --  --     
72
65
73
2
40
5.000
49
1.000
49
-4.000
0
LTYPE
5
1f6
2
DASHED
70
0
3
----    ----    ----    ----    
72
65
73
2
40
5.000
49
2.000
49
-3.000
0
LTYPE
5
1f7
2
DASHED2
70
0
3
------  ------  ------  ------ 
72
65
73
2
40
10.000
49
4.000
49
-6.000
0
LTYPE
5
1f8
2
CENTER
70
0
3
----- - ----- - ----- - ----- - 
72
65
73
4
40
9.000
49
6.000
49
-1.000
49
1.000
49
-1.000
0
LTYPE
5
1f9
2
CENTER2
70
0
3
----------  --  ----------  -- 
72
65
73
4
40
18.000
49
12.000
49
-2.000
49
2.000
49
-2.000
0
LTYPE
5
1fa
2
PHANTOM
70
0
3
--- - - --- - - --- - - --- - -
72
65
73
6
40
10.000
49
5.000
49
-1.000
49
1.000
49
-1.000
49
1.000
49
-1.000
0
LTYPE
5
1fb
2
PHANTOM2
70
0
3
--------  -  -  --------  -  -
72
65
73
6
40
16.000
49
6.000
49
-2.000
49
2.000
49
-2.000
49
2.000
49
-2.000
0
LTYPE
5
1fc
2
HIDDEN
70
0
3
-   -   -   -   -   -   -   -   
72
65
73
2
40
2.500
49
0.500
49
-2.000
0
ENDTAB
0
TABLE
2
STYLE
70
1
0
STYLE
5
1fd
100
AcDbSymbolTableRecord
100
AcDbTextStyleTableRecord
2
STANDARD
70
0
40
0.0
41
1.0
50
0.0
71
0
42
0.0
3
txt.shx
4
extfont.shx
0
STYLE
5
1fe
100
AcDbSymbolTableRecord
100
AcDbTextStyleTableRecord
2
TATEGAKI
70
4
40
0.0
41
1.0
50
0.0
71
0
42
0.0
3
txt.shx
4
extfont.shx
0
STYLE
5
1ff
100
AcDbSymbolTableRecord
100
AcDbTextStyleTableRecord
2
MT
70
0
40
0.0
41
1.0
50
0.0
71
0
42
0.0
3
MS Mincho
4

0
STYLE
5
200
100
AcDbSymbolTableRecord
100
AcDbTextStyleTableRecord
2
TMT
70
4
40
0.0
41
1.0
50
0.0
71
0
42
0.0
3
@MS Mincho
4

0
ENDTAB
0
TABLE
2
LAYER
5
48c6
100
AcDbSymbolTable
70
10
0
LAYER
5
48c7
100
AcDbSymbolTableRecord
100
AcDbLayerTableRecord
2
0
70
64
62
  7
  6
CONTINUOUS
0
LAYER
5
48c8
100
AcDbSymbolTableRecord
100
AcDbLayerTableRecord
2
0-0
70
64
62
  7
  6
CONTINUOUS
0
LAYER
5
48c9
100
AcDbSymbolTableRecord
100
AcDbLayerTableRecord
2
0-1
70
64
62
  7
  6
CONTINUOUS
0
LAYER
5
48ca
100
AcDbSymbolTableRecord
100
AcDbLayerTableRecord
2
0-2
70
64
62
  7
  6
CONTINUOUS
0
LAYER
5
48cb
100
AcDbSymbolTableRecord
100
AcDbLayerTableRecord
2
ADD_LINE
70
64
62
  -7
  6
CONTINUOUS
0
ENDTAB
0
ENDSEC
0
SECTION
2
ENTITIES
0
LINE
5
48cc
8
0-0
6
CONTINUOUS
62
  7
10
634.189
20
1133.784
30
0.0
11
1049.189
21
1138.784
31
0.0
0
LINE
5
48cd
8
0-0
6
CONTINUOUS
62
  7
10
1049.189
20
928.784
30
0.0
11
634.189
21
933.784
31
0.0
0
LINE
5
48ce
8
0-0
6
CONTINUOUS
62
  7
10
634.189
20
1133.784
30
0.0
11
539.189
21
1033.784
31
0.0
0
LINE
5
48cf
8
0-0
6
CONTINUOUS
62
  7
10
655.118
20
1134.036
30
0.0
11
559.879
21
1033.784
31
0.0
0
LINE
5
48d0
8
0-0
6
CONTINUOUS
62
  7
10
559.879
20
1033.784
30
0.0
11
655.118
21
933.532
31
0.0
0
LINE
5
48d1
8
0-0
6
CONTINUOUS
62
  7
10
1022.634
20
944.105
30
0.0
11
619.773
21
948.959
31
0.0
0
LINE
5
48d2
8
0-0
6
CONTINUOUS
62
  7
10
1026.722
20
939.055
30
0.0
11
624.578
21
943.900
31
0.0
0
LINE
5
48d3
8
0-0
6
CONTINUOUS
62
  7
10
1049.189
20
1138.784
30
0.0
11
634.189
21
1133.784
31
0.0
0
LINE
5
48d4
8
0-0
6
CONTINUOUS
62
  7
10
1022.634
20
1123.463
30
0.0
11
619.773
21
1118.609
31
0.0
0
LINE
5
48d5
8
0-0
6
CONTINUOUS
62
  7
10
1026.722
20
1128.512
30
0.0
11
624.578
21
1123.667
31
0.0
0
LINE
5
48d6
8
0-0
6
CONTINUOUS
62
  7
10
956.658
20
1025.604
30
0.0
11
1034.897
21
928.956
31
0.0
0
LINE
5
48d7
8
0-0
6
CONTINUOUS
62
  7
10
956.658
20
1041.964
30
0.0
11
1034.897
21
1138.612
31
0.0
0
LINE
5
48d8
8
0-0
6
CONTINUOUS
62
  7
10
967.755
20
1038.188
30
0.0
11
1049.189
21
1138.784
31
0.0
0
LINE
5
48d9
8
0-0
6
CONTINUOUS
62
  7
10
967.755
20
1029.380
30
0.0
11
1049.189
21
928.784
31
0.0
0
LINE
5
48da
8
0-0
6
CONTINUOUS
62
  7
10
960.518
20
1041.964
30
0.0
11
1038.795
21
1138.659
31
0.0
0
LINE
5
48db
8
0-0
6
CONTINUOUS
62
  7
10
960.518
20
1025.604
30
0.0
11
1038.795
21
928.909
31
0.0
0
LINE
5
48dc
8
0-0
6
CONTINUOUS
62
  7
10
539.189
20
606.351
30
0.0
11
539.189
21
588.351
31
0.0
0
LINE
5
48dd
8
0-0
6
CONTINUOUS
62
  7
10
539.189
20
588.351
30
0.0
11
634.189
21
551.351
31
0.0
0
LINE
5
48de
8
0-0
6
CONTINUOUS
62
  7
10
539.189
20
606.351
30
0.0
11
564.189
21
613.351
31
0.0
0
LINE
5
48df
8
0-0
6
CONTINUOUS
62
  7
10
634.189
20
566.351
30
0.0
11
644.189
21
569.351
31
0.0
0
LINE
5
48e0
8
0-0
6
CONTINUOUS
62
  7
10
634.189
20
566.351
30
0.0
11
634.189
21
551.351
31
0.0
0
LINE
5
48e1
8
0-0
6
CONTINUOUS
62
  7
10
644.189
20
569.090
30
0.0
11
644.189
21
551.351
31
0.0
0
LINE
5
48e2
8
0-0
6
CONTINUOUS
62
  7
10
644.939
20
579.351
30
0.0
11
617.564
21
573.351
31
0.0
0
LINE
5
48e3
8
0-0
6
CONTINUOUS
62
  7
10
564.189
20
613.351
30
0.0
11
644.939
21
579.351
31
0.0
0
LINE
5
48e4
8
0-0
6
CONTINUOUS
62
  7
10
646.942
20
576.351
30
0.0
11
622.936
21
571.090
31
0.0
0
LINE
5
48e5
8
0-0
6
CONTINUOUS
62
  7
10
617.564
20
573.351
30
0.0
11
539.189
21
606.351
31
0.0
0
LINE
5
48e6
8
0-0
6
CONTINUOUS
62
  7
10
634.189
20
566.351
30
0.0
11
622.936
21
571.090
31
0.0
0
LINE
5
48e7
8
0-0
6
CONTINUOUS
62
  7
10
644.189
20
569.351
30
0.0
11
652.064
21
576.351
31
0.0
0
LINE
5
48e8
8
0-0
6
CONTINUOUS
62
  7
10
644.189
20
569.351
30
0.0
11
1029.189
21
569.351
31
0.0
0
LINE
5
48e9
8
0-0
6
CONTINUOUS
62
  7
10
1037.189
20
576.351
30
0.0
11
1029.189
21
569.351
31
0.0
0
LINE
5
48ea
8
0-0
6
CONTINUOUS
62
  7
10
564.189
20
613.351
30
0.0
11
692.189
21
613.351
31
0.0
0
LINE
5
48eb
8
0-0
6
CONTINUOUS
62
  7
10
1025.531
20
576.351
30
0.0
11
1029.189
21
569.351
31
0.0
0
LINE
5
48ec
8
0-0
6
CONTINUOUS
62
  7
10
646.942
20
576.351
30
0.0
11
1025.531
21
576.351
31
0.0
0
LINE
5
48ed
8
0-0
6
CONTINUOUS
62
  7
10
644.939
20
579.351
30
0.0
11
1018.354
21
579.351
31
0.0
0
LINE
5
48ee
8
0-0
6
CONTINUOUS
62
  7
10
966.195
20
613.351
30
0.0
11
966.195
21
613.041
31
0.0
0
LINE
5
48ef
8
0-0
6
CONTINUOUS
62
  7
10
960.694
20
608.327
30
0.0
11
1037.189
21
576.351
31
0.0
0
LINE
5
48f0
8
0-0
6
CONTINUOUS
62
  7
10
957.875
20
604.632
30
0.0
11
1018.354
21
579.351
31
0.0
0
LINE
5
48f1
8
0-0
6
CONTINUOUS
62
  7
10
951.328
20
606.417
30
0.0
11
692.189
21
613.351
31
0.0
0
LINE
5
48f2
8
0-0
6
CONTINUOUS
62
  7
10
957.052
20
612.317
30
0.0
11
954.938
21
608.484
31
0.0
0
LINE
5
48f3
8
0-0
6
CONTINUOUS
62
  7
10
958.803
20
613.351
30
0.0
11
966.195
21
613.351
31
0.0
0
LINE
5
48f4
8
0-0
6
CONTINUOUS
62
  7
10
1047.961
20
576.865
30
0.0
11
968.038
21
610.273
31
0.0
0
LINE
5
48f5
8
0-0
6
CONTINUOUS
62
  7
10
1037.189
20
576.351
30
0.0
11
1048.681
21
576.351
31
0.0
0
LINE
5
48f6
8
0-0
6
CONTINUOUS
62
  7
10
1049.189
20
575.020
30
0.0
11
1049.189
21
551.351
31
0.0
0
LINE
5
48f7
8
0-0
6
CONTINUOUS
62
  7
10
1465.784
20
928.784
30
0.0
11
1483.784
21
928.784
31
0.0
0
LINE
5
48f8
8
0-0
6
CONTINUOUS
62
  7
10
1479.784
20
943.784
30
0.0
11
1483.784
21
928.784
31
0.0
0
LINE
5
48f9
8
0-0
6
CONTINUOUS
62
  7
10
1479.784
20
943.784
30
0.0
11
1475.784
21
947.784
31
0.0
0
LINE
5
48fa
8
0-0
6
CONTINUOUS
62
  7
10
1465.784
20
1138.784
30
0.0
11
1483.784
21
1138.784
31
0.0
0
LINE
5
48fb
8
0-0
6
CONTINUOUS
62
  7
10
1479.784
20
1123.784
30
0.0
11
1483.784
21
1138.784
31
0.0
0
LINE
5
48fc
8
0-0
6
CONTINUOUS
62
  7
10
1479.784
20
1123.784
30
0.0
11
1475.784
21
1119.784
31
0.0
0
LINE
5
48fd
8
0-0
6
CONTINUOUS
62
  7
10
1475.784
20
1119.784
30
0.0
11
1439.746
21
1033.784
31
0.0
0
LINE
5
48fe
8
0-0
6
CONTINUOUS
62
  7
10
1475.784
20
947.784
30
0.0
11
1439.746
21
1033.784
31
0.0
0
LINE
5
48ff
8
0-0
6
CONTINUOUS
62
  7
10
1465.784
20
1138.784
30
0.0
11
1483.784
21
1138.784
31
0.0
0
LINE
5
4900
8
0-0
6
CONTINUOUS
62
  7
10
1421.784
20
1033.784
30
0.0
11
1459.498
21
943.784
31
0.0
0
LINE
5
4901
8
0-0
6
CONTINUOUS
62
  7
10
1461.593
20
938.784
30
0.0
11
1465.784
21
928.784
31
0.0
0
LINE
5
4902
8
0-0
6
CONTINUOUS
62
  7
10
1465.784
20
1138.784
30
0.0
11
1461.593
21
1128.784
31
0.0
0
LINE
5
4903
8
0-0
6
CONTINUOUS
62
  7
10
1459.498
20
1123.784
30
0.0
11
1421.784
21
1033.784
31
0.0
0
LINE
5
4904
8
0-0
6
CONTINUOUS
62
  7
10
1421.784
20
1033.784
30
0.0
11
1459.498
21
1123.784
31
0.0
0
LINE
5
4905
8
0-0
6
CONTINUOUS
62
  7
10
1461.593
20
1128.784
30
0.0
11
1465.784
21
1138.784
31
0.0
0
LINE
5
4906
8
0-2
6
CONTINUOUS
62
  7
10
539.189
20
782.432
30
0.0
11
1049.189
21
782.432
31
0.0
0
LINE
5
4907
8
0-2
6
CONTINUOUS
62
  7
10
539.189
20
875.676
30
0.0
11
539.189
21
782.432
31
0.0
0
LINE
5
4908
8
0-2
6
CONTINUOUS
62
  7
10
1049.189
20
875.676
30
0.0
11
1049.189
21
782.432
31
0.0
0
LINE
5
4909
8
0-2
6
CONTINUOUS
62
  7
10
539.189
20
835.135
30
0.0
11
966.195
21
835.135
31
0.0
0
LINE
5
490a
8
0-2
6
CONTINUOUS
62
  7
10
539.189
20
875.676
30
0.0
11
539.189
21
835.135
31
0.0
0
LINE
5
490b
8
0-2
6
CONTINUOUS
62
  7
10
966.195
20
875.676
30
0.0
11
966.195
21
835.135
31
0.0
0
LINE
5
490c
8
0-2
6
CONTINUOUS
62
  7
10
1421.784
20
782.432
30
0.0
11
1483.784
21
782.432
31
0.0
0
LINE
5
490d
8
0-2
6
CONTINUOUS
62
  7
10
1421.784
20
875.676
30
0.0
11
1421.784
21
782.432
31
0.0
0
LINE
5
490e
8
0-2
6
CONTINUOUS
62
  7
10
1483.784
20
875.676
30
0.0
11
1483.784
21
782.432
31
0.0
0
LINE
5
490f
8
0-2
6
CONTINUOUS
62
  7
10
1421.784
20
835.135
30
0.0
11
1465.784
21
835.135
31
0.0
0
LINE
5
4910
8
0-2
6
CONTINUOUS
62
  7
10
1421.784
20
875.676
30
0.0
11
1421.784
21
835.135
31
0.0
0
LINE
5
4911
8
0-2
6
CONTINUOUS
62
  7
10
1465.784
20
875.676
30
0.0
11
1465.784
21
835.135
31
0.0
0
LINE
5
4912
8
0-2
6
CONTINUOUS
62
  7
10
1465.784
20
835.135
30
0.0
11
1483.784
21
835.135
31
0.0
0
LINE
5
4913
8
0-2
6
CONTINUOUS
62
  7
10
1483.784
20
875.676
30
0.0
11
1483.784
21
835.135
31
0.0
0
LINE
5
4914
8
0-2
6
CONTINUOUS
62
  7
10
539.189
20
417.568
30
0.0
11
1049.189
21
417.568
31
0.0
0
LINE
5
4915
8
0-2
6
CONTINUOUS
62
  7
10
539.189
20
498.649
30
0.0
11
539.189
21
417.568
31
0.0
0
LINE
5
4916
8
0-2
6
CONTINUOUS
62
  7
10
1049.189
20
498.649
30
0.0
11
1049.189
21
417.568
31
0.0
0
LINE
5
4917
8
0-2
6
CONTINUOUS
62
  7
10
389.189
20
933.784
30
0.0
11
389.189
21
1133.784
31
0.0
0
LINE
5
4918
8
0-2
6
CONTINUOUS
62
  7
10
502.703
20
933.784
30
0.0
11
389.189
21
933.784
31
0.0
0
LINE
5
4919
8
0-2
6
CONTINUOUS
62
  7
10
502.703
20
1133.784
30
0.0
11
389.189
21
1133.784
31
0.0
0
LINE
5
491a
8
0-0
6
CONTINUOUS
62
  7
10
634.189
20
551.351
30
0.0
11
1049.189
21
551.351
31
0.0
0
LINE
5
491b
8
0-2
6
CONTINUOUS
62
  7
10
389.189
20
551.351
30
0.0
11
389.189
21
613.351
31
0.0
0
LINE
5
491c
8
0-2
6
CONTINUOUS
62
  7
10
502.703
20
551.351
30
0.0
11
389.189
21
551.351
31
0.0
0
LINE
5
491d
8
0-2
6
CONTINUOUS
62
  7
10
502.703
20
613.351
30
0.0
11
389.189
21
613.351
31
0.0
0
LINE
5
491e
8
0-2
6
CONTINUOUS
62
  7
10
788.514
20
551.351
30
0.0
11
788.514
21
569.351
31
0.0
0
LINE
5
491f
8
0-0
6
CONTINUOUS
62
  7
10
756.707
20
551.351
30
0.0
11
788.514
21
551.351
31
0.0
0
LINE
5
4920
8
0-0
6
CONTINUOUS
62
  7
10
756.707
20
569.351
30
0.0
11
788.514
21
569.351
31
0.0
0
LINE
5
4921
8
0-0
6
CONTINUOUS
62
  7
10
539.189
20
1033.784
30
0.0
11
634.189
21
933.784
31
0.0
0
LINE
5
4922
8
0-0
6
CONTINUOUS
62
  7
10
539.189
20
1033.784
30
0.0
11
689.189
21
1033.784
31
0.0
0
LINE
5
4923
8
0-0
6
CONTINUOUS
62
  7
10
695.189
20
1033.784
30
0.0
11
839.189
21
1033.784
31
0.0
0
LINE
5
4924
8
0-0
6
CONTINUOUS
62
  7
10
845.189
20
1033.784
30
0.0
11
953.762
21
1033.784
31
0.0
0
LINE
5
4925
8
ADD_LINE
6
HIDDEN
62
  3
10
425.676
20
1033.784
30
0.0
11
1552.703
21
1033.784
31
0.0
0
ARC
5
4926
8
0-0
6
CONTINUOUS
62
  7
10
970.622
20
1033.784
30
0.0
40
13.000
50
141.009140
51
218.990860
0
ARC
5
4927
8
0-0
6
CONTINUOUS
62
  7
10
966.762
20
1033.784
30
0.0
40
13.000
50
141.009140
51
218.990860
0
ARC
5
4928
8
0-0
6
CONTINUOUS
62
  7
10
973.195
20
1033.784
30
0.0
40
7.000
50
141.009094
51
218.990906
0
CIRCLE
5
4929
8
0-0
6
CONTINUOUS
62
  7
10
692.189
20
1033.784
30
0.0
40
3.000
0
CIRCLE
5
492a
8
0-0
6
CONTINUOUS
62
  7
10
842.189
20
1033.784
30
0.0
40
3.000
0
ARC
5
492b
8
0-0
6
CONTINUOUS
62
  7
10
620.535
20
572.898
30
0.0
40
3.005
50
171.321762
51
323.010864
0
ARC
5
492c
8
0-0
6
CONTINUOUS
62
  7
10
1022.561
20
579.331
30
0.0
40
4.207
50
179.724091
51
225.094711
0
ARC
5
492d
8
0-0
6
CONTINUOUS
62
  7
10
1022.561
20
579.331
30
0.0
40
4.207
50
314.905579
51
314.905884
0
ARC
5
492e
8
0-0
6
CONTINUOUS
62
  7
10
969.195
20
613.041
30
0.0
40
3.000
50
180.000000
51
247.314423
0
ARC
5
492f
8
0-0
6
CONTINUOUS
62
  7
10
959.417
20
608.323
30
0.0
40
4.000
50
151.128067
51
247.314972
0
ARC
5
4930
8
0-0
6
CONTINUOUS
62
  7
10
951.435
20
610.415
30
0.0
40
4.000
50
268.466919
51
331.127686
0
ARC
5
4931
8
0-0
6
CONTINUOUS
62
  7
10
958.803
20
611.351
30
0.0
40
2.000
50
90.000000
51
151.127243
0
ARC
5
4932
8
0-0
6
CONTINUOUS
62
  7
10
1047.189
20
575.020
30
0.0
40
2.000
50
0.000000
51
67.314972
0
ARC
5
4933
8
0-0
6
CONTINUOUS
62
  7
10
1460.266
20
941.167
30
0.0
40
2.728
50
299.121124
51
106.349869
0
ARC
5
4934
8
0-0
6
CONTINUOUS
62
  7
10
1460.266
20
1126.401
30
0.0
40
2.728
50
253.650131
51
60.878876
0
CIRCLE
5
4935
8
ADD_LINE
6
HIDDEN
62
  3
10
539.189
20
1033.784
30
0.0
40
3.000
0
ARC
5
4936
8
0-0
6
CONTINUOUS
62
  7
10
962.622
20
612.940
30
0.0
40
5.000
50
179.712204
51
247.314514
0
TEXT
5
4937
100
AcDbEntity
8
0-2
62
7
100
AcDbText
10
784.814
20
784.932
30
0.0
40
9.750
41
0.800
50
0.000
1
510
100
AcDbText
0
TEXT
5
4938
100
AcDbEntity
8
0-2
62
7
100
AcDbText
10
743.317
20
837.635
30
0.0
40
9.750
41
0.800
50
0.000
1
425
100
AcDbText
0
TEXT
5
4939
100
AcDbEntity
8
0-2
62
7
100
AcDbText
10
1446.534
20
784.932
30
0.0
40
9.750
41
0.800
50
0.000
1
62
100
AcDbText
0
TEXT
5
493a
100
AcDbEntity
8
0-2
62
7
100
AcDbText
10
1437.534
20
837.635
30
0.0
40
9.750
41
0.800
50
0.000
1
44
100
AcDbText
0
TEXT
5
493b
100
AcDbEntity
8
0-2
62
7
100
AcDbText
10
1468.534
20
837.635
30
0.0
40
9.750
41
0.800
50
0.000
1
18
100
AcDbText
0
TEXT
5
493c
100
AcDbEntity
8
0-2
62
7
100
AcDbText
10
784.814
20
420.068
30
0.0
40
9.750
41
0.800
50
0.000
1
510
100
AcDbText
0
TEXT
5
493d
100
AcDbEntity
8
0-2
62
7
100
AcDbText
10
386.689
20
1024.409
30
0.0
40
9.750
41
0.800
50
90.000
1
200
100
AcDbText
0
TEXT
5
493e
100
AcDbEntity
8
0-2
62
7
100
AcDbText
10
386.689
20
576.101
30
0.0
40
9.750
41
0.800
50
90.000
1
62
100
AcDbText
0
TEXT
5
493f
100
AcDbEntity
8
0-2
62
7
100
AcDbText
10
786.014
20
554.101
30
0.0
40
9.750
41
0.800
50
90.000
1
18
100
AcDbText
0
POINT
5
4940
8
0-2
62
  7
10
539.189
20
782.432
30
0.0
0
POINT
5
4941
8
0-2
62
  7
10
1049.189
20
782.432
30
0.0
0
POINT
5
4942
8
0-2
62
  7
10
539.189
20
835.135
30
0.0
0
POINT
5
4943
8
0-2
62
  7
10
966.195
20
835.135
30
0.0
0
POINT
5
4944
8
0-2
62
  7
10
1421.784
20
782.432
30
0.0
0
POINT
5
4945
8
0-2
62
  7
10
1483.784
20
782.432
30
0.0
0
POINT
5
4946
8
0-2
62
  7
10
1421.784
20
835.135
30
0.0
0
POINT
5
4947
8
0-2
62
  7
10
1465.784
20
835.135
30
0.0
0
POINT
5
4948
8
0-2
62
  7
10
1483.784
20
835.135
30
0.0
0
POINT
5
4949
8
0-2
62
  7
10
539.189
20
417.568
30
0.0
0
POINT
5
494a
8
0-2
62
  7
10
1049.189
20
417.568
30
0.0
0
POINT
5
494b
8
0-2
62
  7
10
389.189
20
933.784
30
0.0
0
POINT
5
494c
8
0-2
62
  7
10
389.189
20
1133.784
30
0.0
0
POINT
5
494d
8
0-2
62
  7
10
389.189
20
551.351
30
0.0
0
POINT
5
494e
8
0-2
62
  7
10
389.189
20
613.351
30
0.0
0
POINT
5
494f
8
0-2
62
  7
10
788.514
20
551.351
30
0.0
0
POINT
5
4950
8
0-2
62
  7
10
788.514
20
569.351
30
0.0
0
ENDSEC
0
EOF
