  0
SECTION
  2
HEADER
  9
$ACADVER
  1
AC1009
  9
$INSBASE
 10
0
 20
0
 30
0
  9
$EXTMIN
 10
0
 20
0
  9
$EXTMAX
 10
2100
 20
1485
  9
$LIMMIN
 10
0
 20
0
  9
$LIMMAX
 10
2100
 20
1485
  9
$LTSCALE
 40
5
  0
ENDSEC
  0
SECTION
  2
TABLES
  0
TABLE
  2
LTYPE
 70
     9
  0
LTYPE
  2
CONTINUOUS
 70
    64
  3
実線
 72
    65
 73
     0
 40
0.0
  0
LTYPE
  2
DASHED1
 70
    64
  3
--  --  --  --  --  --  --  --  
 72
    65
 73
     2
 40
2.5
 49
1.25
 49
-1.25
  0
LTYPE
  2
DASHED2
 70
    64
  3
----    ----    ----    ----    
 72
    65
 73
     2
 40
5.0
 49
2.5
 49
-2.5
  0
LTYPE
  2
DASHED3
 70
    64
  3
------  ------  ------  ------  
 72
    65
 73
     2
 40
5.0
 49
3.75
 49
-1.25
  0
LTYPE
  2
CENTER1
 70
    64
  3
----- - ----- - ----- - ----- - 
 72
    65
 73
     4
 40
10.0
 49
6.25
 49
-1.25
 49
1.25
 49
-1.25
  0
LTYPE
  2
CENTER2
 70
    64
  3
----------  --  ----------  --  
 72
    65
 73
     4
 40
20.0
 49
12.5
 49
-2.5
 49
2.5
 49
-2.5
  0
LTYPE
  2
PHANTOM1
 70
    64
  3
--- - - --- - - --- - - --- - - 
 72
    65
 73
     6
 40
10.0
 49
3.25
 49
-1.25
 49
1.25
 49
-1.25
 49
1.25
 49
-1.25
  0
LTYPE
  2
PHANTOM2
 70
    64
  3
--------  -  -  --------  -  -  
 72
    65
 73
     6
 40
20.0
 49
10.0
 49
-2.5
 49
1.25
 49
-2.5
 49
1.25
 49
-2.5
  0
LTYPE
  2
DOT
 70
    64
  3
-   -   -   -   -   -   -   -   
 72
    65
 73
     2
 40
2.5
 49
0.625
 49
-1.875
  0
LTYPE
  2
DUMMY
 70
    64
  3
ダミー
 72
    65
 73
     0
 40
0.0
  0
LTYPE
  2
RAND1
 70
    64
  3
ランダム線1
 72
    65
 73
     4
 40
10.0
 49
1.0
 49
-2.0
 49
3.0
 49
-4.0
  0
LTYPE
  2
RAND2
 70
    64
  3
ランダム線2
 72
    65
 73
     4
 40
14.0
 49
2.0
 49
-3.0
 49
4.0
 49
-5.0
  0
LTYPE
  2
RAND3
 70
    64
  3
ランダム線3
 72
    65
 73
     4
 40
18.0
 49
3.0
 49
-4.0
 49
5.0
 49
-6.0
  0
LTYPE
  2
RAND4
 70
    64
  3
ランダム線4
 72
    65
 73
     4
 40
22.0
 49
4.0
 49
-5.0
 49
6.0
 49
-7.0
  0
LTYPE
  2
RAND5
 70
    64
  3
ランダム線5
 72
    65
 73
     4
 40
26.0
 49
5.0
 49
-6.0
 49
7.0
 49
-8.0
  0
LTYPE
  2
LONG1
 70
    64
  3
----------  --  ----------  --  
 72
    65
 73
     4
 40
40.0
 49
32.5
 49
-2.5
 49
2.5
 49
-2.5
  0
LTYPE
  2
LONG2
 70
    64
  3
--------  -  -  --------  -  -  
 72
    65
 73
     6
 40
40.0
 49
30.0
 49
-2.5
 49
1.25
 49
-2.5
 49
1.25
 49
-2.5
  0
LTYPE
  2
LONG3
 70
    64
  3
+++++++++++++++..+++++++++++++++
 72
    65
 73
     2
 40
40.0
 49
37.5
 49
-2.5
  0
LTYPE
  2
LONG4
 70
    64
  3
+++++++++++++++..+++++++++++++++
 72
    65
 73
     2
 40
80.0
 49
75.0
 49
-5.0
  0
LTYPE
  2
LONG5
 70
    64
  3
----------  --  ----------  --  
 72
    65
 73
     4
 40
60.0
 49
37.5
 49
-7.5
 49
7.5
 49
-7.5
  0
LTYPE
  2
dashed
 70
   64
  3
-------   -------------   ------
 72
   65
 73
    2
 40
7.5
 49
6
 49
-1.5
  0
LTYPE
  2
dashed_spaced
 70
   64
  3
----        --------        ----
 72
   65
 73
    2
 40
12
 49
6
 49
-6
  0
LTYPE
  2
long_dashed_dotted
 70
   64
  3
------------- --- --------------
 72
   65
 73
    4
 40
15.25
 49
12
 49
-1.5
 49
0.25
 49
-1.5
  0
LTYPE
  2
long_dashed_double-dotted
 70
   64
  3
----------- --- --- ------------
 72
   65
 73
    6
 40
17
 49
12
 49
-1.5
 49
0.25
 49
-1.5
 49
0.25
 49
-1.5
  0
LTYPE
  2
long_dashed_triplicate-dotted
 70
   64
  3
--------- --- --- --- ----------
 72
   65
 73
    8
 40
18.75
 49
12
 49
-1.5
 49
0.25
 49
-1.5
 49
0.25
 49
-1.5
 49
0.25
 49
-1.5
  0
LTYPE
  2
dotted
 70
   64
  3
   -       -       -       -    
 72
   65
 73
    2
 40
1.75
 49
0.25
 49
-1.5
  0
LTYPE
  2
chain
 70
   64
  3
-------------- -- --------------
 72
   65
 73
    4
 40
18.5
 49
12
 49
-1.5
 49
3.5
 49
-1.5
  0
LTYPE
  2
chain_double_dash
 70
   64
  3
------------ -- -- -------------
 72
   65
 73
    6
 40
23.5
 49
12
 49
-1.5
 49
3.5
 49
-1.5
 49
3.5
 49
-1.5
  0
LTYPE
  2
dashed_dotted
 70
   64
  3
-----------     -     ----------
 72
   65
 73
    4
 40
9.25
 49
6
 49
-1.5
 49
0.25
 49
-1.5
  0
LTYPE
  2
double-dashed_dotted
 70
   64
  3
------   -----------   -   -----
 72
   65
 73
    6
 40
16.75
 49
6
 49
-1.5
 49
6
 49
-1.5
 49
0.25
 49
-1.5
  0
LTYPE
  2
dashed_double-dotted
 70
   64
  3
---------    -    -    ---------
 72
   65
 73
    6
 40
11
 49
6
 49
-1.5
 49
0.25
 49
-1.5
 49
0.25
 49
-1.5
  0
LTYPE
  2
double-dashed_double-dotted
 70
   64
  3
-----   ---------   -   -   ----
 72
   65
 73
    8
 40
18.5
 49
6
 49
-1.5
 49
6
 49
-1.5
 49
0.25
 49
-1.5
 49
0.25
 49
-1.5
  0
LTYPE
  2
dashed_triplicate-dotted
 70
   64
  3
-------    -    -    -    ------
 72
   65
 73
    8
 40
12.75
 49
6
 49
-1.5
 49
0.25
 49
-1.5
 49
0.25
 49
-1.5
 49
0.25
 49
-1.5
  0
LTYPE
  2
double-dashed_triplicate-dotted
 70
   64
  3
-----  ---------  -  -  -  -----
 72
   65
 73
   10
 40
20.25
 49
6
 49
-1.5
 49
6
 49
-1.5
 49
0.25
 49
-1.5
 49
0.25
 49
-1.5
 49
0.25
 49
-1.5
  0
LTYPE
  2
undefined
 70
   64
  3
--------------------------------
 72
   65
 73
    0
 40
0
  0
ENDTAB
  0
TABLE
  2
STYLE
  5
3
100
AcDbSymbolTable
 70
     1
  0
STYLE
  5
10
100
AcDbSymbolTableRecord
100
AcDbTextStyleTableRecord
  2
STANDARD
 70
     0
 40
0.0
 41
1.0
 50
0.0
 71
     0
 42
0.2
  3
txt
  4
bigfont.shx
  0
STYLE
  5
26
100
AcDbSymbolTableRecord
100
AcDbTextStyleTableRecord
  2
TATEGAKI
 70
    68
 40
0.0
 41
1.0
 50
0.0
 71
     0
 42
1.0
  3
txt
  4
bigfont.shx
  0
ENDTAB
  0
TABLE
  2
LAYER
 70
    5
  0
LAYER
  2
_0-0_
 70
   64
 62
    7
  6
CONTINUOUS
  0
LAYER
  2
_0-1_
 70
   64
 62
    7
  6
CONTINUOUS
  0
LAYER
  2
_0-a_
 70
   64
 62
    7
  6
CONTINUOUS
  0
LAYER
  2
_1-0_
 70
   64
 62
    7
  6
CONTINUOUS
  0
LAYER
  2
ADD_LINE
 70
   64
 62
    7
  6
CONTINUOUS
  0
ENDTAB
  0
ENDSEC
  0
SECTION
  2
BLOCKS
  0
ENDSEC
  0
SECTION
  2
ENTITIES
  0
LINE
  8
_0-1_
  6
CONTINUOUS
 62
    7
 10
1794.2595673876872
 20
639.44184723595311
 11
1524.2595673876872
 21
639.44184723595311
  0
LINE
  8
_0-1_
  6
CONTINUOUS
 62
    7
 10
1524.2595673876872
 20
712.44184723595311
 11
1709.2595673876872
 21
902.44184723595311
  0
LINE
  8
ADD_LINE
  6
DOT
 62
    7
 10
99.459234608984985
 20
74.488352745424322
 11
2049.4592346089848
 21
74.488352745424322
  0
LINE
  8
ADD_LINE
  6
DOT
 62
    7
 10
2049.4592346089848
 20
74.488352745424322
 11
2049.4592346089848
 21
1424.4883527454244
  0
LINE
  8
ADD_LINE
  6
DOT
 62
    7
 10
2049.4592346089848
 20
1424.4883527454244
 11
99.459234608984985
 21
1424.4883527454244
  0
LINE
  8
ADD_LINE
  6
DOT
 62
    7
 10
99.459234608984985
 20
1424.4883527454244
 11
99.459234608984985
 21
74.488352745424322
  0
LINE
  8
_0-1_
  6
CONTINUOUS
 62
    7
 10
1074.4592346089851
 20
1046.4418472359532
 11
1019.459234608985
 21
981.44184723595322
  0
LINE
  8
_0-1_
  6
CONTINUOUS
 62
    7
 10
1074.4592346089851
 20
1046.4418472359532
 11
1129.4592346089851
 21
981.44184723595322
  0
LINE
  8
_0-1_
  6
CONTINUOUS
 62
    7
 10
1065.9739532347464
 20
574.92712861019174
 11
969.45923460898496
 21
671.44184723595322
  0
LINE
  8
_0-1_
  6
CONTINUOUS
 62
    7
 10
1082.9445159832235
 20
574.92712861019174
 11
1179.4592346089851
 21
671.44184723595322
  0
ARC
  8
_0-1_
  6
CONTINUOUS
 62
    7
 10
1074.4592346089851
 20
583.41240998443027
 40
12
 50
225
 51
315
  0
LINE
  8
_0-1_
  6
CONTINUOUS
 62
    7
 10
1014.459234608985
 20
721.44184723595322
 11
969.45923460898496
 21
671.44184723595322
  0
LINE
  8
_0-1_
  6
CONTINUOUS
 62
    7
 10
1179.4592346089851
 20
671.44184723595322
 11
1134.4592346089851
 21
721.44184723595322
  0
LINE
  8
_0-1_
  6
CONTINUOUS
 62
    7
 10
1019.459234608985
 20
981.44184723595322
 11
1014.459234608985
 21
721.44184723595322
  0
LINE
  8
_0-1_
  6
CONTINUOUS
 62
    7
 10
1134.4592346089851
 20
721.44184723595322
 11
1129.4592346089851
 21
981.44184723595322
  0
LINE
  8
_0-1_
  6
CONTINUOUS
 62
    7
 10
1051.869736663459
 20
1012.004537679456
 11
1051.869736663459
 21
1004.3247152846677
  0
LINE
  8
_0-1_
  6
CONTINUOUS
 62
    7
 10
1044.8438499936003
 20
1011.4418472359532
 11
1051.869736663459
 21
1004.3247152846677
  0
LINE
  8
_0-1_
  6
CONTINUOUS
 62
    7
 10
1057.2374826229675
 20
998.88725833867215
 11
1074.4592346089851
 21
981.44184723595322
  0
LINE
  8
_0-1_
  6
CONTINUOUS
 62
    7
 10
1057.2374826229675
 20
1006.0043902899577
 11
1057.2374826229675
 21
998.88725833867215
  0
LINE
  8
_0-1_
  6
CONTINUOUS
 62
    7
 10
1091.6809865950024
 20
998.88725833867215
 11
1074.4592346089851
 21
981.44184723595322
  0
LINE
  8
_0-1_
  6
CONTINUOUS
 62
    7
 10
1091.6809865950024
 20
1006.0043902899577
 11
1091.6809865950024
 21
998.88725833867215
  0
LINE
  8
_0-1_
  6
CONTINUOUS
 62
    7
 10
1057.2374826229675
 20
1006.0043902899577
 11
1074.4592346089851
 21
988.55897918723872
  0
LINE
  8
_0-1_
  6
CONTINUOUS
 62
    7
 10
1091.6809865950024
 20
1006.0043902899577
 11
1074.4592346089851
 21
988.55897918723872
  0
LINE
  8
_0-1_
  6
CONTINUOUS
 62
    7
 10
1074.4592346089851
 20
1038.701217069623
 11
1051.869736663459
 21
1012.004537679456
  0
LINE
  8
_0-1_
  6
CONTINUOUS
 62
    7
 10
1074.4592346089851
 20
1041.7974691361551
 11
1049.8697366634592
 21
1012.7371533823518
  0
LINE
  8
_0-1_
  6
CONTINUOUS
 62
    7
 10
1049.8697366634592
 20
1012.7371533823518
 11
1049.8697366634592
 21
1008.7835409904721
  0
LINE
  8
_0-1_
  6
CONTINUOUS
 62
    7
 10
1051.869736663459
 20
1004.3247152846677
 11
1049.8697366634592
 21
1008.7835409904721
  0
LINE
  8
_0-1_
  6
CONTINUOUS
 62
    7
 10
1104.0746192243696
 20
1011.4418472359532
 11
1097.0487325545109
 21
1004.3247152846677
  0
LINE
  8
_0-1_
  6
CONTINUOUS
 62
    7
 10
1097.0487325545109
 20
1004.3247152846677
 11
1099.0487325545107
 21
1008.7835409904721
  0
LINE
  8
_0-1_
  6
CONTINUOUS
 62
    7
 10
1097.0487325545109
 20
1012.004537679456
 11
1097.0487325545109
 21
1004.3247152846677
  0
LINE
  8
_0-1_
  6
CONTINUOUS
 62
    7
 10
1074.4592346089851
 20
1038.701217069623
 11
1097.0487325545109
 21
1012.004537679456
  0
LINE
  8
_0-1_
  6
CONTINUOUS
 62
    7
 10
1074.4592346089851
 20
1041.7974691361551
 11
1099.0487325545107
 21
1012.7371533823518
  0
LINE
  8
_0-1_
  6
CONTINUOUS
 62
    7
 10
1099.0487325545107
 20
1012.7371533823518
 11
1099.0487325545107
 21
1008.7835409904721
  0
LINE
  8
_0-1_
  6
CONTINUOUS
 62
    7
 10
1057.2374826229675
 20
1003.1575375094434
 11
1074.4592346089851
 21
985.71212640672445
  0
LINE
  8
_0-1_
  6
CONTINUOUS
 62
    7
 10
1091.6809865950024
 20
1003.1575375094434
 11
1074.4592346089851
 21
985.71212640672445
  0
LINE
  8
ADD_LINE
  6
DOT
 62
    4
 10
1049.8697366634592
 20
1012.7371533823518
 11
1144.7288373544093
 21
1012.7371533823518
  0
CIRCLE
  8
_0-1_
  6
CONTINUOUS
 62
    7
 10
1074.4592346089851
 20
1012.7371533823518
 40
4.2212233528274901
  0
CIRCLE
  8
_0-1_
  6
CONTINUOUS
 62
    7
 10
1074.4592346089851
 20
1012.7371533823518
 40
6.5312639576387319
  0
LINE
  8
ADD_LINE
  6
DOT
 62
    4
 10
922.46256239600666
 20
746.44184723595322
 11
1210.7321131447588
 21
746.44184723595322
  0
CIRCLE
  8
_0-1_
  6
CONTINUOUS
 62
    7
 10
1074.4592346089851
 20
746.44184723595322
 40
4.2212233528274901
  0
CIRCLE
  8
_0-1_
  6
CONTINUOUS
 62
    7
 10
1074.4592346089851
 20
746.44184723595322
 40
6.5312639576387319
  0
LINE
  8
ADD_LINE
  6
DOT
 62
    4
 10
899.75041597337759
 20
1046.4418472359532
 11
943.42762063227951
 21
1046.4418472359532
  0
LINE
  8
ADD_LINE
  6
DOT
 62
    7
 10
1074.4592346089851
 20
739.91058327831433
 11
1074.4592346089851
 21
47.158901830282787
  0
LINE
  8
_0-1_
  6
CONTINUOUS
 62
    7
 10
1074.4592346089851
 20
739.91058327831433
 11
1074.4592346089851
 21
571.41240998443027
  0
LINE
  8
ADD_LINE
  6
DOT
 62
    7
 10
1074.4592346089851
 20
1464.0474209650583
 11
1074.4592346089851
 21
1019.2684173399904
  0
LINE
  8
ADD_LINE
  6
DOT
 62
    7
 10
1074.4592346089851
 20
1006.205889424713
 11
1074.4592346089851
 21
752.97311119359188
  0
LINE
  8
_0-1_
  6
CONTINUOUS
 62
    7
 10
1074.4592346089851
 20
1046.4418472359532
 11
1074.4592346089851
 21
1019.2684173399905
  0
LINE
  8
_0-1_
  6
CONTINUOUS
 62
    7
 10
1074.4592346089851
 20
1006.205889424713
 11
1074.4592346089851
 21
752.97311119359188
  0
LINE
  8
_0-1_
  6
CONTINUOUS
 62
    7
 10
1524.2595673876872
 20
662.44184723595311
 11
1497.2595673876872
 21
662.44184723595311
  0
LINE
  8
_0-1_
  6
CONTINUOUS
 62
    7
 10
1497.2595673876872
 20
662.44184723595311
 11
1497.2595673876872
 21
727.71567622895668
  0
LINE
  8
_0-1_
  6
CONTINUOUS
 62
    7
 10
1794.2595673876872
 20
942.44184723595311
 11
1724.2595673876872
 21
942.44184723595311
  0
LINE
  8
_0-1_
  6
CONTINUOUS
 62
    7
 10
1524.2595673876872
 20
639.44184723595311
 11
1524.2595673876872
 21
712.44184723595311
  0
LINE
  8
_0-1_
  6
CONTINUOUS
 62
    7
 10
1709.2595673876872
 20
902.44184723595311
 11
1709.2595673876872
 21
972.44184723595311
  0
LINE
  8
_0-1_
  6
CONTINUOUS
 62
    7
 10
1794.2595673876872
 20
984.44184723595311
 11
1719.2595673876872
 21
984.44184723595311
  0
LINE
  8
_0-1_
  6
CONTINUOUS
 62
    7
 10
1497.2595673876872
 20
727.71567622895668
 11
1681.2595673876872
 21
916.68864920192971
  0
LINE
  8
_0-1_
  6
CONTINUOUS
 62
    7
 10
1681.2595673876872
 20
916.68864920192971
 11
1681.2595673876872
 21
938.84184723595297
  0
LINE
  8
_0-1_
  6
CONTINUOUS
 62
    7
 10
1719.2595673876872
 20
984.44184723595311
 11
1681.2595673876872
 21
938.84184723595297
  0
LINE
  8
_0-1_
  6
CONTINUOUS
 62
    7
 10
1746.2595673876872
 20
969.44184723595311
 11
1746.2595673876872
 21
984.44184723595311
  0
LINE
  8
_0-1_
  6
CONTINUOUS
 62
    7
 10
1756.2595673876872
 20
969.44184723595311
 11
1715.2595673876872
 21
969.44184723595311
  0
LINE
  8
_0-1_
  6
CONTINUOUS
 62
    7
 10
1788.2595673876872
 20
975.44184723595322
 11
1756.2595673876872
 21
975.44184723595322
  0
LINE
  8
_0-1_
  6
CONTINUOUS
 62
    7
 10
1730.7595673876872
 20
984.44184723595311
 11
1730.7595673876872
 21
969.44184723595311
  0
CIRCLE
  8
_0-1_
  6
CONTINUOUS
 62
    7
 10
1734.2595673876872
 20
958.94184723595322
 40
4.2212233528274901
  0
CIRCLE
  8
_0-1_
  6
CONTINUOUS
 62
    7
 10
1734.2595673876872
 20
958.94184723595322
 40
6.5312639576387319
  0
LINE
  8
_0-1_
  6
CONTINUOUS
 62
    7
 10
1756.2595673876872
 20
967.44184723595311
 11
1756.2595673876872
 21
975.44184723595322
  0
LINE
  8
_0-1_
  6
CONTINUOUS
 62
    7
 10
1709.2595673876872
 20
942.44184723595311
 11
1715.2595673876872
 21
945.51141102259123
  0
LINE
  8
_0-1_
  6
CONTINUOUS
 62
    7
 10
1794.2595673876872
 20
639.44184723595311
 11
1794.2595673876872
 21
942.60385857983283
  0
LINE
  8
_0-1_
  6
CONTINUOUS
 62
    7
 10
1794.2595673876872
 20
942.60385857983283
 11
1794.2595673876872
 21
984.44184723595311
  0
LINE
  8
_0-1_
  6
CONTINUOUS
 62
    7
 10
1781.8803778055048
 20
948.44184723595322
 11
1739.7770711475107
 21
948.44184723595322
  0
LINE
  8
_0-1_
  6
CONTINUOUS
 62
    7
 10
1794.2595673876872
 20
942.60385857983283
 11
1781.8803778055048
 21
948.44184723595322
  0
LINE
  8
_0-1_
  6
CONTINUOUS
 62
    7
 10
1787.2595673876872
 20
948.91344423485612
 11
1794.2595673876872
 21
945.61226524253527
  0
LINE
  8
_0-1_
  6
CONTINUOUS
 62
    7
 10
1787.2595673876872
 20
948.91344423485612
 11
1787.2595673876872
 21
974.44184723595311
  0
LINE
  8
_0-1_
  6
CONTINUOUS
 62
    7
 10
1788.2595673876872
 20
949.54747091938896
 11
1788.2595673876872
 21
975.44184723595322
  0
LINE
  8
_0-1_
  6
CONTINUOUS
 62
    7
 10
1788.2595673876872
 20
949.54747091938896
 11
1794.2595673876872
 21
946.71788892597101
  0
LINE
  8
_0-1_
  6
CONTINUOUS
 62
    7
 10
1505.2595673876872
 20
662.44184723595311
 11
1505.2595673876872
 21
724.46427678577732
  0
LINE
  8
_0-1_
  6
CONTINUOUS
 62
    7
 10
1505.2595673876872
 20
724.46427678577732
 11
1689.2595673876872
 21
913.43724975875045
  0
LINE
  8
_0-1_
  6
CONTINUOUS
 62
    7
 10
1689.2595673876872
 20
913.43724975875045
 11
1689.2595673876872
 21
948.44184723595299
  0
LINE
  8
_0-1_
  6
CONTINUOUS
 62
    7
 10
1794.2595673876872
 20
642.44184723595311
 11
1524.2595673876872
 21
642.44184723595311
  0
ARC
  8
_0-1_
  6
CONTINUOUS
 62
    7
 10
1794.2595673876872
 20
886.44184723595322
 40
8.0000000000000071
 50
90
 51
180
  0
LINE
  8
_0-1_
  6
CONTINUOUS
 62
    7
 10
1786.2595673876872
 20
672.44184723595311
 11
1786.2595673876872
 21
886.44184723595322
  0
ARC
  8
_0-1_
  6
CONTINUOUS
 62
    7
 10
1794.2595673876872
 20
672.44184723595311
 40
7.9999999999999982
 50
180
 51
270
  0
LINE
  8
_0-1_
  6
CONTINUOUS
 62
    7
 10
1794.2595673876872
 20
941.44184723595322
 11
1721.67331676105
 21
941.44184723595322
  0
LINE
  8
_0-1_
  6
CONTINUOUS
 62
    7
 10
1721.67331676105
 20
941.44184723595322
 11
1739.7770711475107
 21
948.44184723595322
  0
LINE
  8
_0-1_
  6
CONTINUOUS
 62
    7
 10
1709.2595673876872
 20
941.31858040013401
 11
1716.2595673876872
 21
944.89973815121175
  0
LINE
  8
_0-1_
  6
CONTINUOUS
 62
    7
 10
1715.2595673876872
 20
945.51141102259123
 11
1715.2595673876872
 21
967.44184723595311
  0
LINE
  8
_0-1_
  6
CONTINUOUS
 62
    7
 10
1756.2595673876872
 20
967.44184723595311
 11
1715.2595673876872
 21
967.44184723595311
  0
LINE
  8
_0-1_
  6
CONTINUOUS
 62
    7
 10
1716.2595673876872
 20
944.89973815121175
 11
1716.2595673876872
 21
966.44184723595322
  0
LINE
  8
_0-1_
  6
CONTINUOUS
 62
    7
 10
1715.2595673876872
 20
969.44184723595311
 11
1715.2595673876872
 21
979.64184723595304
  0
LINE
  8
_0-1_
  6
CONTINUOUS
 62
    7
 10
1757.2595673876872
 20
966.44184723595322
 11
1716.2595673876872
 21
966.44184723595322
  0
LINE
  8
_0-1_
  6
CONTINUOUS
 62
    7
 10
1757.2595673876872
 20
966.44184723595322
 11
1757.2595673876872
 21
974.44184723595311
  0
LINE
  8
_0-1_
  6
CONTINUOUS
 62
    7
 10
1787.2595673876872
 20
974.44184723595311
 11
1757.2595673876872
 21
974.44184723595311
  0
LINE
  8
ADD_LINE
  6
DOT
 62
    4
 10
1524.2595673876872
 20
639.44184723595311
 11
160.7321131447587
 21
639.44184723595311
  0
LINE
  8
ADD_LINE
  6
DOT
 62
    4
 10
1072.7121464226288
 20
487.42512479201332
 11
1077.9534109816971
 21
487.42512479201332
  0
LINE
  8
_0-1_
  6
CONTINUOUS
 62
    7
 10
401.45923460898501
 20
984.44184723595311
 11
401.45923460898501
 21
639.44184723595311
  0
LINE
  8
_0-1_
  6
CONTINUOUS
 62
    7
 10
401.45923460898501
 20
664.44184723595311
 11
369.45923460898496
 21
664.44184723595311
  0
LINE
  8
_0-1_
  6
CONTINUOUS
 62
    7
 10
369.45923460898496
 20
984.44184723595311
 11
369.45923460898496
 21
664.44184723595311
  0
LINE
  8
_0-1_
  6
CONTINUOUS
 62
    7
 10
444.45923460898496
 20
904.44184723595311
 11
624.45923460898496
 21
712.44184723595311
  0
LINE
  8
_0-1_
  6
CONTINUOUS
 62
    7
 10
624.45923460898496
 20
712.44184723595311
 11
624.45923460898496
 21
639.44184723595311
  0
LINE
  8
_0-1_
  6
CONTINUOUS
 62
    7
 10
651.45923460898507
 20
727.50527163487573
 11
651.45923460898507
 21
662.44184723595311
  0
LINE
  8
_0-1_
  6
CONTINUOUS
 62
    7
 10
651.45923460898507
 20
662.44184723595311
 11
624.45923460898496
 21
662.44184723595311
  0
LINE
  8
_0-1_
  6
CONTINUOUS
 62
    7
 10
474.45923460898496
 20
916.30527163487568
 11
651.45923460898507
 21
727.50527163487573
  0
LINE
  8
_0-1_
  6
CONTINUOUS
 62
    7
 10
437.45923460898496
 20
984.44184723595311
 11
474.45923460898496
 21
943.30527163487568
  0
LINE
  8
_0-1_
  6
CONTINUOUS
 62
    7
 10
474.45923460898496
 20
943.30527163487568
 11
474.45923460898496
 21
916.30527163487568
  0
LINE
  8
_0-1_
  6
CONTINUOUS
 62
    7
 10
444.45923460898496
 20
976.65925185196556
 11
444.45923460898496
 21
904.44184723595311
  0
LINE
  8
_0-1_
  6
CONTINUOUS
 62
    7
 10
437.45923460898496
 20
984.44184723595311
 11
369.45923460898496
 21
984.44184723595311
  0
LINE
  8
_0-1_
  6
CONTINUOUS
 62
    7
 10
377.45923460898496
 20
976.44184723595322
 11
377.45923460898496
 21
664.44184723595311
  0
LINE
  8
_0-1_
  6
CONTINUOUS
 62
    7
 10
401.45923460898501
 20
976.44184723595322
 11
377.45923460898496
 21
976.44184723595322
  0
LINE
  8
_0-1_
  6
CONTINUOUS
 62
    7
 10
401.45923460898501
 20
639.44184723595311
 11
624.45923460898496
 21
639.44184723595311
  0
LINE
  8
_0-1_
  6
CONTINUOUS
 62
    7
 10
624.45923460898496
 20
642.44184723595311
 11
401.45923460898501
 21
642.44184723595311
  0
LINE
  8
_0-1_
  6
CONTINUOUS
 62
    7
 10
466.45923460898501
 20
913.14169179516296
 11
643.45923460898507
 21
724.341691795163
  0
LINE
  8
_0-1_
  6
CONTINUOUS
 62
    7
 10
643.45923460898507
 20
724.341691795163
 11
643.45923460898507
 21
662.44184723595311
  0
LINE
  8
_0-1_
  6
CONTINUOUS
 62
    7
 10
466.45923460898501
 20
952.19966635943297
 11
466.45923460898501
 21
913.14169179516296
  0
LINE
  8
_0-1_
  6
CONTINUOUS
 62
    7
 10
401.45923460898501
 20
946.71788892597101
 11
407.45923460898496
 21
949.54747091938896
  0
LINE
  8
_0-1_
  6
CONTINUOUS
 62
    7
 10
407.45923460898496
 20
967.44184723595311
 11
407.45923460898496
 21
949.54747091938896
  0
LINE
  8
_0-1_
  6
CONTINUOUS
 62
    7
 10
413.2888166024029
 20
949.54747091938896
 11
432.62965261556707
 21
949.54747091938896
  0
LINE
  8
_0-1_
  6
CONTINUOUS
 62
    7
 10
410.45923460898501
 20
946.71788892597101
 11
435.45923460898501
 21
946.71788892597101
  0
LINE
  8
_0-1_
  6
CONTINUOUS
 62
    7
 10
410.45923460898501
 20
946.71788892597101
 11
422.38358421855906
 21
946.71788892597101
  0
LINE
  8
_0-1_
  6
CONTINUOUS
 62
    7
 10
401.45923460898501
 20
969.44184723595311
 11
444.45923460898496
 21
969.44184723595311
  0
CIRCLE
  8
_0-1_
  6
CONTINUOUS
 62
    7
 10
423.50020361679219
 20
958.94184723595322
 40
4.2212233528274901
  0
CIRCLE
  8
_0-1_
  6
CONTINUOUS
 62
    7
 10
423.50020361679219
 20
958.94184723595322
 40
6.5312639576387319
  0
LINE
  8
_0-1_
  6
CONTINUOUS
 62
    7
 10
422.95923460898501
 20
984.44184723595311
 11
422.95923460898501
 21
969.44184723595311
  0
LINE
  8
_0-1_
  6
CONTINUOUS
 62
    7
 10
408.4592346089849
 20
966.44184723595322
 11
408.4592346089849
 21
948.91344423485612
  0
LINE
  8
_0-1_
  6
CONTINUOUS
 62
    7
 10
408.4592346089849
 20
966.44184723595322
 11
437.45923460898496
 21
966.44184723595322
  0
LINE
  8
_0-1_
  6
CONTINUOUS
 62
    7
 10
437.45923460898496
 20
966.44184723595322
 11
437.45923460898496
 21
950.01906791829197
  0
LINE
  8
_0-1_
  6
CONTINUOUS
 62
    7
 10
407.45923460898496
 20
967.44184723595311
 11
438.45923460898496
 21
967.44184723595311
  0
LINE
  8
_0-1_
  6
CONTINUOUS
 62
    7
 10
401.45923460898501
 20
945.61226524253527
 11
408.4592346089849
 21
948.91344423485612
  0
LINE
  8
_0-1_
  6
CONTINUOUS
 62
    7
 10
437.45923460898496
 20
950.01906791829197
 11
444.45923460898496
 21
946.71788892597101
  0
LINE
  8
_0-1_
  6
CONTINUOUS
 62
    7
 10
438.45923460898496
 20
950.65309460282492
 11
444.45923460898496
 21
947.82351260940686
  0
LINE
  8
_0-1_
  6
CONTINUOUS
 62
    7
 10
438.45923460898496
 20
967.44184723595311
 11
438.45923460898496
 21
950.65309460282492
  0
LINE
  8
_0-1_
  6
CONTINUOUS
 62
    7
 10
409.45923460898496
 20
945.71788892597112
 11
413.2888166024029
 21
949.54747091938896
  0
LINE
  8
_0-1_
  6
CONTINUOUS
 62
    7
 10
409.45923460898496
 20
945.71788892597112
 11
436.45923460898501
 21
945.71788892597112
  0
LINE
  8
_0-1_
  6
CONTINUOUS
 62
    7
 10
436.45923460898501
 20
945.71788892597112
 11
432.62965261556707
 21
949.54747091938896
  0
ARC
  8
_0-1_
  6
CONTINUOUS
 62
    7
 10
401.45923460898501
 20
886.44184723595322
 40
8
 50
0
 51
90
  0
LINE
  8
_0-1_
  6
CONTINUOUS
 62
    7
 10
409.45923460898496
 20
886.44184723595322
 11
409.45923460898496
 21
672.44184723595311
  0
ARC
  8
_0-1_
  6
CONTINUOUS
 62
    7
 10
401.45923460898501
 20
672.44184723595311
 40
8
 50
270
 51
0.0000000000000636
  0
LINE
  8
_0-1_
  6
CONTINUOUS
 62
    7
 10
1532.2595673876872
 20
675.44184723595311
 11
1532.2595673876872
 21
720.65806345216924
  0
ARC
  8
_0-1_
  6
CONTINUOUS
 62
    7
 10
1524.2595673876872
 20
675.44184723595311
 40
8
 50
270
 51
0
  0
LINE
  8
_0-1_
  6
CONTINUOUS
 62
    7
 10
616.45923460898507
 20
720.97518056928629
 11
616.45923460898507
 21
672.44184723595311
  0
ARC
  8
_0-1_
  6
CONTINUOUS
 62
    7
 10
624.45923460898496
 20
672.44184723595311
 40
8
 50
179.99999999999994
 51
270
  0
POINT
  8
_0-a_
 62
    7
 10
369.45923460898496
 20
1194.995840266223
  0
POINT
  8
_0-a_
 62
    7
 10
401.45923460898501
 20
1194.995840266223
  0
LINE
  8
_0-a_
  6
CONTINUOUS
 62
    7
 10
369.45923460898496
 20
1194.995840266223
 11
369.45923460898496
 21
1070.9525790349417
  0
LINE
  8
_0-a_
  6
CONTINUOUS
 62
    7
 10
401.45923460898501
 20
1194.995840266223
 11
401.45923460898501
 21
1070.9525790349417
  0
LINE
  8
_0-a_
  6
CONTINUOUS
 62
    7
 10
369.45923460898496
 20
1194.995840266223
 11
401.45923460898501
 21
1194.995840266223
  0
TEXT
  8
_0-a_
 62
    7
 10
379.20923460898507
 20
1197.495840266223
 40
12.5
 41
1
 50
0
  1
32
  0
POINT
  8
_0-a_
 62
    7
 10
444.45923460898496
 20
1194.995840266223
  0
LINE
  8
_0-a_
  6
CONTINUOUS
 62
    7
 10
444.45923460898496
 20
1194.995840266223
 11
444.45923460898496
 21
1070.9525790349417
  0
LINE
  8
_0-a_
  6
CONTINUOUS
 62
    7
 10
401.45923460898501
 20
1194.995840266223
 11
444.45923460898496
 21
1194.995840266223
  0
TEXT
  8
_0-a_
 62
    7
 10
416.70923460898501
 20
1197.495840266223
 40
12.5
 41
1
 50
0
  1
43
  0
POINT
  8
_0-a_
 62
    7
 10
474.45923460898496
 20
1194.995840266223
  0
LINE
  8
_0-a_
  6
CONTINUOUS
 62
    7
 10
474.45923460898496
 20
1194.995840266223
 11
474.45923460898496
 21
1070.9525790349417
  0
LINE
  8
_0-a_
  6
CONTINUOUS
 62
    7
 10
444.45923460898496
 20
1194.995840266223
 11
474.45923460898496
 21
1194.995840266223
  0
TEXT
  8
_0-a_
 62
    7
 10
453.20923460898496
 20
1197.495840266223
 40
12.5
 41
1
 50
0
  1
30
  0
POINT
  8
_0-a_
 62
    7
 10
1019.459234608985
 20
1194.995840266223
  0
POINT
  8
_0-a_
 62
    7
 10
1129.4592346089851
 20
1194.995840266223
  0
LINE
  8
_0-a_
  6
CONTINUOUS
 62
    7
 10
1019.459234608985
 20
1194.995840266223
 11
1019.459234608985
 21
1070.9525790349417
  0
LINE
  8
_0-a_
  6
CONTINUOUS
 62
    7
 10
1129.4592346089851
 20
1194.995840266223
 11
1129.4592346089851
 21
1070.9525790349417
  0
LINE
  8
_0-a_
  6
CONTINUOUS
 62
    7
 10
1019.459234608985
 20
1194.995840266223
 11
1129.4592346089851
 21
1194.995840266223
  0
TEXT
  8
_0-a_
 62
    7
 10
1065.0842346089851
 20
1197.495840266223
 40
12.5
 41
1
 50
0
  1
110
  0
POINT
  8
_0-a_
 62
    7
 10
1681.2595673876872
 20
1194.995840266223
  0
POINT
  8
_0-a_
 62
    7
 10
1709.2595673876872
 20
1194.995840266223
  0
LINE
  8
_0-a_
  6
CONTINUOUS
 62
    7
 10
1681.2595673876872
 20
1194.995840266223
 11
1681.2595673876872
 21
1070.9525790349417
  0
LINE
  8
_0-a_
  6
CONTINUOUS
 62
    7
 10
1709.2595673876872
 20
1194.995840266223
 11
1709.2595673876872
 21
1070.9525790349417
  0
LINE
  8
_0-a_
  6
CONTINUOUS
 62
    7
 10
1681.2595673876872
 20
1194.995840266223
 11
1709.2595673876872
 21
1194.995840266223
  0
TEXT
  8
_0-a_
 62
    7
 10
1689.0095673876872
 20
1197.495840266223
 40
12.5
 41
1
 50
0
  1
28
  0
POINT
  8
_0-a_
 62
    7
 10
1794.2595673876872
 20
1194.995840266223
  0
LINE
  8
_0-a_
  6
CONTINUOUS
 62
    7
 10
1794.2595673876872
 20
1194.995840266223
 11
1794.2595673876872
 21
1070.9525790349417
  0
LINE
  8
_0-a_
  6
CONTINUOUS
 62
    7
 10
1709.2595673876872
 20
1194.995840266223
 11
1794.2595673876872
 21
1194.995840266223
  0
TEXT
  8
_0-a_
 62
    7
 10
1745.5095673876872
 20
1197.495840266223
 40
12.5
 41
1
 50
0
  1
85
  0
POINT
  8
_0-a_
 62
    7
 10
1019.459234608985
 20
1151.3186356073211
  0
POINT
  8
_0-a_
 62
    7
 10
1074.4592346089851
 20
1151.3186356073211
  0
LINE
  8
_0-a_
  6
CONTINUOUS
 62
    7
 10
1019.459234608985
 20
1151.3186356073211
 11
1019.459234608985
 21
1070.9525790349417
  0
LINE
  8
_0-a_
  6
CONTINUOUS
 62
    7
 10
1074.4592346089851
 20
1151.3186356073211
 11
1074.4592346089851
 21
1070.9525790349417
  0
LINE
  8
_0-a_
  6
CONTINUOUS
 62
    7
 10
1019.459234608985
 20
1151.3186356073211
 11
1074.4592346089851
 21
1151.3186356073211
  0
TEXT
  8
_0-a_
 62
    7
 10
1040.7092346089851
 20
1153.8186356073211
 40
12.5
 41
1
 50
0
  1
55
  0
POINT
  8
_0-a_
 62
    7
 10
1129.4592346089851
 20
1151.3186356073211
  0
LINE
  8
_0-a_
  6
CONTINUOUS
 62
    7
 10
1129.4592346089851
 20
1151.3186356073211
 11
1129.4592346089851
 21
1070.9525790349417
  0
LINE
  8
_0-a_
  6
CONTINUOUS
 62
    7
 10
1074.4592346089851
 20
1151.3186356073211
 11
1129.4592346089851
 21
1151.3186356073211
  0
TEXT
  8
_0-a_
 62
    7
 10
1095.7092346089851
 20
1153.8186356073211
 40
12.5
 41
1
 50
0
  1
55
  0
POINT
  8
_0-a_
 62
    7
 10
369.45923460898496
 20
475.19550748752079
  0
POINT
  8
_0-a_
 62
    7
 10
401.45923460898501
 20
475.19550748752079
  0
LINE
  8
_0-a_
  6
CONTINUOUS
 62
    7
 10
369.45923460898496
 20
475.19550748752079
 11
369.45923460898496
 21
590.50332778702159
  0
LINE
  8
_0-a_
  6
CONTINUOUS
 62
    7
 10
401.45923460898501
 20
475.19550748752079
 11
401.45923460898501
 21
590.50332778702159
  0
LINE
  8
_0-a_
  6
CONTINUOUS
 62
    7
 10
369.45923460898496
 20
475.19550748752079
 11
401.45923460898501
 21
475.19550748752079
  0
TEXT
  8
_0-a_
 62
    7
 10
379.20923460898507
 20
477.69550748752079
 40
12.5
 41
1
 50
0
  1
32
  0
POINT
  8
_0-a_
 62
    7
 10
624.45923460898496
 20
475.19550748752079
  0
LINE
  8
_0-a_
  6
CONTINUOUS
 62
    7
 10
624.45923460898496
 20
475.19550748752079
 11
624.45923460898496
 21
590.50332778702159
  0
LINE
  8
_0-a_
  6
CONTINUOUS
 62
    7
 10
401.45923460898501
 20
475.19550748752079
 11
624.45923460898496
 21
475.19550748752079
  0
TEXT
  8
_0-a_
 62
    7
 10
503.58423460898501
 20
477.69550748752079
 40
12.5
 41
1
 50
0
  1
223
  0
POINT
  8
_0-a_
 62
    7
 10
651.45923460898507
 20
475.19550748752079
  0
LINE
  8
_0-a_
  6
CONTINUOUS
 62
    7
 10
651.45923460898507
 20
475.19550748752079
 11
651.45923460898507
 21
590.50332778702159
  0
LINE
  8
_0-a_
  6
CONTINUOUS
 62
    7
 10
624.45923460898496
 20
475.19550748752079
 11
651.45923460898507
 21
475.19550748752079
  0
TEXT
  8
_0-a_
 62
    7
 10
631.70923460898496
 20
477.69550748752079
 40
12.5
 41
1
 50
0
  1
27
  0
POINT
  8
_0-a_
 62
    7
 10
969.45923460898496
 20
475.19550748752079
  0
POINT
  8
_0-a_
 62
    7
 10
1179.4592346089851
 20
475.19550748752079
  0
LINE
  8
_0-a_
  6
CONTINUOUS
 62
    7
 10
969.45923460898496
 20
475.19550748752079
 11
969.45923460898496
 21
590.50332778702159
  0
LINE
  8
_0-a_
  6
CONTINUOUS
 62
    7
 10
1179.4592346089851
 20
475.19550748752079
 11
1179.4592346089851
 21
590.50332778702159
  0
LINE
  8
_0-a_
  6
CONTINUOUS
 62
    7
 10
969.45923460898496
 20
475.19550748752079
 11
1179.4592346089851
 21
475.19550748752079
  0
TEXT
  8
_0-a_
 62
    7
 10
1065.0842346089851
 20
477.69550748752079
 40
12.5
 41
1
 50
0
  1
210
  0
POINT
  8
_0-a_
 62
    7
 10
1497.2595673876872
 20
475.19550748752079
  0
POINT
  8
_0-a_
 62
    7
 10
1524.2595673876872
 20
475.19550748752079
  0
LINE
  8
_0-a_
  6
CONTINUOUS
 62
    7
 10
1497.2595673876872
 20
475.19550748752079
 11
1497.2595673876872
 21
590.50332778702159
  0
LINE
  8
_0-a_
  6
CONTINUOUS
 62
    7
 10
1524.2595673876872
 20
475.19550748752079
 11
1524.2595673876872
 21
590.50332778702159
  0
LINE
  8
_0-a_
  6
CONTINUOUS
 62
    7
 10
1497.2595673876872
 20
475.19550748752079
 11
1524.2595673876872
 21
475.19550748752079
  0
TEXT
  8
_0-a_
 62
    7
 10
1504.5095673876872
 20
477.69550748752079
 40
12.5
 41
1
 50
0
  1
27
  0
POINT
  8
_0-a_
 62
    7
 10
1794.2595673876872
 20
475.19550748752079
  0
LINE
  8
_0-a_
  6
CONTINUOUS
 62
    7
 10
1794.2595673876872
 20
475.19550748752079
 11
1794.2595673876872
 21
590.50332778702159
  0
LINE
  8
_0-a_
  6
CONTINUOUS
 62
    7
 10
1524.2595673876872
 20
475.19550748752079
 11
1794.2595673876872
 21
475.19550748752079
  0
TEXT
  8
_0-a_
 62
    7
 10
1649.8845673876872
 20
477.69550748752079
 40
12.5
 41
1
 50
0
  1
270
  0
POINT
  8
_0-a_
 62
    7
 10
228.86855241264556
 20
639.44184723595311
  0
POINT
  8
_0-a_
 62
    7
 10
228.86855241264556
 20
984.44184723595311
  0
LINE
  8
_0-a_
  6
CONTINUOUS
 62
    7
 10
228.86855241264556
 20
639.44184723595311
 11
340.68219633943431
 21
639.44184723595311
  0
LINE
  8
_0-a_
  6
CONTINUOUS
 62
    7
 10
228.86855241264556
 20
984.44184723595311
 11
340.68219633943431
 21
984.44184723595311
  0
LINE
  8
_0-a_
  6
CONTINUOUS
 62
    7
 10
228.86855241264556
 20
639.44184723595311
 11
228.86855241264556
 21
984.44184723595311
  0
TEXT
  8
_0-a_
 62
    7
 10
226.36855241264556
 20
802.56684723595311
 40
12.5
 41
1
 50
90
  1
345
  0
POINT
  8
_0-a_
 62
    7
 10
265.55740432612311
 20
639.44184723595311
  0
POINT
  8
_0-a_
 62
    7
 10
265.55740432612311
 20
664.44184723595311
  0
LINE
  8
_0-a_
  6
CONTINUOUS
 62
    7
 10
265.55740432612311
 20
639.44184723595311
 11
340.68219633943431
 21
639.44184723595311
  0
LINE
  8
_0-a_
  6
CONTINUOUS
 62
    7
 10
265.55740432612311
 20
664.44184723595311
 11
340.68219633943431
 21
664.44184723595311
  0
LINE
  8
_0-a_
  6
CONTINUOUS
 62
    7
 10
265.55740432612311
 20
639.44184723595311
 11
265.55740432612311
 21
664.44184723595311
  0
TEXT
  8
_0-a_
 62
    7
 10
263.05740432612311
 20
645.69184723595311
 40
12.5
 41
1
 50
90
  1
25
  0
POINT
  8
_0-a_
 62
    7
 10
265.55740432612311
 20
984.44184723595311
  0
LINE
  8
_0-a_
  6
CONTINUOUS
 62
    7
 10
265.55740432612311
 20
984.44184723595311
 11
340.68219633943431
 21
984.44184723595311
  0
LINE
  8
_0-a_
  6
CONTINUOUS
 62
    7
 10
265.55740432612311
 20
664.44184723595311
 11
265.55740432612311
 21
984.44184723595311
  0
TEXT
  8
_0-a_
 62
    7
 10
263.05740432612311
 20
815.06684723595311
 40
12.5
 41
1
 50
90
  1
320
  0
POINT
  8
_0-a_
 62
    7
 10
829.8668885191347
 20
571.41240998443027
  0
POINT
  8
_0-a_
 62
    7
 10
829.86688851913482
 20
1046.4418472359532
  0
LINE
  8
_0-a_
  6
CONTINUOUS
 62
    7
 10
829.8668885191347
 20
571.41240998443027
 11
934.69217970049908
 21
571.41240998443027
  0
LINE
  8
_0-a_
  6
CONTINUOUS
 62
    7
 10
829.86688851913482
 20
1046.4418472359532
 11
934.69217970049931
 21
1046.4418472359532
  0
LINE
  8
_0-a_
  6
CONTINUOUS
 62
    7
 10
829.8668885191347
 20
571.41240998443027
 11
829.86688851913482
 21
1046.4418472359532
  0
TEXT
  8
_0-a_
 62
    7
 10
827.3668885191347
 20
799.55212861019174
 40
12.5
 41
1
 50
90
  1
475
  0
POINT
  8
_0-a_
 62
    7
 10
1294.5923460898503
 20
571.41240998443027
  0
POINT
  8
_0-a_
 62
    7
 10
1294.5923460898503
 20
671.44184723595322
  0
LINE
  8
_0-a_
  6
CONTINUOUS
 62
    7
 10
1294.5923460898503
 20
571.41240998443027
 11
1214.2262895174708
 21
571.41240998443027
  0
LINE
  8
_0-a_
  6
CONTINUOUS
 62
    7
 10
1294.5923460898503
 20
671.44184723595322
 11
1214.2262895174708
 21
671.44184723595322
  0
LINE
  8
_0-a_
  6
CONTINUOUS
 62
    7
 10
1294.5923460898503
 20
571.41240998443027
 11
1294.5923460898503
 21
671.44184723595322
  0
TEXT
  8
_0-a_
 62
    7
 10
1292.0923460898503
 20
612.05212861019174
 40
12.5
 41
1
 50
90
  1
100
  0
POINT
  8
_0-a_
 62
    7
 10
1294.5923460898503
 20
721.44184723595322
  0
LINE
  8
_0-a_
  6
CONTINUOUS
 62
    7
 10
1294.5923460898503
 20
721.44184723595322
 11
1214.2262895174708
 21
721.44184723595322
  0
LINE
  8
_0-a_
  6
CONTINUOUS
 62
    7
 10
1294.5923460898503
 20
671.44184723595322
 11
1294.5923460898503
 21
721.44184723595322
  0
TEXT
  8
_0-a_
 62
    7
 10
1292.0923460898503
 20
690.19184723595322
 40
12.5
 41
1
 50
90
  1
50
  0
POINT
  8
_0-a_
 62
    7
 10
1294.5923460898505
 20
981.44184723595322
  0
LINE
  8
_0-a_
  6
CONTINUOUS
 62
    7
 10
1294.5923460898505
 20
981.44184723595322
 11
1214.2262895174711
 21
981.44184723595322
  0
LINE
  8
_0-a_
  6
CONTINUOUS
 62
    7
 10
1294.5923460898503
 20
721.44184723595322
 11
1294.5923460898505
 21
981.44184723595322
  0
TEXT
  8
_0-a_
 62
    7
 10
1292.0923460898503
 20
842.06684723595322
 40
12.5
 41
1
 50
90
  1
260
  0
POINT
  8
_0-a_
 62
    7
 10
1294.5923460898505
 20
1046.4418472359532
  0
LINE
  8
_0-a_
  6
CONTINUOUS
 62
    7
 10
1294.5923460898505
 20
1046.4418472359532
 11
1214.2262895174711
 21
1046.4418472359532
  0
LINE
  8
_0-a_
  6
CONTINUOUS
 62
    7
 10
1294.5923460898505
 20
981.44184723595322
 11
1294.5923460898505
 21
1046.4418472359532
  0
TEXT
  8
_0-a_
 62
    7
 10
1292.0923460898505
 20
1007.6918472359532
 40
12.5
 41
1
 50
90
  1
65
  0
POINT
  8
_0-a_
 62
    7
 10
1942.7620632279536
 20
639.44184723595311
  0
POINT
  8
_0-a_
 62
    7
 10
1942.7620632279536
 20
984.44184723595311
  0
LINE
  8
_0-a_
  6
CONTINUOUS
 62
    7
 10
1942.7620632279536
 20
639.44184723595311
 11
1841.4309484193013
 21
639.44184723595311
  0
LINE
  8
_0-a_
  6
CONTINUOUS
 62
    7
 10
1942.7620632279536
 20
984.44184723595311
 11
1841.4309484193013
 21
984.44184723595311
  0
LINE
  8
_0-a_
  6
CONTINUOUS
 62
    7
 10
1942.7620632279536
 20
639.44184723595311
 11
1942.7620632279536
 21
984.44184723595311
  0
TEXT
  8
_0-a_
 62
    7
 10
1940.2620632279536
 20
802.56684723595311
 40
12.5
 41
1
 50
90
  1
345
  0
POINT
  8
_0-a_
 62
    7
 10
735.52412645590675
 20
639.44184723595311
  0
POINT
  8
_0-a_
 62
    7
 10
735.52412645590675
 20
662.44184723595311
  0
LINE
  8
_0-a_
  6
CONTINUOUS
 62
    7
 10
735.52412645590675
 20
639.44184723595311
 11
681.36439267886863
 21
639.44184723595311
  0
LINE
  8
_0-a_
  6
CONTINUOUS
 62
    7
 10
735.52412645590675
 20
662.44184723595311
 11
681.36439267886863
 21
662.44184723595311
  0
LINE
  8
_0-a_
  6
CONTINUOUS
 62
    7
 10
735.52412645590675
 20
639.44184723595311
 11
735.52412645590675
 21
662.44184723595311
  0
TEXT
  8
_0-a_
 62
    7
 10
733.02412645590675
 20
644.69184723595322
 40
12.5
 41
1
 50
90
  1
23
  0
POINT
  8
_0-a_
 62
    7
 10
735.52412645590675
 20
727.50527163487573
  0
LINE
  8
_0-a_
  6
CONTINUOUS
 62
    7
 10
735.52412645590675
 20
727.50527163487573
 11
681.36439267886863
 21
727.50527163487573
  0
LINE
  8
_0-a_
  6
CONTINUOUS
 62
    7
 10
735.52412645590675
 20
662.44184723595311
 11
735.52412645590675
 21
727.50527163487573
  0
TEXT
  8
_0-a_
 62
    7
 10
733.02412645590675
 20
688.72355943541447
 40
12.5
 41
1
 50
90
  1
65
  0
POINT
  8
_0-a_
 62
    7
 10
735.52412645590675
 20
916.30527163487568
  0
LINE
  8
_0-a_
  6
CONTINUOUS
 62
    7
 10
735.52412645590675
 20
916.30527163487568
 11
681.36439267886863
 21
916.30527163487568
  0
LINE
  8
_0-a_
  6
CONTINUOUS
 62
    7
 10
735.52412645590675
 20
727.50527163487573
 11
735.52412645590675
 21
916.30527163487568
  0
TEXT
  8
_0-a_
 62
    7
 10
733.02412645590675
 20
812.5302716348757
 40
12.5
 41
1
 50
90
  1
189
  0
POINT
  8
_0-a_
 62
    7
 10
735.52412645590698
 20
984.44184723595299
  0
LINE
  8
_0-a_
  6
CONTINUOUS
 62
    7
 10
735.52412645590698
 20
984.44184723595299
 11
681.36439267886863
 21
984.44184723595299
  0
LINE
  8
_0-a_
  6
CONTINUOUS
 62
    7
 10
735.52412645590675
 20
916.30527163487568
 11
735.52412645590698
 21
984.44184723595299
  0
TEXT
  8
_0-a_
 62
    7
 10
733.02412645590675
 20
944.12355943541445
 40
12.5
 41
1
 50
90
  1
68
  0
POINT
  8
_0-a_
 62
    7
 10
1405.9267671231892
 20
639.44184723595311
  0
POINT
  8
_0-a_
 62
    7
 10
1405.9267671231892
 20
662.44184723595311
  0
LINE
  8
_0-a_
  6
CONTINUOUS
 62
    7
 10
1405.9267671231892
 20
639.44184723595311
 11
1477.1706083812796
 21
639.44184723595311
  0
LINE
  8
_0-a_
  6
CONTINUOUS
 62
    7
 10
1405.9267671231892
 20
662.44184723595311
 11
1477.1706083812796
 21
662.44184723595311
  0
LINE
  8
_0-a_
  6
CONTINUOUS
 62
    7
 10
1405.9267671231892
 20
639.44184723595311
 11
1405.9267671231892
 21
662.44184723595311
  0
TEXT
  8
_0-a_
 62
    7
 10
1403.4267671231892
 20
644.69184723595322
 40
12.5
 41
1
 50
90
  1
23
  0
POINT
  8
_0-a_
 62
    7
 10
1405.9267671231892
 20
727.71567622895668
  0
LINE
  8
_0-a_
  6
CONTINUOUS
 62
    7
 10
1405.9267671231892
 20
727.71567622895668
 11
1477.1706083812796
 21
727.71567622895668
  0
LINE
  8
_0-a_
  6
CONTINUOUS
 62
    7
 10
1405.9267671231892
 20
662.44184723595311
 11
1405.9267671231892
 21
727.71567622895668
  0
TEXT
  8
_0-a_
 62
    7
 10
1403.4267671231892
 20
688.82876173245495
 40
12.5
 41
1
 50
90
  1
65
  0
POINT
  8
_0-a_
 62
    7
 10
1405.9267671231892
 20
916.68864920192971
  0
LINE
  8
_0-a_
  6
CONTINUOUS
 62
    7
 10
1405.9267671231892
 20
916.68864920192971
 11
1477.1706083812796
 21
916.68864920192971
  0
LINE
  8
_0-a_
  6
CONTINUOUS
 62
    7
 10
1405.9267671231892
 20
727.71567622895668
 11
1405.9267671231892
 21
916.68864920192971
  0
TEXT
  8
_0-a_
 62
    7
 10
1403.4267671231892
 20
812.82716271544336
 40
12.5
 41
1
 50
90
  1
189
  0
POINT
  8
_0-a_
 62
    7
 10
1405.9267671231892
 20
984.44184723595311
  0
LINE
  8
_0-a_
  6
CONTINUOUS
 62
    7
 10
1405.9267671231892
 20
984.44184723595311
 11
1477.1706083812796
 21
984.44184723595311
  0
LINE
  8
_0-a_
  6
CONTINUOUS
 62
    7
 10
1405.9267671231892
 20
916.68864920192971
 11
1405.9267671231892
 21
984.44184723595311
  0
TEXT
  8
_0-a_
 62
    7
 10
1403.4267671231892
 20
944.31524821894141
 40
12.5
 41
1
 50
90
  1
68
  0
POINT
  8
_0-a_
 62
    7
 10
556.64402726409799
 20
784.77806840383255
  0
POINT
  8
_0-a_
 62
    7
 10
578.5301487865629
 20
805.29630732826843
  0
LINE
  8
_0-a_
  6
CONTINUOUS
 62
    7
 10
556.64402726409799
 20
784.77806840383255
 11
578.5301487865629
 21
805.29630732826843
  0
TEXT
  8
_0-a_
 62
    7
 10
561.31762767708028
 20
792.5863988213307
 40
12.5
 41
1
 50
43.152389729999967
  1
30
  0
POINT
  8
_0-a_
 62
    7
 10
1572.3523002671436
 20
804.83794242947943
  0
POINT
  8
_0-a_
 62
    7
 10
1593.8464359099473
 20
783.90944193449059
  0
LINE
  8
_0-a_
  6
CONTINUOUS
 62
    7
 10
1572.3523002671436
 20
804.83794242947943
 11
1593.8464359099473
 21
783.90944193449059
  0
TEXT
  8
_0-a_
 62
    7
 10
1580.3654648708768
 20
800.52497442200797
 40
12.5
 41
1
 50
-44.236101540000071
  1
30
  0
ENDSEC
  0
EOF
