0
SECTION
2
HEADER
  9
$EXTMIN
10
0
20
0
30
0
  9
$EXTMAX
10
1317.568
20
1280.839
30
0
  9
$LTSCALE
40
5.000
  9
$DIMSCALE
40
5.000
  9
$PDMODE
70
0
  9
$PDSIZE
40
40
0
ENDSEC
0
SECTION
2
TABLES
0
TABLE
2
LTYPE
70
9
0
LTYPE
5
1f4
2
CONTINUOUS
70
0
3
実線
72
65
73
0
40
0.0
0
LTYPE
5
1f5
2
DOT
70
0
3
--  --  --  --  --  --  --  --     
72
65
73
2
40
5.000
49
1.000
49
-4.000
0
LTYPE
5
1f6
2
DASHED
70
0
3
----    ----    ----    ----    
72
65
73
2
40
5.000
49
2.000
49
-3.000
0
LTYPE
5
1f7
2
DASHED2
70
0
3
------  ------  ------  ------ 
72
65
73
2
40
10.000
49
4.000
49
-6.000
0
LTYPE
5
1f8
2
CENTER
70
0
3
----- - ----- - ----- - ----- - 
72
65
73
4
40
9.000
49
6.000
49
-1.000
49
1.000
49
-1.000
0
LTYPE
5
1f9
2
CENTER2
70
0
3
----------  --  ----------  -- 
72
65
73
4
40
18.000
49
12.000
49
-2.000
49
2.000
49
-2.000
0
LTYPE
5
1fa
2
PHANTOM
70
0
3
--- - - --- - - --- - - --- - -
72
65
73
6
40
10.000
49
5.000
49
-1.000
49
1.000
49
-1.000
49
1.000
49
-1.000
0
LTYPE
5
1fb
2
PHANTOM2
70
0
3
--------  -  -  --------  -  -
72
65
73
6
40
16.000
49
6.000
49
-2.000
49
2.000
49
-2.000
49
2.000
49
-2.000
0
LTYPE
5
1fc
2
HIDDEN
70
0
3
-   -   -   -   -   -   -   -   
72
65
73
2
40
2.500
49
0.500
49
-2.000
0
ENDTAB
0
TABLE
2
STYLE
70
1
0
STYLE
5
1fd
100
AcDbSymbolTableRecord
100
AcDbTextStyleTableRecord
2
STANDARD
70
0
40
0.0
41
1.0
50
0.0
71
0
42
0.0
3
txt.shx
4
extfont.shx
0
STYLE
5
1fe
100
AcDbSymbolTableRecord
100
AcDbTextStyleTableRecord
2
TATEGAKI
70
4
40
0.0
41
1.0
50
0.0
71
0
42
0.0
3
txt.shx
4
extfont.shx
0
STYLE
5
1ff
100
AcDbSymbolTableRecord
100
AcDbTextStyleTableRecord
2
MT
70
0
40
0.0
41
1.0
50
0.0
71
0
42
0.0
3
MS Mincho
4

0
STYLE
5
200
100
AcDbSymbolTableRecord
100
AcDbTextStyleTableRecord
2
TMT
70
4
40
0.0
41
1.0
50
0.0
71
0
42
0.0
3
@MS Mincho
4

0
ENDTAB
0
TABLE
2
LAYER
5
42ad
100
AcDbSymbolTable
70
10
0
LAYER
5
42ae
100
AcDbSymbolTableRecord
100
AcDbLayerTableRecord
2
0
70
64
62
  7
  6
CONTINUOUS
0
LAYER
5
42af
100
AcDbSymbolTableRecord
100
AcDbLayerTableRecord
2
0-0
70
64
62
  7
  6
CONTINUOUS
0
LAYER
5
42b0
100
AcDbSymbolTableRecord
100
AcDbLayerTableRecord
2
0-1
70
64
62
  7
  6
CONTINUOUS
0
LAYER
5
42b1
100
AcDbSymbolTableRecord
100
AcDbLayerTableRecord
2
0-2
70
64
62
  7
  6
CONTINUOUS
0
LAYER
5
42b2
100
AcDbSymbolTableRecord
100
AcDbLayerTableRecord
2
ADD_LINE
70
64
62
  -7
  6
CONTINUOUS
0
ENDTAB
0
ENDSEC
0
SECTION
2
ENTITIES
0
LINE
5
42b3
8
0-0
6
CONTINUOUS
62
  7
10
1020.351
20
834.189
30
0.0
11
1025.351
21
829.189
31
0.0
0
LINE
5
42b4
8
0-0
6
CONTINUOUS
62
  7
10
1020.351
20
834.189
30
0.0
11
1151.351
21
834.189
31
0.0
0
LINE
5
42b5
8
0-0
6
CONTINUOUS
62
  7
10
1038.351
20
1139.189
30
0.0
11
1038.351
21
949.189
31
0.0
0
LINE
5
42b6
8
0-0
6
CONTINUOUS
62
  7
10
1038.351
20
1139.189
30
0.0
11
1151.351
21
1139.189
31
0.0
0
LINE
5
42b7
8
0-0
6
CONTINUOUS
62
  7
10
1025.351
20
829.189
30
0.0
11
1151.351
21
829.189
31
0.0
0
LINE
5
42b8
8
0-0
6
CONTINUOUS
62
  7
10
1151.351
20
1139.189
30
0.0
11
1151.351
21
829.189
31
0.0
0
LINE
5
42b9
8
0-0
6
CONTINUOUS
62
  7
10
1020.351
20
862.189
30
0.0
11
1020.351
21
834.189
31
0.0
0
LINE
5
42ba
8
0-0
6
CONTINUOUS
62
  7
10
1043.351
20
1122.189
30
0.0
11
1151.351
21
1122.189
31
0.0
0
LINE
5
42bb
8
0-0
6
CONTINUOUS
62
  7
10
1043.351
20
1128.189
30
0.0
11
1043.351
21
1122.189
31
0.0
0
LINE
5
42bc
8
0-0
6
CONTINUOUS
62
  7
10
1043.351
20
1128.189
30
0.0
11
1151.351
21
1128.189
31
0.0
0
LINE
5
42bd
8
0-0
6
CONTINUOUS
62
  7
10
1066.351
20
1103.189
30
0.0
11
1075.351
21
1103.189
31
0.0
0
LINE
5
42be
8
0-0
6
CONTINUOUS
62
  7
10
1066.351
20
852.189
30
0.0
11
1066.420
21
851.473
31
0.0
0
LINE
5
42bf
8
0-0
6
CONTINUOUS
62
  7
10
1066.420
20
851.473
30
0.0
11
1066.493
21
850.774
31
0.0
0
LINE
5
42c0
8
0-0
6
CONTINUOUS
62
  7
10
1066.493
20
850.774
30
0.0
11
1066.572
21
850.090
31
0.0
0
LINE
5
42c1
8
0-0
6
CONTINUOUS
62
  7
10
1066.572
20
850.090
30
0.0
11
1066.656
21
849.421
31
0.0
0
LINE
5
42c2
8
0-0
6
CONTINUOUS
62
  7
10
1066.656
20
849.421
30
0.0
11
1066.748
21
848.765
31
0.0
0
LINE
5
42c3
8
0-0
6
CONTINUOUS
62
  7
10
1066.748
20
848.765
30
0.0
11
1066.845
21
848.121
31
0.0
0
LINE
5
42c4
8
0-0
6
CONTINUOUS
62
  7
10
1066.845
20
848.121
30
0.0
11
1066.951
21
847.490
31
0.0
0
LINE
5
42c5
8
0-0
6
CONTINUOUS
62
  7
10
1066.951
20
847.490
30
0.0
11
1067.063
21
846.871
31
0.0
0
LINE
5
42c6
8
0-0
6
CONTINUOUS
62
  7
10
1067.063
20
846.871
30
0.0
11
1067.183
21
846.266
31
0.0
0
LINE
5
42c7
8
0-0
6
CONTINUOUS
62
  7
10
1067.183
20
846.266
30
0.0
11
1067.310
21
845.676
31
0.0
0
LINE
5
42c8
8
0-0
6
CONTINUOUS
62
  7
10
1067.310
20
845.676
30
0.0
11
1067.444
21
845.100
31
0.0
0
LINE
5
42c9
8
0-0
6
CONTINUOUS
62
  7
10
1067.444
20
845.100
30
0.0
11
1067.585
21
844.542
31
0.0
0
LINE
5
42ca
8
0-0
6
CONTINUOUS
62
  7
10
1067.585
20
844.542
30
0.0
11
1067.733
21
844.002
31
0.0
0
LINE
5
42cb
8
0-0
6
CONTINUOUS
62
  7
10
1067.733
20
844.002
30
0.0
11
1067.887
21
843.482
31
0.0
0
LINE
5
42cc
8
0-0
6
CONTINUOUS
62
  7
10
1067.887
20
843.482
30
0.0
11
1068.047
21
842.985
31
0.0
0
LINE
5
42cd
8
0-0
6
CONTINUOUS
62
  7
10
1068.047
20
842.985
30
0.0
11
1068.212
21
842.511
31
0.0
0
LINE
5
42ce
8
0-0
6
CONTINUOUS
62
  7
10
1068.212
20
842.511
30
0.0
11
1068.383
21
842.064
31
0.0
0
LINE
5
42cf
8
0-0
6
CONTINUOUS
62
  7
10
1068.383
20
842.064
30
0.0
11
1068.559
21
841.644
31
0.0
0
LINE
5
42d0
8
0-0
6
CONTINUOUS
62
  7
10
1068.559
20
841.644
30
0.0
11
1068.739
21
841.254
31
0.0
0
LINE
5
42d1
8
0-0
6
CONTINUOUS
62
  7
10
1068.739
20
841.254
30
0.0
11
1068.924
21
840.895
31
0.0
0
LINE
5
42d2
8
0-0
6
CONTINUOUS
62
  7
10
1068.924
20
840.895
30
0.0
11
1069.114
21
840.569
31
0.0
0
LINE
5
42d3
8
0-0
6
CONTINUOUS
62
  7
10
1069.114
20
840.569
30
0.0
11
1069.309
21
840.277
31
0.0
0
LINE
5
42d4
8
0-0
6
CONTINUOUS
62
  7
10
1069.309
20
840.277
30
0.0
11
1069.508
21
840.019
31
0.0
0
LINE
5
42d5
8
0-0
6
CONTINUOUS
62
  7
10
1069.508
20
840.019
30
0.0
11
1069.713
21
839.796
31
0.0
0
LINE
5
42d6
8
0-0
6
CONTINUOUS
62
  7
10
1069.713
20
839.796
30
0.0
11
1069.924
21
839.609
31
0.0
0
LINE
5
42d7
8
0-0
6
CONTINUOUS
62
  7
10
1069.924
20
839.609
30
0.0
11
1070.142
21
839.456
31
0.0
0
LINE
5
42d8
8
0-0
6
CONTINUOUS
62
  7
10
1070.142
20
839.456
30
0.0
11
1070.368
21
839.336
31
0.0
0
LINE
5
42d9
8
0-0
6
CONTINUOUS
62
  7
10
1070.368
20
839.336
30
0.0
11
1070.604
21
839.248
31
0.0
0
LINE
5
42da
8
0-0
6
CONTINUOUS
62
  7
10
1070.604
20
839.248
30
0.0
11
1070.851
21
839.189
31
0.0
0
LINE
5
42db
8
0-0
6
CONTINUOUS
62
  7
10
1075.351
20
852.189
30
0.0
11
1075.283
21
851.473
31
0.0
0
LINE
5
42dc
8
0-0
6
CONTINUOUS
62
  7
10
1075.283
20
851.473
30
0.0
11
1075.209
21
850.774
31
0.0
0
LINE
5
42dd
8
0-0
6
CONTINUOUS
62
  7
10
1075.209
20
850.774
30
0.0
11
1075.131
21
850.090
31
0.0
0
LINE
5
42de
8
0-0
6
CONTINUOUS
62
  7
10
1075.131
20
850.090
30
0.0
11
1075.046
21
849.421
31
0.0
0
LINE
5
42df
8
0-0
6
CONTINUOUS
62
  7
10
1075.046
20
849.421
30
0.0
11
1074.955
21
848.765
31
0.0
0
LINE
5
42e0
8
0-0
6
CONTINUOUS
62
  7
10
1074.955
20
848.765
30
0.0
11
1074.857
21
848.121
31
0.0
0
LINE
5
42e1
8
0-0
6
CONTINUOUS
62
  7
10
1074.857
20
848.121
30
0.0
11
1074.752
21
847.490
31
0.0
0
LINE
5
42e2
8
0-0
6
CONTINUOUS
62
  7
10
1074.752
20
847.490
30
0.0
11
1074.640
21
846.871
31
0.0
0
LINE
5
42e3
8
0-0
6
CONTINUOUS
62
  7
10
1074.640
20
846.871
30
0.0
11
1074.520
21
846.266
31
0.0
0
LINE
5
42e4
8
0-0
6
CONTINUOUS
62
  7
10
1074.520
20
846.266
30
0.0
11
1074.393
21
845.676
31
0.0
0
LINE
5
42e5
8
0-0
6
CONTINUOUS
62
  7
10
1074.393
20
845.676
30
0.0
11
1074.259
21
845.100
31
0.0
0
LINE
5
42e6
8
0-0
6
CONTINUOUS
62
  7
10
1074.259
20
845.100
30
0.0
11
1074.118
21
844.542
31
0.0
0
LINE
5
42e7
8
0-0
6
CONTINUOUS
62
  7
10
1074.118
20
844.542
30
0.0
11
1073.970
21
844.002
31
0.0
0
LINE
5
42e8
8
0-0
6
CONTINUOUS
62
  7
10
1073.970
20
844.002
30
0.0
11
1073.816
21
843.482
31
0.0
0
LINE
5
42e9
8
0-0
6
CONTINUOUS
62
  7
10
1073.816
20
843.482
30
0.0
11
1073.656
21
842.985
31
0.0
0
LINE
5
42ea
8
0-0
6
CONTINUOUS
62
  7
10
1073.656
20
842.985
30
0.0
11
1073.491
21
842.511
31
0.0
0
LINE
5
42eb
8
0-0
6
CONTINUOUS
62
  7
10
1073.491
20
842.511
30
0.0
11
1073.320
21
842.064
31
0.0
0
LINE
5
42ec
8
0-0
6
CONTINUOUS
62
  7
10
1073.320
20
842.064
30
0.0
11
1073.144
21
841.644
31
0.0
0
LINE
5
42ed
8
0-0
6
CONTINUOUS
62
  7
10
1073.144
20
841.644
30
0.0
11
1072.964
21
841.254
31
0.0
0
LINE
5
42ee
8
0-0
6
CONTINUOUS
62
  7
10
1072.964
20
841.254
30
0.0
11
1072.778
21
840.895
31
0.0
0
LINE
5
42ef
8
0-0
6
CONTINUOUS
62
  7
10
1072.778
20
840.895
30
0.0
11
1072.589
21
840.569
31
0.0
0
LINE
5
42f0
8
0-0
6
CONTINUOUS
62
  7
10
1072.589
20
840.569
30
0.0
11
1072.394
21
840.277
31
0.0
0
LINE
5
42f1
8
0-0
6
CONTINUOUS
62
  7
10
1072.394
20
840.277
30
0.0
11
1072.194
21
840.019
31
0.0
0
LINE
5
42f2
8
0-0
6
CONTINUOUS
62
  7
10
1072.194
20
840.019
30
0.0
11
1071.990
21
839.796
31
0.0
0
LINE
5
42f3
8
0-0
6
CONTINUOUS
62
  7
10
1071.990
20
839.796
30
0.0
11
1071.779
21
839.609
31
0.0
0
LINE
5
42f4
8
0-0
6
CONTINUOUS
62
  7
10
1071.779
20
839.609
30
0.0
11
1071.561
21
839.456
31
0.0
0
LINE
5
42f5
8
0-0
6
CONTINUOUS
62
  7
10
1071.561
20
839.456
30
0.0
11
1071.335
21
839.336
31
0.0
0
LINE
5
42f6
8
0-0
6
CONTINUOUS
62
  7
10
1071.335
20
839.336
30
0.0
11
1071.099
21
839.248
31
0.0
0
LINE
5
42f7
8
0-0
6
CONTINUOUS
62
  7
10
1071.099
20
839.248
30
0.0
11
1070.851
21
839.189
31
0.0
0
LINE
5
42f8
8
0-0
6
CONTINUOUS
62
  7
10
1075.351
20
1103.189
30
0.0
11
1075.351
21
852.189
31
0.0
0
LINE
5
42f9
8
0-0
6
CONTINUOUS
62
  7
10
1066.351
20
1103.189
30
0.0
11
1066.351
21
852.189
31
0.0
0
LINE
5
42fa
8
0-0
6
CONTINUOUS
62
  7
10
1020.351
20
852.189
30
0.0
11
1066.351
21
852.189
31
0.0
0
LINE
5
42fb
8
0-0
6
CONTINUOUS
62
  7
10
1075.351
20
852.189
30
0.0
11
1151.351
21
852.189
31
0.0
0
LINE
5
42fc
8
0-0
6
CONTINUOUS
62
  7
10
685.135
20
1139.189
30
0.0
11
570.135
21
1139.189
31
0.0
0
LINE
5
42fd
8
0-0
6
CONTINUOUS
62
  7
10
570.135
20
829.189
30
0.0
11
679.135
21
829.189
31
0.0
0
LINE
5
42fe
8
0-0
6
CONTINUOUS
62
  7
10
685.135
20
849.189
30
0.0
11
679.135
21
829.189
31
0.0
0
LINE
5
42ff
8
0-0
6
CONTINUOUS
62
  7
10
685.135
20
1139.189
30
0.0
11
685.135
21
849.189
31
0.0
0
LINE
5
4300
8
0-0
6
CONTINUOUS
62
  7
10
570.135
20
829.189
30
0.0
11
544.135
21
829.189
31
0.0
0
LINE
5
4301
8
0-0
6
CONTINUOUS
62
  7
10
570.135
20
1139.189
30
0.0
11
544.135
21
829.189
31
0.0
0
LINE
5
4302
8
0-0
6
CONTINUOUS
62
  7
10
546.903
20
862.189
30
0.0
11
685.135
21
862.189
31
0.0
0
LINE
5
4303
8
0-0
6
CONTINUOUS
62
  7
10
685.135
20
1128.189
30
0.0
11
574.135
21
1128.189
31
0.0
0
LINE
5
4304
8
0-0
6
CONTINUOUS
62
  7
10
574.135
20
1128.189
30
0.0
11
574.135
21
1122.189
31
0.0
0
LINE
5
4305
8
0-0
6
CONTINUOUS
62
  7
10
685.135
20
1122.189
30
0.0
11
574.135
21
1122.189
31
0.0
0
LINE
5
4306
8
0-0
6
CONTINUOUS
62
  7
10
683.635
20
849.410
30
0.0
11
677.569
21
829.189
31
0.0
0
LINE
5
4307
8
0-0
6
CONTINUOUS
62
  7
10
683.635
20
1139.189
30
0.0
11
683.635
21
1128.189
31
0.0
0
LINE
5
4308
8
0-0
6
CONTINUOUS
62
  7
10
683.635
20
1122.189
30
0.0
11
683.635
21
849.410
31
0.0
0
LINE
5
4309
8
0-0
6
CONTINUOUS
62
  7
10
1151.351
20
651.814
30
0.0
11
1151.351
21
635.814
31
0.0
0
LINE
5
430a
8
0-0
6
CONTINUOUS
62
  7
10
1038.351
20
538.814
30
0.0
11
1054.351
21
538.814
31
0.0
0
LINE
5
430b
8
0-0
6
CONTINUOUS
62
  7
10
1054.351
20
635.814
30
0.0
11
1054.351
21
538.814
31
0.0
0
LINE
5
430c
8
0-0
6
CONTINUOUS
62
  7
10
1054.351
20
635.814
30
0.0
11
1151.351
21
635.814
31
0.0
0
LINE
5
430d
8
0-0
6
CONTINUOUS
62
  7
10
1040.473
20
651.814
30
0.0
11
1038.351
21
649.693
31
0.0
0
LINE
5
430e
8
0-0
6
CONTINUOUS
62
  7
10
1038.351
20
649.693
30
0.0
11
1038.351
21
538.814
31
0.0
0
LINE
5
430f
8
0-0
6
CONTINUOUS
62
  7
10
1040.473
20
651.814
30
0.0
11
1058.437
21
651.814
31
0.0
0
LINE
5
4310
8
0-0
6
CONTINUOUS
62
  7
10
1058.437
20
651.814
30
0.0
11
1066.351
21
651.814
31
0.0
0
LINE
5
4311
8
0-0
6
CONTINUOUS
62
  7
10
1075.351
20
651.814
30
0.0
11
1151.351
21
651.814
31
0.0
0
LINE
5
4312
8
0-0
6
CONTINUOUS
62
  7
10
1066.351
20
650.814
30
0.0
11
1066.351
21
651.814
31
0.0
0
LINE
5
4313
8
0-0
6
CONTINUOUS
62
  7
10
1073.351
20
648.814
30
0.0
11
1068.351
21
648.814
31
0.0
0
LINE
5
4314
8
0-0
6
CONTINUOUS
62
  7
10
1075.351
20
650.814
30
0.0
11
1075.351
21
651.814
31
0.0
0
LINE
5
4315
8
0-0
6
CONTINUOUS
62
  7
10
1020.351
20
266.405
30
0.0
11
1020.564
21
266.237
31
0.0
0
LINE
5
4316
8
0-0
6
CONTINUOUS
62
  7
10
1020.564
20
266.237
30
0.0
11
1020.783
21
266.080
31
0.0
0
LINE
5
4317
8
0-0
6
CONTINUOUS
62
  7
10
1020.783
20
266.080
30
0.0
11
1021.011
21
265.931
31
0.0
0
LINE
5
4318
8
0-0
6
CONTINUOUS
62
  7
10
1021.011
20
265.931
30
0.0
11
1021.250
21
265.792
31
0.0
0
LINE
5
4319
8
0-0
6
CONTINUOUS
62
  7
10
1021.250
20
265.792
30
0.0
11
1021.503
21
265.661
31
0.0
0
LINE
5
431a
8
0-0
6
CONTINUOUS
62
  7
10
1021.503
20
265.661
30
0.0
11
1021.771
21
265.537
31
0.0
0
LINE
5
431b
8
0-0
6
CONTINUOUS
62
  7
10
1021.771
20
265.537
30
0.0
11
1022.058
21
265.421
31
0.0
0
LINE
5
431c
8
0-0
6
CONTINUOUS
62
  7
10
1022.058
20
265.421
30
0.0
11
1022.363
21
265.311
31
0.0
0
LINE
5
431d
8
0-0
6
CONTINUOUS
62
  7
10
1022.363
20
265.311
30
0.0
11
1022.690
21
265.208
31
0.0
0
LINE
5
431e
8
0-0
6
CONTINUOUS
62
  7
10
1022.690
20
265.208
30
0.0
11
1023.039
21
265.110
31
0.0
0
LINE
5
431f
8
0-0
6
CONTINUOUS
62
  7
10
1023.039
20
265.110
30
0.0
11
1023.412
21
265.017
31
0.0
0
LINE
5
4320
8
0-0
6
CONTINUOUS
62
  7
10
1023.412
20
265.017
30
0.0
11
1023.810
21
264.929
31
0.0
0
LINE
5
4321
8
0-0
6
CONTINUOUS
62
  7
10
1023.810
20
264.929
30
0.0
11
1024.234
21
264.845
31
0.0
0
LINE
5
4322
8
0-0
6
CONTINUOUS
62
  7
10
1024.234
20
264.845
30
0.0
11
1024.684
21
264.765
31
0.0
0
LINE
5
4323
8
0-0
6
CONTINUOUS
62
  7
10
1024.684
20
264.765
30
0.0
11
1025.161
21
264.688
31
0.0
0
LINE
5
4324
8
0-0
6
CONTINUOUS
62
  7
10
1025.161
20
264.688
30
0.0
11
1025.667
21
264.614
31
0.0
0
LINE
5
4325
8
0-0
6
CONTINUOUS
62
  7
10
1025.667
20
264.614
30
0.0
11
1026.200
21
264.542
31
0.0
0
LINE
5
4326
8
0-0
6
CONTINUOUS
62
  7
10
1026.200
20
264.542
30
0.0
11
1026.762
21
264.473
31
0.0
0
LINE
5
4327
8
0-0
6
CONTINUOUS
62
  7
10
1026.762
20
264.473
30
0.0
11
1027.351
21
264.405
31
0.0
0
LINE
5
4328
8
0-0
6
CONTINUOUS
62
  7
10
1049.351
20
264.405
30
0.0
11
1049.892
21
264.503
31
0.0
0
LINE
5
4329
8
0-0
6
CONTINUOUS
62
  7
10
1049.892
20
264.503
30
0.0
11
1050.423
21
264.608
31
0.0
0
LINE
5
432a
8
0-0
6
CONTINUOUS
62
  7
10
1050.423
20
264.608
30
0.0
11
1050.943
21
264.720
31
0.0
0
LINE
5
432b
8
0-0
6
CONTINUOUS
62
  7
10
1050.943
20
264.720
30
0.0
11
1051.449
21
264.839
31
0.0
0
LINE
5
432c
8
0-0
6
CONTINUOUS
62
  7
10
1051.449
20
264.839
30
0.0
11
1051.939
21
264.965
31
0.0
0
LINE
5
432d
8
0-0
6
CONTINUOUS
62
  7
10
1051.939
20
264.965
30
0.0
11
1052.413
21
265.097
31
0.0
0
LINE
5
432e
8
0-0
6
CONTINUOUS
62
  7
10
1052.413
20
265.097
30
0.0
11
1052.867
21
265.237
31
0.0
0
LINE
5
432f
8
0-0
6
CONTINUOUS
62
  7
10
1052.867
20
265.237
30
0.0
11
1053.300
21
265.383
31
0.0
0
LINE
5
4330
8
0-0
6
CONTINUOUS
62
  7
10
1053.300
20
265.383
30
0.0
11
1053.711
21
265.536
31
0.0
0
LINE
5
4331
8
0-0
6
CONTINUOUS
62
  7
10
1053.711
20
265.536
30
0.0
11
1054.096
21
265.697
31
0.0
0
LINE
5
4332
8
0-0
6
CONTINUOUS
62
  7
10
1054.096
20
265.697
30
0.0
11
1054.455
21
265.864
31
0.0
0
LINE
5
4333
8
0-0
6
CONTINUOUS
62
  7
10
1054.455
20
265.864
30
0.0
11
1054.785
21
266.037
31
0.0
0
LINE
5
4334
8
0-0
6
CONTINUOUS
62
  7
10
1054.785
20
266.037
30
0.0
11
1055.084
21
266.218
31
0.0
0
LINE
5
4335
8
0-0
6
CONTINUOUS
62
  7
10
1055.084
20
266.218
30
0.0
11
1055.351
21
266.405
31
0.0
0
LINE
5
4336
8
0-0
6
CONTINUOUS
62
  7
10
1020.351
20
405.405
30
0.0
11
1020.351
21
266.405
31
0.0
0
LINE
5
4337
8
0-0
6
CONTINUOUS
62
  7
10
1027.351
20
264.405
30
0.0
11
1049.351
21
264.405
31
0.0
0
LINE
5
4338
8
0-0
6
CONTINUOUS
62
  7
10
1055.351
20
266.405
30
0.0
11
1151.351
21
367.405
31
0.0
0
LINE
5
4339
8
0-0
6
CONTINUOUS
62
  7
10
1027.351
20
396.405
30
0.0
11
1027.351
21
264.405
31
0.0
0
LINE
5
433a
8
0-0
6
CONTINUOUS
62
  7
10
1027.351
20
396.405
30
0.0
11
1151.351
21
396.405
31
0.0
0
LINE
5
433b
8
0-0
6
CONTINUOUS
62
  7
10
1151.351
20
396.405
30
0.0
11
1151.351
21
367.405
31
0.0
0
LINE
5
433c
8
0-0
6
CONTINUOUS
62
  7
10
1020.351
20
405.405
30
0.0
11
1148.351
21
405.405
31
0.0
0
LINE
5
433d
8
0-0
6
CONTINUOUS
62
  7
10
1148.351
20
405.405
30
0.0
11
1151.351
21
396.405
31
0.0
0
LINE
5
433e
8
0-2
6
CONTINUOUS
62
  7
10
570.135
20
1268.919
30
0.0
11
685.135
21
1268.919
31
0.0
0
LINE
5
433f
8
0-2
6
CONTINUOUS
62
  7
10
570.135
20
1175.676
30
0.0
11
570.135
21
1268.919
31
0.0
0
LINE
5
4340
8
0-2
6
CONTINUOUS
62
  7
10
685.135
20
1175.676
30
0.0
11
685.135
21
1268.919
31
0.0
0
LINE
5
4341
8
0-2
6
CONTINUOUS
62
  7
10
1038.351
20
1268.919
30
0.0
11
1151.351
21
1268.919
31
0.0
0
LINE
5
4342
8
0-2
6
CONTINUOUS
62
  7
10
1038.351
20
1175.676
30
0.0
11
1038.351
21
1268.919
31
0.0
0
LINE
5
4343
8
0-2
6
CONTINUOUS
62
  7
10
1151.351
20
1175.676
30
0.0
11
1151.351
21
1268.919
31
0.0
0
LINE
5
4344
8
0-2
6
CONTINUOUS
62
  7
10
544.135
20
741.892
30
0.0
11
685.135
21
741.892
31
0.0
0
LINE
5
4345
8
0-2
6
CONTINUOUS
62
  7
10
544.135
20
794.595
30
0.0
11
544.135
21
741.892
31
0.0
0
LINE
5
4346
8
0-2
6
CONTINUOUS
62
  7
10
685.135
20
794.595
30
0.0
11
685.135
21
741.892
31
0.0
0
LINE
5
4347
8
0-2
6
CONTINUOUS
62
  7
10
1020.351
20
741.892
30
0.0
11
1151.351
21
741.892
31
0.0
0
LINE
5
4348
8
0-2
6
CONTINUOUS
62
  7
10
1020.351
20
794.595
30
0.0
11
1020.351
21
741.892
31
0.0
0
LINE
5
4349
8
0-2
6
CONTINUOUS
62
  7
10
1151.351
20
794.595
30
0.0
11
1151.351
21
741.892
31
0.0
0
LINE
5
434a
8
0-2
6
CONTINUOUS
62
  7
10
1038.351
20
697.297
30
0.0
11
1151.351
21
697.297
31
0.0
0
LINE
5
434b
8
0-2
6
CONTINUOUS
62
  7
10
1038.351
20
664.865
30
0.0
11
1038.351
21
697.297
31
0.0
0
LINE
5
434c
8
0-2
6
CONTINUOUS
62
  7
10
1151.351
20
664.865
30
0.0
11
1151.351
21
697.297
31
0.0
0
LINE
5
434d
8
0-2
6
CONTINUOUS
62
  7
10
1038.351
20
502.362
30
0.0
11
1054.351
21
502.362
31
0.0
0
LINE
5
434e
8
0-2
6
CONTINUOUS
62
  7
10
1038.351
20
523.235
30
0.0
11
1038.351
21
502.362
31
0.0
0
LINE
5
434f
8
0-2
6
CONTINUOUS
62
  7
10
1054.351
20
523.235
30
0.0
11
1054.351
21
502.362
31
0.0
0
LINE
5
4350
8
0-2
6
CONTINUOUS
62
  7
10
1020.351
20
462.162
30
0.0
11
1151.351
21
462.162
31
0.0
0
LINE
5
4351
8
0-2
6
CONTINUOUS
62
  7
10
1020.351
20
425.676
30
0.0
11
1020.351
21
462.162
31
0.0
0
LINE
5
4352
8
0-2
6
CONTINUOUS
62
  7
10
1151.351
20
425.676
30
0.0
11
1151.351
21
462.162
31
0.0
0
LINE
5
4353
8
0-2
6
CONTINUOUS
62
  7
10
790.541
20
829.189
30
0.0
11
790.541
21
1139.189
31
0.0
0
LINE
5
4354
8
0-2
6
CONTINUOUS
62
  7
10
717.568
20
829.189
30
0.0
11
790.541
21
829.189
31
0.0
0
LINE
5
4355
8
0-2
6
CONTINUOUS
62
  7
10
717.568
20
1139.189
30
0.0
11
790.541
21
1139.189
31
0.0
0
LINE
5
4356
8
0-2
6
CONTINUOUS
62
  7
10
904.054
20
264.405
30
0.0
11
904.054
21
405.405
31
0.0
0
LINE
5
4357
8
0-2
6
CONTINUOUS
62
  7
10
977.027
20
264.405
30
0.0
11
904.054
21
264.405
31
0.0
0
LINE
5
4358
8
0-2
6
CONTINUOUS
62
  7
10
977.027
20
405.405
30
0.0
11
904.054
21
405.405
31
0.0
0
LINE
5
4359
8
0-2
6
CONTINUOUS
62
  7
10
1317.568
20
1139.189
30
0.0
11
1317.568
21
829.189
31
0.0
0
LINE
5
435a
8
0-2
6
CONTINUOUS
62
  7
10
1208.108
20
1139.189
30
0.0
11
1317.568
21
1139.189
31
0.0
0
LINE
5
435b
8
0-2
6
CONTINUOUS
62
  7
10
1208.108
20
829.189
30
0.0
11
1317.568
21
829.189
31
0.0
0
LINE
5
435c
8
0-2
6
CONTINUOUS
62
  7
10
1317.568
20
405.405
30
0.0
11
1317.568
21
367.405
31
0.0
0
LINE
5
435d
8
0-2
6
CONTINUOUS
62
  7
10
1208.108
20
405.405
30
0.0
11
1317.568
21
405.405
31
0.0
0
LINE
5
435e
8
0-2
6
CONTINUOUS
62
  7
10
1208.108
20
367.405
30
0.0
11
1317.568
21
367.405
31
0.0
0
LINE
5
435f
8
0-0
6
CONTINUOUS
62
  7
10
1022.351
20
861.839
30
0.0
11
1022.351
21
834.189
31
0.0
0
LINE
5
4360
8
0-0
6
CONTINUOUS
62
  7
10
1040.352
20
1139.189
30
0.0
11
1040.352
21
949.129
31
0.0
0
LINE
5
4361
8
ADD_LINE
6
HIDDEN
62
  3
10
1151.351
20
829.189
30
0.0
11
1164.781
21
829.189
31
0.0
0
LINE
5
4362
8
ADD_LINE
6
HIDDEN
62
  3
10
1151.351
20
829.189
30
0.0
11
1151.351
21
817.311
31
0.0
0
ARC
5
4363
8
0-0
6
CONTINUOUS
62
  7
10
728.100
20
968.017
30
0.0
40
310.822
50
340.094025
51
356.527222
0
CIRCLE
5
4364
8
0-0
6
CONTINUOUS
62
  7
10
1081.351
20
1049.189
30
0.0
40
3.000
0
CIRCLE
5
4365
8
0-0
6
CONTINUOUS
62
  7
10
1081.351
20
939.189
30
0.0
40
3.000
0
CIRCLE
5
4366
8
0-0
6
CONTINUOUS
62
  7
10
620.135
20
1049.189
30
0.0
40
3.000
0
CIRCLE
5
4367
8
0-0
6
CONTINUOUS
62
  7
10
620.135
20
949.189
30
0.0
40
3.000
0
ARC
5
4368
8
0-0
6
CONTINUOUS
62
  7
10
1068.351
20
650.814
30
0.0
40
2.000
50
180.000000
51
270.000000
0
ARC
5
4369
8
0-0
6
CONTINUOUS
62
  7
10
1073.351
20
650.814
30
0.0
40
2.000
50
270.000000
51
0.000000
0
ARC
5
436a
8
0-0
6
CONTINUOUS
62
  7
10
728.100
20
968.017
30
0.0
40
312.822
50
340.158417
51
356.538483
0
CIRCLE
5
436b
8
ADD_LINE
6
HIDDEN
62
  3
10
1151.351
20
829.189
30
0.0
40
3.000
0
TEXT
5
436c
100
AcDbEntity
8
0-2
62
7
100
AcDbText
10
618.260
20
1271.419
30
0.0
40
9.750
41
0.800
50
0.000
1
115
100
AcDbText
0
TEXT
5
436d
100
AcDbEntity
8
0-2
62
7
100
AcDbText
10
1085.476
20
1271.419
30
0.0
40
9.750
41
0.800
50
0.000
1
113
100
AcDbText
0
TEXT
5
436e
100
AcDbEntity
8
0-2
62
7
100
AcDbText
10
605.260
20
744.392
30
0.0
40
9.750
41
0.800
50
0.000
1
141
100
AcDbText
0
TEXT
5
436f
100
AcDbEntity
8
0-2
62
7
100
AcDbText
10
1076.476
20
744.392
30
0.0
40
9.750
41
0.800
50
0.000
1
131
100
AcDbText
0
TEXT
5
4370
100
AcDbEntity
8
0-2
62
7
100
AcDbText
10
1085.476
20
699.797
30
0.0
40
9.750
41
0.800
50
0.000
1
113
100
AcDbText
0
TEXT
5
4371
100
AcDbEntity
8
0-2
62
7
100
AcDbText
10
1040.101
20
504.862
30
0.0
40
9.750
41
0.800
50
0.000
1
16
100
AcDbText
0
TEXT
5
4372
100
AcDbEntity
8
0-2
62
7
100
AcDbText
10
1076.476
20
464.662
30
0.0
40
9.750
41
0.800
50
0.000
1
131
100
AcDbText
0
TEXT
5
4373
100
AcDbEntity
8
0-2
62
7
100
AcDbText
10
788.041
20
974.814
30
0.0
40
9.750
41
0.800
50
90.000
1
310
100
AcDbText
0
TEXT
5
4374
100
AcDbEntity
8
0-2
62
7
100
AcDbText
10
901.554
20
325.530
30
0.0
40
9.750
41
0.800
50
90.000
1
141
100
AcDbText
0
TEXT
5
4375
100
AcDbEntity
8
0-2
62
7
100
AcDbText
10
1315.068
20
974.814
30
0.0
40
9.750
41
0.800
50
90.000
1
310
100
AcDbText
0
TEXT
5
4376
100
AcDbEntity
8
0-2
62
7
100
AcDbText
10
1315.068
20
380.155
30
0.0
40
9.750
41
0.800
50
90.000
1
38
100
AcDbText
0
POINT
5
4377
8
0-2
62
  7
10
570.135
20
1268.919
30
0.0
0
POINT
5
4378
8
0-2
62
  7
10
685.135
20
1268.919
30
0.0
0
POINT
5
4379
8
0-2
62
  7
10
1038.351
20
1268.919
30
0.0
0
POINT
5
437a
8
0-2
62
  7
10
1151.351
20
1268.919
30
0.0
0
POINT
5
437b
8
0-2
62
  7
10
544.135
20
741.892
30
0.0
0
POINT
5
437c
8
0-2
62
  7
10
685.135
20
741.892
30
0.0
0
POINT
5
437d
8
0-2
62
  7
10
1020.351
20
741.892
30
0.0
0
POINT
5
437e
8
0-2
62
  7
10
1151.351
20
741.892
30
0.0
0
POINT
5
437f
8
0-2
62
  7
10
1038.351
20
697.297
30
0.0
0
POINT
5
4380
8
0-2
62
  7
10
1151.351
20
697.297
30
0.0
0
POINT
5
4381
8
0-2
62
  7
10
1038.351
20
502.362
30
0.0
0
POINT
5
4382
8
0-2
62
  7
10
1054.351
20
502.362
30
0.0
0
POINT
5
4383
8
0-2
62
  7
10
1020.351
20
462.162
30
0.0
0
POINT
5
4384
8
0-2
62
  7
10
1151.351
20
462.162
30
0.0
0
POINT
5
4385
8
0-2
62
  7
10
790.541
20
829.189
30
0.0
0
POINT
5
4386
8
0-2
62
  7
10
790.541
20
1139.189
30
0.0
0
POINT
5
4387
8
0-2
62
  7
10
904.054
20
264.405
30
0.0
0
POINT
5
4388
8
0-2
62
  7
10
904.054
20
405.405
30
0.0
0
POINT
5
4389
8
0-2
62
  7
10
1317.568
20
1139.189
30
0.0
0
POINT
5
438a
8
0-2
62
  7
10
1317.568
20
829.189
30
0.0
0
POINT
5
438b
8
0-2
62
  7
10
1317.568
20
405.405
30
0.0
0
POINT
5
438c
8
0-2
62
  7
10
1317.568
20
367.405
30
0.0
0
ENDSEC
0
EOF
