0
SECTION
2
HEADER
  9
$EXTMIN
10
0
20
0
30
0
  9
$EXTMAX
10
2501.215
20
1929.593
30
0
  9
$LTSCALE
40
5.000
  9
$DIMSCALE
40
5.000
  9
$PDMODE
70
0
  9
$PDSIZE
40
40
0
ENDSEC
0
SECTION
2
TABLES
0
TABLE
2
LTYPE
70
9
0
LTYPE
5
1f4
2
CONTINUOUS
70
0
3
実線
72
65
73
0
40
0.0
0
LTYPE
5
1f5
2
DOT
70
0
3
--  --  --  --  --  --  --  --     
72
65
73
2
40
5.000
49
1.000
49
-4.000
0
LTYPE
5
1f6
2
DASHED
70
0
3
----    ----    ----    ----    
72
65
73
2
40
5.000
49
2.000
49
-3.000
0
LTYPE
5
1f7
2
DASHED2
70
0
3
------  ------  ------  ------ 
72
65
73
2
40
10.000
49
4.000
49
-6.000
0
LTYPE
5
1f8
2
CENTER
70
0
3
----- - ----- - ----- - ----- - 
72
65
73
4
40
9.000
49
6.000
49
-1.000
49
1.000
49
-1.000
0
LTYPE
5
1f9
2
CENTER2
70
0
3
----------  --  ----------  -- 
72
65
73
4
40
18.000
49
12.000
49
-2.000
49
2.000
49
-2.000
0
LTYPE
5
1fa
2
PHANTOM
70
0
3
--- - - --- - - --- - - --- - -
72
65
73
6
40
10.000
49
5.000
49
-1.000
49
1.000
49
-1.000
49
1.000
49
-1.000
0
LTYPE
5
1fb
2
PHANTOM2
70
0
3
--------  -  -  --------  -  -
72
65
73
6
40
16.000
49
6.000
49
-2.000
49
2.000
49
-2.000
49
2.000
49
-2.000
0
LTYPE
5
1fc
2
HIDDEN
70
0
3
-   -   -   -   -   -   -   -   
72
65
73
2
40
2.500
49
0.500
49
-2.000
0
ENDTAB
0
TABLE
2
STYLE
70
1
0
STYLE
5
1fd
100
AcDbSymbolTableRecord
100
AcDbTextStyleTableRecord
2
STANDARD
70
0
40
0.0
41
1.0
50
0.0
71
0
42
0.0
3
txt.shx
4
extfont.shx
0
STYLE
5
1fe
100
AcDbSymbolTableRecord
100
AcDbTextStyleTableRecord
2
TATEGAKI
70
4
40
0.0
41
1.0
50
0.0
71
0
42
0.0
3
txt.shx
4
extfont.shx
0
STYLE
5
1ff
100
AcDbSymbolTableRecord
100
AcDbTextStyleTableRecord
2
MT
70
0
40
0.0
41
1.0
50
0.0
71
0
42
0.0
3
MS Mincho
4

0
STYLE
5
200
100
AcDbSymbolTableRecord
100
AcDbTextStyleTableRecord
2
TMT
70
4
40
0.0
41
1.0
50
0.0
71
0
42
0.0
3
@MS Mincho
4

0
ENDTAB
0
TABLE
2
LAYER
5
9f9
100
AcDbSymbolTable
70
10
0
LAYER
5
9fa
100
AcDbSymbolTableRecord
100
AcDbLayerTableRecord
2
0
70
64
62
  7
  6
CONTINUOUS
0
LAYER
5
9fb
100
AcDbSymbolTableRecord
100
AcDbLayerTableRecord
2
0-0
70
64
62
  7
  6
CONTINUOUS
0
LAYER
5
9fc
100
AcDbSymbolTableRecord
100
AcDbLayerTableRecord
2
0-1
70
64
62
  7
  6
CONTINUOUS
0
LAYER
5
9fd
100
AcDbSymbolTableRecord
100
AcDbLayerTableRecord
2
0-2
70
64
62
  7
  6
CONTINUOUS
0
LAYER
5
9fe
100
AcDbSymbolTableRecord
100
AcDbLayerTableRecord
2
ADD_LINE
70
64
62
  -7
  6
CONTINUOUS
0
ENDTAB
0
ENDSEC
0
SECTION
2
ENTITIES
0
LINE
5
9ff
8
0-0
6
CONTINUOUS
62
  7
10
818.919
20
1236.487
30
0.0
11
818.919
21
881.487
31
0.0
0
LINE
5
a00
8
0-0
6
CONTINUOUS
62
  7
10
942.919
20
1236.487
30
0.0
11
818.919
21
1236.487
31
0.0
0
LINE
5
a01
8
0-0
6
CONTINUOUS
62
  7
10
833.919
20
1236.487
30
0.0
11
831.919
21
906.487
31
0.0
0
LINE
5
a02
8
0-0
6
CONTINUOUS
62
  7
10
962.919
20
881.487
30
0.0
11
818.919
21
881.487
31
0.0
0
LINE
5
a03
8
0-0
6
CONTINUOUS
62
  7
10
966.896
20
905.335
30
0.0
11
962.919
21
881.487
31
0.0
0
LINE
5
a04
8
0-0
6
CONTINUOUS
62
  7
10
966.995
20
906.487
30
0.0
11
831.919
21
906.487
31
0.0
0
LINE
5
a05
8
0-0
6
CONTINUOUS
62
  7
10
942.919
20
1236.487
30
0.0
11
944.384
21
1216.487
31
0.0
0
LINE
5
a06
8
0-0
6
CONTINUOUS
62
  7
10
944.750
20
1211.487
30
0.0
11
966.971
21
908.091
31
0.0
0
LINE
5
a07
8
0-0
6
CONTINUOUS
62
  7
10
944.384
20
1216.487
30
0.0
11
831.298
21
1216.487
31
0.0
0
LINE
5
a08
8
0-0
6
CONTINUOUS
62
  7
10
944.750
20
1211.487
30
0.0
11
831.267
21
1211.487
31
0.0
0
LINE
5
a09
8
0-0
6
CONTINUOUS
62
  7
10
1380.757
20
1236.487
30
0.0
11
1406.757
21
881.487
31
0.0
0
LINE
5
a0a
8
0-0
6
CONTINUOUS
62
  7
10
1256.757
20
1236.487
30
0.0
11
1380.757
21
1236.487
31
0.0
0
LINE
5
a0b
8
0-0
6
CONTINUOUS
62
  7
10
1391.891
20
906.487
30
0.0
11
1365.717
21
1236.487
31
0.0
0
LINE
5
a0c
8
0-0
6
CONTINUOUS
62
  7
10
1262.757
20
881.487
30
0.0
11
1406.757
21
881.487
31
0.0
0
LINE
5
a0d
8
0-0
6
CONTINUOUS
62
  7
10
1256.940
20
905.724
30
0.0
11
1262.757
21
881.487
31
0.0
0
LINE
5
a0e
8
0-0
6
CONTINUOUS
62
  7
10
1256.779
20
906.487
30
0.0
11
1391.891
21
906.487
31
0.0
0
LINE
5
a0f
8
0-0
6
CONTINUOUS
62
  7
10
818.919
20
675.135
30
0.0
11
831.919
21
685.135
31
0.0
0
LINE
5
a10
8
0-0
6
CONTINUOUS
62
  7
10
818.919
20
675.135
30
0.0
11
818.919
21
663.135
31
0.0
0
LINE
5
a11
8
0-0
6
CONTINUOUS
62
  7
10
818.919
20
663.135
30
0.0
11
828.919
21
663.135
31
0.0
0
LINE
5
a12
8
0-0
6
CONTINUOUS
62
  7
10
828.919
20
663.135
30
0.0
11
839.919
21
670.135
31
0.0
0
LINE
5
a13
8
0-0
6
CONTINUOUS
62
  7
10
968.919
20
548.135
30
0.0
11
958.919
21
535.135
31
0.0
0
LINE
5
a14
8
0-0
6
CONTINUOUS
62
  7
10
946.919
20
535.135
30
0.0
11
958.919
21
535.135
31
0.0
0
LINE
5
a15
8
0-0
6
CONTINUOUS
62
  7
10
946.919
20
545.135
30
0.0
11
946.919
21
535.135
31
0.0
0
LINE
5
a16
8
0-0
6
CONTINUOUS
62
  7
10
946.919
20
545.135
30
0.0
11
953.919
21
556.135
31
0.0
0
LINE
5
a17
8
0-0
6
CONTINUOUS
62
  7
10
831.919
20
685.135
30
0.0
11
947.706
21
685.135
31
0.0
0
LINE
5
a18
8
0-0
6
CONTINUOUS
62
  7
10
968.919
20
665.136
30
0.0
11
968.919
21
548.135
31
0.0
0
LINE
5
a19
8
0-0
6
CONTINUOUS
62
  7
10
839.919
20
670.135
30
0.0
11
941.294
21
670.135
31
0.0
0
LINE
5
a1a
8
0-0
6
CONTINUOUS
62
  7
10
953.919
20
655.993
30
0.0
11
953.919
21
556.135
31
0.0
0
LINE
5
a1b
8
0-0
6
CONTINUOUS
62
  7
10
968.919
20
260.297
30
0.0
11
962.919
21
247.297
31
0.0
0
LINE
5
a1c
8
0-0
6
CONTINUOUS
62
  7
10
831.919
20
397.297
30
0.0
11
818.919
21
391.297
31
0.0
0
LINE
5
a1d
8
0-0
6
CONTINUOUS
62
  7
10
818.919
20
387.297
30
0.0
11
818.919
21
391.297
31
0.0
0
LINE
5
a1e
8
0-0
6
CONTINUOUS
62
  7
10
945.054
20
247.297
30
0.0
11
944.025
21
253.055
31
0.0
0
LINE
5
a1f
8
0-0
6
CONTINUOUS
62
  7
10
944.025
20
253.055
30
0.0
11
942.995
21
258.408
31
0.0
0
LINE
5
a20
8
0-0
6
CONTINUOUS
62
  7
10
942.995
20
258.408
30
0.0
11
941.966
21
263.386
31
0.0
0
LINE
5
a21
8
0-0
6
CONTINUOUS
62
  7
10
941.966
20
263.386
30
0.0
11
940.936
21
268.017
31
0.0
0
LINE
5
a22
8
0-0
6
CONTINUOUS
62
  7
10
940.936
20
268.017
30
0.0
11
939.907
21
272.329
31
0.0
0
LINE
5
a23
8
0-0
6
CONTINUOUS
62
  7
10
939.907
20
272.329
30
0.0
11
938.877
21
276.345
31
0.0
0
LINE
5
a24
8
0-0
6
CONTINUOUS
62
  7
10
938.877
20
276.345
30
0.0
11
937.848
21
280.091
31
0.0
0
LINE
5
a25
8
0-0
6
CONTINUOUS
62
  7
10
937.848
20
280.091
30
0.0
11
936.819
21
283.590
31
0.0
0
LINE
5
a26
8
0-0
6
CONTINUOUS
62
  7
10
936.819
20
283.590
30
0.0
11
935.789
21
286.862
31
0.0
0
LINE
5
a27
8
0-0
6
CONTINUOUS
62
  7
10
935.789
20
286.862
30
0.0
11
934.760
21
289.927
31
0.0
0
LINE
5
a28
8
0-0
6
CONTINUOUS
62
  7
10
934.760
20
289.927
30
0.0
11
933.730
21
292.804
31
0.0
0
LINE
5
a29
8
0-0
6
CONTINUOUS
62
  7
10
933.730
20
292.804
30
0.0
11
932.701
21
295.511
31
0.0
0
LINE
5
a2a
8
0-0
6
CONTINUOUS
62
  7
10
932.701
20
295.511
30
0.0
11
931.671
21
298.062
31
0.0
0
LINE
5
a2b
8
0-0
6
CONTINUOUS
62
  7
10
931.671
20
298.062
30
0.0
11
930.642
21
300.474
31
0.0
0
LINE
5
a2c
8
0-0
6
CONTINUOUS
62
  7
10
930.642
20
300.474
30
0.0
11
929.613
21
302.759
31
0.0
0
LINE
5
a2d
8
0-0
6
CONTINUOUS
62
  7
10
929.613
20
302.759
30
0.0
11
928.583
21
304.930
31
0.0
0
LINE
5
a2e
8
0-0
6
CONTINUOUS
62
  7
10
928.583
20
304.930
30
0.0
11
927.554
21
306.996
31
0.0
0
LINE
5
a2f
8
0-0
6
CONTINUOUS
62
  7
10
927.554
20
306.996
30
0.0
11
926.524
21
308.970
31
0.0
0
LINE
5
a30
8
0-0
6
CONTINUOUS
62
  7
10
926.524
20
308.970
30
0.0
11
925.495
21
310.858
31
0.0
0
LINE
5
a31
8
0-0
6
CONTINUOUS
62
  7
10
925.495
20
310.858
30
0.0
11
924.466
21
312.668
31
0.0
0
LINE
5
a32
8
0-0
6
CONTINUOUS
62
  7
10
924.466
20
312.668
30
0.0
11
923.436
21
314.408
31
0.0
0
LINE
5
a33
8
0-0
6
CONTINUOUS
62
  7
10
923.436
20
314.408
30
0.0
11
922.407
21
316.082
31
0.0
0
LINE
5
a34
8
0-0
6
CONTINUOUS
62
  7
10
922.407
20
316.082
30
0.0
11
921.377
21
317.695
31
0.0
0
LINE
5
a35
8
0-0
6
CONTINUOUS
62
  7
10
921.377
20
317.695
30
0.0
11
920.348
21
319.251
31
0.0
0
LINE
5
a36
8
0-0
6
CONTINUOUS
62
  7
10
920.348
20
319.251
30
0.0
11
919.319
21
320.754
31
0.0
0
LINE
5
a37
8
0-0
6
CONTINUOUS
62
  7
10
919.319
20
320.754
30
0.0
11
918.289
21
322.206
31
0.0
0
LINE
5
a38
8
0-0
6
CONTINUOUS
62
  7
10
918.289
20
322.206
30
0.0
11
917.259
21
323.610
31
0.0
0
LINE
5
a39
8
0-0
6
CONTINUOUS
62
  7
10
917.259
20
323.610
30
0.0
11
916.230
21
324.968
31
0.0
0
LINE
5
a3a
8
0-0
6
CONTINUOUS
62
  7
10
916.230
20
324.968
30
0.0
11
915.201
21
326.282
31
0.0
0
LINE
5
a3b
8
0-0
6
CONTINUOUS
62
  7
10
915.201
20
326.282
30
0.0
11
914.172
21
327.554
31
0.0
0
LINE
5
a3c
8
0-0
6
CONTINUOUS
62
  7
10
914.172
20
327.554
30
0.0
11
913.142
21
328.788
31
0.0
0
LINE
5
a3d
8
0-0
6
CONTINUOUS
62
  7
10
818.919
20
373.432
30
0.0
11
824.677
21
372.403
31
0.0
0
LINE
5
a3e
8
0-0
6
CONTINUOUS
62
  7
10
824.677
20
372.403
30
0.0
11
830.030
21
371.373
31
0.0
0
LINE
5
a3f
8
0-0
6
CONTINUOUS
62
  7
10
830.030
20
371.373
30
0.0
11
835.008
21
370.344
31
0.0
0
LINE
5
a40
8
0-0
6
CONTINUOUS
62
  7
10
835.008
20
370.344
30
0.0
11
839.639
21
369.315
31
0.0
0
LINE
5
a41
8
0-0
6
CONTINUOUS
62
  7
10
839.639
20
369.315
30
0.0
11
843.950
21
368.285
31
0.0
0
LINE
5
a42
8
0-0
6
CONTINUOUS
62
  7
10
843.950
20
368.285
30
0.0
11
847.967
21
367.256
31
0.0
0
LINE
5
a43
8
0-0
6
CONTINUOUS
62
  7
10
847.967
20
367.256
30
0.0
11
851.713
21
366.226
31
0.0
0
LINE
5
a44
8
0-0
6
CONTINUOUS
62
  7
10
851.713
20
366.226
30
0.0
11
855.212
21
365.197
31
0.0
0
LINE
5
a45
8
0-0
6
CONTINUOUS
62
  7
10
855.212
20
365.197
30
0.0
11
858.483
21
364.167
31
0.0
0
LINE
5
a46
8
0-0
6
CONTINUOUS
62
  7
10
858.483
20
364.167
30
0.0
11
861.549
21
363.138
31
0.0
0
LINE
5
a47
8
0-0
6
CONTINUOUS
62
  7
10
861.549
20
363.138
30
0.0
11
864.426
21
362.109
31
0.0
0
LINE
5
a48
8
0-0
6
CONTINUOUS
62
  7
10
864.426
20
362.109
30
0.0
11
867.132
21
361.079
31
0.0
0
LINE
5
a49
8
0-0
6
CONTINUOUS
62
  7
10
867.132
20
361.079
30
0.0
11
869.684
21
360.050
31
0.0
0
LINE
5
a4a
8
0-0
6
CONTINUOUS
62
  7
10
869.684
20
360.050
30
0.0
11
872.096
21
359.020
31
0.0
0
LINE
5
a4b
8
0-0
6
CONTINUOUS
62
  7
10
872.096
20
359.020
30
0.0
11
874.381
21
357.991
31
0.0
0
LINE
5
a4c
8
0-0
6
CONTINUOUS
62
  7
10
874.381
20
357.991
30
0.0
11
876.551
21
356.962
31
0.0
0
LINE
5
a4d
8
0-0
6
CONTINUOUS
62
  7
10
876.551
20
356.962
30
0.0
11
878.618
21
355.932
31
0.0
0
LINE
5
a4e
8
0-0
6
CONTINUOUS
62
  7
10
878.618
20
355.932
30
0.0
11
880.591
21
354.903
31
0.0
0
LINE
5
a4f
8
0-0
6
CONTINUOUS
62
  7
10
880.591
20
354.903
30
0.0
11
882.480
21
353.873
31
0.0
0
LINE
5
a50
8
0-0
6
CONTINUOUS
62
  7
10
882.480
20
353.873
30
0.0
11
884.290
21
352.844
31
0.0
0
LINE
5
a51
8
0-0
6
CONTINUOUS
62
  7
10
884.290
20
352.844
30
0.0
11
886.030
21
351.815
31
0.0
0
LINE
5
a52
8
0-0
6
CONTINUOUS
62
  7
10
886.030
20
351.815
30
0.0
11
887.704
21
350.785
31
0.0
0
LINE
5
a53
8
0-0
6
CONTINUOUS
62
  7
10
887.704
20
350.785
30
0.0
11
889.317
21
349.756
31
0.0
0
LINE
5
a54
8
0-0
6
CONTINUOUS
62
  7
10
889.317
20
349.756
30
0.0
11
890.873
21
348.726
31
0.0
0
LINE
5
a55
8
0-0
6
CONTINUOUS
62
  7
10
890.873
20
348.726
30
0.0
11
892.376
21
347.697
31
0.0
0
LINE
5
a56
8
0-0
6
CONTINUOUS
62
  7
10
892.376
20
347.697
30
0.0
11
893.828
21
346.667
31
0.0
0
LINE
5
a57
8
0-0
6
CONTINUOUS
62
  7
10
893.828
20
346.667
30
0.0
11
895.232
21
345.638
31
0.0
0
LINE
5
a58
8
0-0
6
CONTINUOUS
62
  7
10
895.232
20
345.638
30
0.0
11
896.590
21
344.609
31
0.0
0
LINE
5
a59
8
0-0
6
CONTINUOUS
62
  7
10
896.590
20
344.609
30
0.0
11
897.904
21
343.579
31
0.0
0
LINE
5
a5a
8
0-0
6
CONTINUOUS
62
  7
10
897.904
20
343.579
30
0.0
11
899.176
21
342.550
31
0.0
0
LINE
5
a5b
8
0-0
6
CONTINUOUS
62
  7
10
899.176
20
342.550
30
0.0
11
900.410
21
341.520
31
0.0
0
LINE
5
a5c
8
0-0
6
CONTINUOUS
62
  7
10
962.919
20
247.297
30
0.0
11
945.054
21
247.297
31
0.0
0
LINE
5
a5d
8
0-0
6
CONTINUOUS
62
  7
10
818.919
20
387.297
30
0.0
11
818.919
21
373.432
31
0.0
0
LINE
5
a5e
8
0-0
6
CONTINUOUS
62
  7
10
958.919
20
247.297
30
0.0
11
962.919
21
247.297
31
0.0
0
LINE
5
a5f
8
0-0
6
CONTINUOUS
62
  7
10
831.919
20
397.297
30
0.0
11
947.706
21
397.297
31
0.0
0
LINE
5
a60
8
0-0
6
CONTINUOUS
62
  7
10
968.919
20
377.298
30
0.0
11
968.919
21
260.297
31
0.0
0
LINE
5
a61
8
ADD_LINE
6
HIDDEN
62
  3
10
818.919
20
881.487
30
0.0
11
807.164
21
881.487
31
0.0
0
LINE
5
a62
8
ADD_LINE
6
HIDDEN
62
  3
10
818.919
20
881.487
30
0.0
11
818.919
21
869.544
31
0.0
0
LINE
5
a63
8
0-2
6
CONTINUOUS
62
  7
10
1380.757
20
1366.216
30
0.0
11
1256.757
21
1366.216
31
0.0
0
LINE
5
a64
8
0-2
6
CONTINUOUS
62
  7
10
1380.757
20
1268.919
30
0.0
11
1380.757
21
1366.216
31
0.0
0
LINE
5
a65
8
0-2
6
CONTINUOUS
62
  7
10
1256.757
20
1268.919
30
0.0
11
1256.757
21
1366.216
31
0.0
0
LINE
5
a66
8
0-2
6
CONTINUOUS
62
  7
10
942.919
20
1366.216
30
0.0
11
818.919
21
1366.216
31
0.0
0
LINE
5
a67
8
0-2
6
CONTINUOUS
62
  7
10
942.919
20
1268.919
30
0.0
11
942.919
21
1366.216
31
0.0
0
LINE
5
a68
8
0-2
6
CONTINUOUS
62
  7
10
818.919
20
1268.919
30
0.0
11
818.919
21
1366.216
31
0.0
0
LINE
5
a69
8
0-2
6
CONTINUOUS
62
  7
10
1406.757
20
766.216
30
0.0
11
1256.757
21
766.216
31
0.0
0
LINE
5
a6a
8
0-2
6
CONTINUOUS
62
  7
10
1406.757
20
839.189
30
0.0
11
1406.757
21
766.216
31
0.0
0
LINE
5
a6b
8
0-2
6
CONTINUOUS
62
  7
10
1256.757
20
839.189
30
0.0
11
1256.757
21
766.216
31
0.0
0
LINE
5
a6c
8
0-2
6
CONTINUOUS
62
  7
10
968.919
20
766.216
30
0.0
11
818.919
21
766.216
31
0.0
0
LINE
5
a6d
8
0-2
6
CONTINUOUS
62
  7
10
968.919
20
839.189
30
0.0
11
968.919
21
766.216
31
0.0
0
LINE
5
a6e
8
0-2
6
CONTINUOUS
62
  7
10
818.919
20
839.189
30
0.0
11
818.919
21
766.216
31
0.0
0
LINE
5
a6f
8
0-2
6
CONTINUOUS
62
  7
10
968.919
20
466.216
30
0.0
11
818.919
21
466.216
31
0.0
0
LINE
5
a70
8
0-2
6
CONTINUOUS
62
  7
10
968.919
20
417.568
30
0.0
11
968.919
21
466.216
31
0.0
0
LINE
5
a71
8
0-2
6
CONTINUOUS
62
  7
10
818.919
20
417.568
30
0.0
11
818.919
21
466.216
31
0.0
0
LINE
5
a72
8
0-2
6
CONTINUOUS
62
  7
10
551.351
20
1236.487
30
0.0
11
551.351
21
881.487
31
0.0
0
LINE
5
a73
8
0-2
6
CONTINUOUS
62
  7
10
741.892
20
1236.487
30
0.0
11
551.351
21
1236.487
31
0.0
0
LINE
5
a74
8
0-2
6
CONTINUOUS
62
  7
10
741.892
20
881.487
30
0.0
11
551.351
21
881.487
31
0.0
0
LINE
5
a75
8
0-2
6
CONTINUOUS
62
  7
10
551.351
20
397.297
30
0.0
11
551.351
21
247.297
31
0.0
0
LINE
5
a76
8
0-2
6
CONTINUOUS
62
  7
10
741.892
20
397.297
30
0.0
11
551.351
21
397.297
31
0.0
0
LINE
5
a77
8
0-2
6
CONTINUOUS
62
  7
10
741.892
20
247.297
30
0.0
11
551.351
21
247.297
31
0.0
0
LINE
5
a78
8
0-0
6
CONTINUOUS
62
  7
10
1256.757
20
1236.487
30
0.0
11
1256.757
21
1216.487
31
0.0
0
LINE
5
a79
8
0-0
6
CONTINUOUS
62
  7
10
1256.757
20
1211.487
30
0.0
11
1256.757
21
907.056
31
0.0
0
LINE
5
a7a
8
0-0
6
CONTINUOUS
62
  7
10
1256.757
20
1216.487
30
0.0
11
1369.803
21
1216.487
31
0.0
0
LINE
5
a7b
8
0-0
6
CONTINUOUS
62
  7
10
1256.757
20
1211.487
30
0.0
11
1369.803
21
1211.487
31
0.0
0
LINE
5
a7c
8
0-0
6
CONTINUOUS
62
  7
10
1382.588
20
1211.487
30
0.0
11
1382.588
21
1211.487
31
0.0
0
ARC
5
a7d
8
0-0
6
CONTINUOUS
62
  7
10
788.930
20
906.463
30
0.0
40
42.989
50
324.479431
51
360.031433
0
ARC
5
a7e
8
0-0
6
CONTINUOUS
62
  7
10
953.231
20
907.084
30
0.0
40
13.776
50
352.703918
51
364.475800
0
ARC
5
a7f
8
0-0
6
CONTINUOUS
62
  7
10
943.148
20
1213.987
30
0.0
40
2.500
50
450.000000
51
270.000000
0
ARC
5
a80
8
0-0
6
CONTINUOUS
62
  7
10
831.283
20
1213.987
30
0.0
40
2.500
50
449.648407
51
269.654083
0
CIRCLE
5
a81
8
0-0
6
CONTINUOUS
62
  7
10
903.691
20
1224.487
30
0.0
40
3.000
0
ARC
5
a82
8
0-0
6
CONTINUOUS
62
  7
10
1453.807
20
916.474
30
0.0
40
62.716
50
189.163086
51
213.908478
0
ARC
5
a83
8
0-0
6
CONTINUOUS
62
  7
10
1260.735
20
906.924
30
0.0
40
3.980
50
538.100342
51
197.551575
0
CIRCLE
5
a84
8
0-0
6
CONTINUOUS
62
  7
10
1296.757
20
1224.487
30
0.0
40
3.000
0
CIRCLE
5
a85
8
0-0
6
CONTINUOUS
62
  7
10
1332.314
20
1076.486
30
0.0
40
3.000
0
CIRCLE
5
a86
8
0-0
6
CONTINUOUS
62
  7
10
1334.512
20
1046.487
30
0.0
40
3.000
0
ARC
5
a87
8
0-0
6
CONTINUOUS
62
  7
10
948.313
20
376.691
30
0.0
40
20.615
50
358.312439
51
358.312622
0
ARC
5
a88
8
0-0
6
CONTINUOUS
62
  7
10
948.313
20
376.691
30
0.0
40
20.615
50
1.687378
51
91.687546
0
ARC
5
a89
8
0-0
6
CONTINUOUS
62
  7
10
948.313
20
664.529
30
0.0
40
20.615
50
358.312439
51
358.312622
0
ARC
5
a8a
8
0-0
6
CONTINUOUS
62
  7
10
948.313
20
664.529
30
0.0
40
20.615
50
1.687378
51
91.687546
0
ARC
5
a8b
8
0-0
6
CONTINUOUS
62
  7
10
940.536
20
656.752
30
0.0
40
13.405
50
356.755066
51
86.756149
0
ARC
5
a8c
8
0-0
6
CONTINUOUS
62
  7
10
866.500
20
294.879
30
0.0
40
57.666
50
396.017761
51
413.981873
0
ARC
5
a8d
8
0-0
6
CONTINUOUS
62
  7
10
883.360
20
1159.096
30
0.0
40
770.498
50
265.202393
51
274.797577
0
ARC
5
a8e
8
0-0
6
CONTINUOUS
62
  7
10
948.313
20
376.691
30
0.0
40
14.615
50
357.993774
51
92.005478
0
ARC
5
a8f
8
0-0
6
CONTINUOUS
62
  7
10
1730.717
20
311.739
30
0.0
40
770.498
50
535.202454
51
544.797607
0
CIRCLE
5
a90
8
ADD_LINE
6
HIDDEN
62
  3
10
818.919
20
881.487
30
0.0
40
3.000
0
ARC
5
a91
8
0-2
6
CONTINUOUS
62
  7
10
1259.257
20
1213.987
30
0.0
40
2.500
50
270.000000
51
90.000000
0
ARC
5
a92
8
0-2
6
CONTINUOUS
62
  7
10
1369.803
20
1213.987
30
0.0
40
2.500
50
270.000000
51
90.000000
0
TEXT
5
a93
100
AcDbEntity
8
0-2
62
7
100
AcDbText
10
1309.382
20
1368.716
30
0.0
40
9.750
41
0.800
50
0.000
1
124
100
AcDbText
0
TEXT
5
a94
100
AcDbEntity
8
0-2
62
7
100
AcDbText
10
871.544
20
1368.716
30
0.0
40
9.750
41
0.800
50
0.000
1
124
100
AcDbText
0
TEXT
5
a95
100
AcDbEntity
8
0-2
62
7
100
AcDbText
10
1322.382
20
768.716
30
0.0
40
9.750
41
0.800
50
0.000
1
150
100
AcDbText
0
TEXT
5
a96
100
AcDbEntity
8
0-2
62
7
100
AcDbText
10
884.544
20
768.716
30
0.0
40
9.750
41
0.800
50
0.000
1
150
100
AcDbText
0
TEXT
5
a97
100
AcDbEntity
8
0-2
62
7
100
AcDbText
10
884.544
20
468.716
30
0.0
40
9.750
41
0.800
50
0.000
1
150
100
AcDbText
0
TEXT
5
a98
100
AcDbEntity
8
0-2
62
7
100
AcDbText
10
547.224
20
1050.715
30
0.0
40
9.750
41
0.800
50
90.000
1
355
100
AcDbText
0
TEXT
5
a99
100
AcDbEntity
8
0-2
62
7
100
AcDbText
10
549.102
20
316.491
30
0.0
40
9.750
41
0.800
50
90.000
1
150
100
AcDbText
0
POINT
5
a9a
8
0-2
62
  7
10
1380.757
20
1366.216
30
0.0
0
POINT
5
a9b
8
0-2
62
  7
10
1256.757
20
1366.216
30
0.0
0
POINT
5
a9c
8
0-2
62
  7
10
942.919
20
1366.216
30
0.0
0
POINT
5
a9d
8
0-2
62
  7
10
818.919
20
1366.216
30
0.0
0
POINT
5
a9e
8
0-2
62
  7
10
1406.757
20
766.216
30
0.0
0
POINT
5
a9f
8
0-2
62
  7
10
1256.757
20
766.216
30
0.0
0
POINT
5
aa0
8
0-2
62
  7
10
968.919
20
766.216
30
0.0
0
POINT
5
aa1
8
0-2
62
  7
10
818.919
20
766.216
30
0.0
0
POINT
5
aa2
8
0-2
62
  7
10
968.919
20
466.216
30
0.0
0
POINT
5
aa3
8
0-2
62
  7
10
818.919
20
466.216
30
0.0
0
POINT
5
aa4
8
0-2
62
  7
10
551.351
20
1236.487
30
0.0
0
POINT
5
aa5
8
0-2
62
  7
10
551.351
20
881.487
30
0.0
0
POINT
5
aa6
8
0-2
62
  7
10
551.351
20
397.297
30
0.0
0
POINT
5
aa7
8
0-2
62
  7
10
551.351
20
247.297
30
0.0
0
ENDSEC
0
EOF
