0
SECTION
2
HEADER
  9
$EXTMIN
10
0
20
0
30
0
  9
$EXTMAX
10
1475.108
20
1302.311
30
0
  9
$LTSCALE
40
5.000
  9
$DIMSCALE
40
5.000
  9
$PDMODE
70
0
  9
$PDSIZE
40
40
0
ENDSEC
0
SECTION
2
TABLES
0
TABLE
2
LTYPE
70
9
0
LTYPE
5
1f4
2
CONTINUOUS
70
0
3
実線
72
65
73
0
40
0.0
0
LTYPE
5
1f5
2
DOT
70
0
3
--  --  --  --  --  --  --  --     
72
65
73
2
40
5.000
49
1.000
49
-4.000
0
LTYPE
5
1f6
2
DASHED
70
0
3
----    ----    ----    ----    
72
65
73
2
40
5.000
49
2.000
49
-3.000
0
LTYPE
5
1f7
2
DASHED2
70
0
3
------  ------  ------  ------ 
72
65
73
2
40
10.000
49
4.000
49
-6.000
0
LTYPE
5
1f8
2
CENTER
70
0
3
----- - ----- - ----- - ----- - 
72
65
73
4
40
9.000
49
6.000
49
-1.000
49
1.000
49
-1.000
0
LTYPE
5
1f9
2
CENTER2
70
0
3
----------  --  ----------  -- 
72
65
73
4
40
18.000
49
12.000
49
-2.000
49
2.000
49
-2.000
0
LTYPE
5
1fa
2
PHANTOM
70
0
3
--- - - --- - - --- - - --- - -
72
65
73
6
40
10.000
49
5.000
49
-1.000
49
1.000
49
-1.000
49
1.000
49
-1.000
0
LTYPE
5
1fb
2
PHANTOM2
70
0
3
--------  -  -  --------  -  -
72
65
73
6
40
16.000
49
6.000
49
-2.000
49
2.000
49
-2.000
49
2.000
49
-2.000
0
LTYPE
5
1fc
2
HIDDEN
70
0
3
-   -   -   -   -   -   -   -   
72
65
73
2
40
2.500
49
0.500
49
-2.000
0
ENDTAB
0
TABLE
2
STYLE
70
1
0
STYLE
5
1fd
100
AcDbSymbolTableRecord
100
AcDbTextStyleTableRecord
2
STANDARD
70
0
40
0.0
41
1.0
50
0.0
71
0
42
0.0
3
txt.shx
4
extfont.shx
0
STYLE
5
1fe
100
AcDbSymbolTableRecord
100
AcDbTextStyleTableRecord
2
TATEGAKI
70
4
40
0.0
41
1.0
50
0.0
71
0
42
0.0
3
txt.shx
4
extfont.shx
0
STYLE
5
1ff
100
AcDbSymbolTableRecord
100
AcDbTextStyleTableRecord
2
MT
70
0
40
0.0
41
1.0
50
0.0
71
0
42
0.0
3
MS Mincho
4

0
STYLE
5
200
100
AcDbSymbolTableRecord
100
AcDbTextStyleTableRecord
2
TMT
70
4
40
0.0
41
1.0
50
0.0
71
0
42
0.0
3
@MS Mincho
4

0
ENDTAB
0
TABLE
2
LAYER
5
126d
100
AcDbSymbolTable
70
10
0
LAYER
5
126e
100
AcDbSymbolTableRecord
100
AcDbLayerTableRecord
2
0
70
64
62
  7
  6
CONTINUOUS
0
LAYER
5
126f
100
AcDbSymbolTableRecord
100
AcDbLayerTableRecord
2
0-0
70
64
62
  7
  6
CONTINUOUS
0
LAYER
5
1270
100
AcDbSymbolTableRecord
100
AcDbLayerTableRecord
2
ADD_LINE
70
64
62
  -7
  6
CONTINUOUS
0
ENDTAB
0
ENDSEC
0
SECTION
2
ENTITIES
0
LINE
5
1271
8
0-0
6
CONTINUOUS
62
  7
10
830.514
20
1100.216
30
0.0
11
860.514
21
1100.216
31
0.0
0
LINE
5
1272
8
0-0
6
CONTINUOUS
62
  7
10
860.514
20
1105.216
30
0.0
11
860.514
21
1100.216
31
0.0
0
LINE
5
1273
8
0-0
6
CONTINUOUS
62
  7
10
860.514
20
1105.216
30
0.0
11
1095.514
21
1105.216
31
0.0
0
LINE
5
1274
8
0-0
6
CONTINUOUS
62
  7
10
830.514
20
1100.216
30
0.0
11
830.514
21
800.216
31
0.0
0
LINE
5
1275
8
0-0
6
CONTINUOUS
62
  7
10
860.514
20
1100.216
30
0.0
11
1087.514
21
1100.216
31
0.0
0
LINE
5
1276
8
0-0
6
CONTINUOUS
62
  7
10
830.514
20
800.216
30
0.0
11
1055.514
21
800.216
31
0.0
0
LINE
5
1277
8
0-0
6
CONTINUOUS
62
  7
10
1055.514
20
800.216
30
0.0
11
1055.514
21
830.216
31
0.0
0
LINE
5
1278
8
0-0
6
CONTINUOUS
62
  7
10
1055.514
20
830.216
30
0.0
11
1095.514
21
830.216
31
0.0
0
LINE
5
1279
8
0-0
6
CONTINUOUS
62
  7
10
1095.514
20
1105.216
30
0.0
11
1095.514
21
830.216
31
0.0
0
LINE
5
127a
8
0-0
6
CONTINUOUS
62
  7
10
1087.514
20
1100.216
30
0.0
11
1087.514
21
830.216
31
0.0
0
LINE
5
127b
8
0-0
6
CONTINUOUS
62
  7
10
575.108
20
800.216
30
0.0
11
555.108
21
800.216
31
0.0
0
LINE
5
127c
8
0-0
6
CONTINUOUS
62
  7
10
555.108
20
858.216
30
0.0
11
555.108
21
800.216
31
0.0
0
LINE
5
127d
8
0-0
6
CONTINUOUS
62
  7
10
1347.892
20
1105.216
30
0.0
11
1327.892
21
1105.216
31
0.0
0
LINE
5
127e
8
0-0
6
CONTINUOUS
62
  7
10
1308.892
20
1100.216
30
0.0
11
1308.892
21
800.216
31
0.0
0
LINE
5
127f
8
0-0
6
CONTINUOUS
62
  7
10
1327.892
20
1105.216
30
0.0
11
1327.892
21
1100.408
31
0.0
0
LINE
5
1280
8
0-0
6
CONTINUOUS
62
  7
10
1308.892
20
1100.216
30
0.0
11
1333.892
21
1100.216
31
0.0
0
LINE
5
1281
8
0-0
6
CONTINUOUS
62
  7
10
1327.892
20
1105.216
30
0.0
11
1316.892
21
1105.216
31
0.0
0
LINE
5
1282
8
0-0
6
CONTINUOUS
62
  7
10
1316.892
20
1100.216
30
0.0
11
1316.892
21
1105.216
31
0.0
0
LINE
5
1283
8
0-0
6
CONTINUOUS
62
  7
10
1333.892
20
826.924
30
0.0
11
1333.892
21
823.216
31
0.0
0
LINE
5
1284
8
0-0
6
CONTINUOUS
62
  7
10
1087.514
20
505.216
30
0.0
11
1095.514
21
505.216
31
0.0
0
LINE
5
1285
8
0-0
6
CONTINUOUS
62
  7
10
1087.514
20
505.216
30
0.0
11
1087.514
21
502.194
31
0.0
0
LINE
5
1286
8
0-0
6
CONTINUOUS
62
  7
10
1095.514
20
505.216
30
0.0
11
1095.514
21
491.216
31
0.0
0
LINE
5
1287
8
0-0
6
CONTINUOUS
62
  7
10
510.108
20
1299.811
30
0.0
11
575.108
21
1299.811
31
0.0
0
LINE
5
1288
8
0-0
6
CONTINUOUS
62
  7
10
510.108
20
1170.081
30
0.0
11
510.108
21
1299.811
31
0.0
0
LINE
5
1289
8
0-0
6
CONTINUOUS
62
  7
10
575.108
20
1170.081
30
0.0
11
575.108
21
1299.811
31
0.0
0
LINE
5
128a
8
0-0
6
CONTINUOUS
62
  7
10
830.514
20
1299.811
30
0.0
11
1095.514
21
1299.811
31
0.0
0
LINE
5
128b
8
0-0
6
CONTINUOUS
62
  7
10
830.514
20
1170.081
30
0.0
11
830.514
21
1299.811
31
0.0
0
LINE
5
128c
8
0-0
6
CONTINUOUS
62
  7
10
1095.514
20
1170.081
30
0.0
11
1095.514
21
1299.811
31
0.0
0
LINE
5
128d
8
0-0
6
CONTINUOUS
62
  7
10
830.514
20
671.432
30
0.0
11
1095.514
21
671.432
31
0.0
0
LINE
5
128e
8
0-0
6
CONTINUOUS
62
  7
10
830.514
20
768.730
30
0.0
11
830.514
21
671.432
31
0.0
0
LINE
5
128f
8
0-0
6
CONTINUOUS
62
  7
10
1095.514
20
768.730
30
0.0
11
1095.514
21
671.432
31
0.0
0
LINE
5
1290
8
0-0
6
CONTINUOUS
62
  7
10
830.514
20
709.441
30
0.0
11
1055.514
21
709.441
31
0.0
0
LINE
5
1291
8
0-0
6
CONTINUOUS
62
  7
10
830.514
20
768.730
30
0.0
11
830.514
21
709.441
31
0.0
0
LINE
5
1292
8
0-0
6
CONTINUOUS
62
  7
10
1055.514
20
768.730
30
0.0
11
1055.514
21
709.441
31
0.0
0
LINE
5
1293
8
0-0
6
CONTINUOUS
62
  7
10
1055.514
20
709.441
30
0.0
11
1095.514
21
709.441
31
0.0
0
LINE
5
1294
8
0-0
6
CONTINUOUS
62
  7
10
1095.514
20
768.730
30
0.0
11
1095.514
21
709.441
31
0.0
0
LINE
5
1295
8
0-0
6
CONTINUOUS
62
  7
10
368.351
20
800.216
30
0.0
11
368.351
21
858.216
31
0.0
0
LINE
5
1296
8
0-0
6
CONTINUOUS
62
  7
10
449.432
20
800.216
30
0.0
11
368.351
21
800.216
31
0.0
0
LINE
5
1297
8
0-0
6
CONTINUOUS
62
  7
10
449.432
20
858.216
30
0.0
11
368.351
21
858.216
31
0.0
0
LINE
5
1298
8
0-0
6
CONTINUOUS
62
  7
10
368.351
20
858.216
30
0.0
11
368.351
21
1100.216
31
0.0
0
LINE
5
1299
8
0-0
6
CONTINUOUS
62
  7
10
449.432
20
1100.216
30
0.0
11
368.351
21
1100.216
31
0.0
0
LINE
5
129a
8
0-0
6
CONTINUOUS
62
  7
10
1231.865
20
800.216
30
0.0
11
1231.865
21
1105.216
31
0.0
0
LINE
5
129b
8
0-0
6
CONTINUOUS
62
  7
10
1134.568
20
800.216
30
0.0
11
1231.865
21
800.216
31
0.0
0
LINE
5
129c
8
0-0
6
CONTINUOUS
62
  7
10
1134.568
20
1105.216
30
0.0
11
1231.865
21
1105.216
31
0.0
0
LINE
5
129d
8
0-0
6
CONTINUOUS
62
  7
10
1199.433
20
800.216
30
0.0
11
1199.433
21
830.216
31
0.0
0
LINE
5
129e
8
0-0
6
CONTINUOUS
62
  7
10
1134.568
20
800.216
30
0.0
11
1199.433
21
800.216
31
0.0
0
LINE
5
129f
8
0-0
6
CONTINUOUS
62
  7
10
1134.568
20
830.216
30
0.0
11
1199.433
21
830.216
31
0.0
0
LINE
5
12a0
8
0-0
6
CONTINUOUS
62
  7
10
1199.433
20
830.216
30
0.0
11
1199.433
21
1105.216
31
0.0
0
LINE
5
12a1
8
0-0
6
CONTINUOUS
62
  7
10
1134.568
20
1105.216
30
0.0
11
1199.433
21
1105.216
31
0.0
0
LINE
5
12a2
8
0-0
6
CONTINUOUS
62
  7
10
1475.108
20
800.216
30
0.0
11
1475.108
21
1105.216
31
0.0
0
LINE
5
12a3
8
0-0
6
CONTINUOUS
62
  7
10
1394.027
20
800.216
30
0.0
11
1475.108
21
800.216
31
0.0
0
LINE
5
12a4
8
0-0
6
CONTINUOUS
62
  7
10
1394.027
20
1105.216
30
0.0
11
1475.108
21
1105.216
31
0.0
0
LINE
5
12a5
8
0-0
6
CONTINUOUS
62
  7
10
830.514
20
505.216
30
0.0
11
830.514
21
491.216
31
0.0
0
LINE
5
12a6
8
0-0
6
CONTINUOUS
62
  7
10
1308.892
20
800.216
30
0.0
11
1347.892
21
800.216
31
0.0
0
LINE
5
12a7
8
0-0
6
CONTINUOUS
62
  7
10
1347.892
20
1105.216
30
0.0
11
1347.892
21
800.216
31
0.0
0
LINE
5
12a8
8
0-0
6
CONTINUOUS
62
  7
10
1333.892
20
1105.216
30
0.0
11
1333.892
21
800.216
31
0.0
0
LINE
5
12a9
8
0-0
6
CONTINUOUS
62
  7
10
510.108
20
1100.216
30
0.0
11
555.108
21
1100.216
31
0.0
0
LINE
5
12aa
8
0-0
6
CONTINUOUS
62
  7
10
708.676
20
1105.216
30
0.0
11
708.676
21
1100.216
31
0.0
0
LINE
5
12ab
8
0-0
6
CONTINUOUS
62
  7
10
789.757
20
1105.216
30
0.0
11
708.676
21
1105.216
31
0.0
0
LINE
5
12ac
8
0-0
6
CONTINUOUS
62
  7
10
789.757
20
1100.216
30
0.0
11
708.676
21
1100.216
31
0.0
0
LINE
5
12ad
8
0-0
6
CONTINUOUS
62
  7
10
708.676
20
1100.216
30
0.0
11
708.676
21
800.216
31
0.0
0
LINE
5
12ae
8
0-0
6
CONTINUOUS
62
  7
10
789.757
20
800.216
30
0.0
11
708.676
21
800.216
31
0.0
0
LINE
5
12af
8
0-0
6
CONTINUOUS
62
  7
10
830.514
20
356.491
30
0.0
11
847.514
21
356.491
31
0.0
0
LINE
5
12b0
8
0-0
6
CONTINUOUS
62
  7
10
830.514
20
391.553
30
0.0
11
830.514
21
356.491
31
0.0
0
LINE
5
12b1
8
0-0
6
CONTINUOUS
62
  7
10
847.514
20
391.553
30
0.0
11
847.514
21
356.491
31
0.0
0
LINE
5
12b2
8
0-0
6
CONTINUOUS
62
  7
10
847.514
20
356.491
30
0.0
11
863.514
21
356.491
31
0.0
0
LINE
5
12b3
8
0-0
6
CONTINUOUS
62
  7
10
863.514
20
391.553
30
0.0
11
863.514
21
356.491
31
0.0
0
LINE
5
12b4
8
0-0
6
CONTINUOUS
62
  7
10
746.446
20
800.216
30
0.0
11
746.446
21
858.216
31
0.0
0
LINE
5
12b5
8
0-0
6
CONTINUOUS
62
  7
10
789.757
20
800.216
30
0.0
11
746.446
21
800.216
31
0.0
0
LINE
5
12b6
8
0-0
6
CONTINUOUS
62
  7
10
789.757
20
858.216
30
0.0
11
746.446
21
858.216
31
0.0
0
LINE
5
12b7
8
ADD_LINE
6
HIDDEN
62
  3
10
833.146
20
466.216
30
0.0
11
900.994
21
466.216
31
0.0
0
LINE
5
12b8
8
0-0
6
CONTINUOUS
62
  7
10
555.108
20
1100.216
30
0.0
11
575.108
21
1100.216
31
0.0
0
LINE
5
12b9
8
0-0
6
CONTINUOUS
62
  7
10
575.108
20
1100.216
30
0.0
11
575.108
21
800.216
31
0.0
0
LINE
5
12ba
8
0-0
6
CONTINUOUS
62
  7
10
555.108
20
858.216
30
0.0
11
555.108
21
1100.216
31
0.0
0
LINE
5
12bb
8
0-0
6
CONTINUOUS
62
  7
10
510.108
20
1100.216
30
0.0
11
490.108
21
858.216
31
0.0
0
LINE
5
12bc
8
0-0
6
CONTINUOUS
62
  7
10
555.108
20
858.216
30
0.0
11
490.108
21
858.216
31
0.0
0
LINE
5
12bd
8
0-0
6
CONTINUOUS
62
  7
10
847.514
20
485.047
30
0.0
11
847.514
21
420.216
31
0.0
0
LINE
5
12be
8
0-0
6
CONTINUOUS
62
  7
10
847.514
20
420.216
30
0.0
11
863.514
21
420.216
31
0.0
0
LINE
5
12bf
8
0-0
6
CONTINUOUS
62
  7
10
863.514
20
480.094
30
0.0
11
863.514
21
420.216
31
0.0
0
LINE
5
12c0
8
0-0
6
CONTINUOUS
62
  7
10
490.108
20
671.432
30
0.0
11
575.108
21
671.432
31
0.0
0
LINE
5
12c1
8
0-0
6
CONTINUOUS
62
  7
10
490.108
20
768.730
30
0.0
11
490.108
21
671.432
31
0.0
0
LINE
5
12c2
8
0-0
6
CONTINUOUS
62
  7
10
575.108
20
768.730
30
0.0
11
575.108
21
671.432
31
0.0
0
LINE
5
12c3
8
0-0
6
CONTINUOUS
62
  7
10
490.108
20
709.441
30
0.0
11
555.108
21
709.441
31
0.0
0
LINE
5
12c4
8
0-0
6
CONTINUOUS
62
  7
10
490.108
20
768.730
30
0.0
11
490.108
21
709.441
31
0.0
0
LINE
5
12c5
8
0-0
6
CONTINUOUS
62
  7
10
555.108
20
768.730
30
0.0
11
555.108
21
709.441
31
0.0
0
LINE
5
12c6
8
0-0
6
CONTINUOUS
62
  7
10
555.108
20
709.441
30
0.0
11
575.108
21
709.441
31
0.0
0
LINE
5
12c7
8
0-0
6
CONTINUOUS
62
  7
10
575.108
20
768.730
30
0.0
11
575.108
21
709.441
31
0.0
0
LINE
5
12c8
8
0-0
6
CONTINUOUS
62
  7
10
708.676
20
505.216
30
0.0
11
708.676
21
420.216
31
0.0
0
LINE
5
12c9
8
0-0
6
CONTINUOUS
62
  7
10
789.757
20
505.216
30
0.0
11
708.676
21
505.216
31
0.0
0
LINE
5
12ca
8
0-0
6
CONTINUOUS
62
  7
10
789.757
20
420.216
30
0.0
11
708.676
21
420.216
31
0.0
0
CIRCLE
5
12cb
8
0-0
6
CONTINUOUS
62
  7
10
920.514
20
1085.216
30
0.0
40
3.000
0
CIRCLE
5
12cc
8
0-0
6
CONTINUOUS
62
  7
10
1020.514
20
1085.216
30
0.0
40
3.000
0
ARC
5
12cd
8
0-0
6
CONTINUOUS
62
  7
10
963.014
20
829.842
30
0.0
40
363.626
50
248.630203
51
291.369812
0
ARC
5
12ce
8
0-0
6
CONTINUOUS
62
  7
10
963.014
20
843.841
30
0.0
40
363.625
50
248.630188
51
290.022278
0
CIRCLE
5
12cf
8
ADD_LINE
6
HIDDEN
62
  3
10
863.514
20
466.216
30
0.0
40
3.000
0
TEXT
5
12d0
100
AcDbEntity
8
0-0
62
7
100
AcDbText
10
536.358
20
1302.311
30
0.0
40
9.750
41
0.800
50
0.000
1
65
100
AcDbText
0
TEXT
5
12d1
100
AcDbEntity
8
0-0
62
7
100
AcDbText
10
953.639
20
1302.311
30
0.0
40
9.750
41
0.800
50
0.000
1
265
100
AcDbText
0
TEXT
5
12d2
100
AcDbEntity
8
0-0
62
7
100
AcDbText
10
953.639
20
673.932
30
0.0
40
9.750
41
0.800
50
0.000
1
265
100
AcDbText
0
TEXT
5
12d3
100
AcDbEntity
8
0-0
62
7
100
AcDbText
10
933.639
20
711.941
30
0.0
40
9.750
41
0.800
50
0.000
1
225
100
AcDbText
0
TEXT
5
12d4
100
AcDbEntity
8
0-0
62
7
100
AcDbText
10
1069.264
20
711.941
30
0.0
40
9.750
41
0.800
50
0.000
1
40
100
AcDbText
0
TEXT
5
12d5
100
AcDbEntity
8
0-0
62
7
100
AcDbText
10
365.851
20
822.966
30
0.0
40
9.750
41
0.800
50
90.000
1
58
100
AcDbText
0
TEXT
5
12d6
100
AcDbEntity
8
0-0
62
7
100
AcDbText
10
365.851
20
969.841
30
0.0
40
9.750
41
0.800
50
90.000
1
242
100
AcDbText
0
TEXT
5
12d7
100
AcDbEntity
8
0-0
62
7
100
AcDbText
10
1229.365
20
943.341
30
0.0
40
9.750
41
0.800
50
90.000
1
305
100
AcDbText
0
TEXT
5
12d8
100
AcDbEntity
8
0-0
62
7
100
AcDbText
10
1196.932
20
808.966
30
0.0
40
9.750
41
0.800
50
90.000
1
30
100
AcDbText
0
TEXT
5
12d9
100
AcDbEntity
8
0-0
62
7
100
AcDbText
10
1196.932
20
958.341
30
0.0
40
9.750
41
0.800
50
90.000
1
275
100
AcDbText
0
TEXT
5
12da
100
AcDbEntity
8
0-0
62
7
100
AcDbText
10
1472.608
20
943.341
30
0.0
40
9.750
41
0.800
50
90.000
1
305
100
AcDbText
0
TEXT
5
12db
100
AcDbEntity
8
0-0
62
7
100
AcDbText
10
706.176
20
1099.591
30
0.0
40
9.750
41
0.800
50
90.000
1
5
100
AcDbText
0
TEXT
5
12dc
100
AcDbEntity
8
0-0
62
7
100
AcDbText
10
706.176
20
940.841
30
0.0
40
9.750
41
0.800
50
90.000
1
300
100
AcDbText
0
TEXT
5
12dd
100
AcDbEntity
8
0-0
62
7
100
AcDbText
10
832.764
20
358.991
30
0.0
40
9.750
41
0.800
50
0.000
1
17
100
AcDbText
0
TEXT
5
12de
100
AcDbEntity
8
0-0
62
7
100
AcDbText
10
849.264
20
358.991
30
0.0
40
9.750
41
0.800
50
0.000
1
16
100
AcDbText
0
TEXT
5
12df
100
AcDbEntity
8
0-0
62
7
100
AcDbText
10
743.946
20
822.966
30
0.0
40
9.750
41
0.800
50
90.000
1
58
100
AcDbText
0
TEXT
5
12e0
100
AcDbEntity
8
0-0
62
7
100
AcDbText
10
526.358
20
673.932
30
0.0
40
9.750
41
0.800
50
0.000
1
85
100
AcDbText
0
TEXT
5
12e1
100
AcDbEntity
8
0-0
62
7
100
AcDbText
10
516.358
20
711.941
30
0.0
40
9.750
41
0.800
50
0.000
1
65
100
AcDbText
0
TEXT
5
12e2
100
AcDbEntity
8
0-0
62
7
100
AcDbText
10
558.858
20
711.941
30
0.0
40
9.750
41
0.800
50
0.000
1
20
100
AcDbText
0
TEXT
5
12e3
100
AcDbEntity
8
0-0
62
7
100
AcDbText
10
706.176
20
456.466
30
0.0
40
9.750
41
0.800
50
90.000
1
85
100
AcDbText
0
POINT
5
12e4
8
0-0
62
  7
10
510.108
20
1299.811
30
0.0
0
POINT
5
12e5
8
0-0
62
  7
10
575.108
20
1299.811
30
0.0
0
POINT
5
12e6
8
0-0
62
  7
10
830.514
20
1299.811
30
0.0
0
POINT
5
12e7
8
0-0
62
  7
10
1095.514
20
1299.811
30
0.0
0
POINT
5
12e8
8
0-0
62
  7
10
830.514
20
671.432
30
0.0
0
POINT
5
12e9
8
0-0
62
  7
10
1095.514
20
671.432
30
0.0
0
POINT
5
12ea
8
0-0
62
  7
10
830.514
20
709.441
30
0.0
0
POINT
5
12eb
8
0-0
62
  7
10
1055.514
20
709.441
30
0.0
0
POINT
5
12ec
8
0-0
62
  7
10
1095.514
20
709.441
30
0.0
0
POINT
5
12ed
8
0-0
62
  7
10
368.351
20
800.216
30
0.0
0
POINT
5
12ee
8
0-0
62
  7
10
368.351
20
858.216
30
0.0
0
POINT
5
12ef
8
0-0
62
  7
10
368.351
20
1100.216
30
0.0
0
POINT
5
12f0
8
0-0
62
  7
10
1231.865
20
800.216
30
0.0
0
POINT
5
12f1
8
0-0
62
  7
10
1231.865
20
1105.216
30
0.0
0
POINT
5
12f2
8
0-0
62
  7
10
1199.433
20
800.216
30
0.0
0
POINT
5
12f3
8
0-0
62
  7
10
1199.433
20
830.216
30
0.0
0
POINT
5
12f4
8
0-0
62
  7
10
1199.433
20
1105.216
30
0.0
0
POINT
5
12f5
8
0-0
62
  7
10
1475.108
20
800.216
30
0.0
0
POINT
5
12f6
8
0-0
62
  7
10
1475.108
20
1105.216
30
0.0
0
POINT
5
12f7
8
0-0
62
  7
10
708.676
20
1105.216
30
0.0
0
POINT
5
12f8
8
0-0
62
  7
10
708.676
20
1100.216
30
0.0
0
POINT
5
12f9
8
0-0
62
  7
10
708.676
20
800.216
30
0.0
0
POINT
5
12fa
8
0-0
62
  7
10
830.514
20
356.491
30
0.0
0
POINT
5
12fb
8
0-0
62
  7
10
847.514
20
356.491
30
0.0
0
POINT
5
12fc
8
0-0
62
  7
10
863.514
20
356.491
30
0.0
0
POINT
5
12fd
8
0-0
62
  7
10
746.446
20
800.216
30
0.0
0
POINT
5
12fe
8
0-0
62
  7
10
746.446
20
858.216
30
0.0
0
POINT
5
12ff
8
0-0
62
  7
10
490.108
20
671.432
30
0.0
0
POINT
5
1300
8
0-0
62
  7
10
575.108
20
671.432
30
0.0
0
POINT
5
1301
8
0-0
62
  7
10
490.108
20
709.441
30
0.0
0
POINT
5
1302
8
0-0
62
  7
10
555.108
20
709.441
30
0.0
0
POINT
5
1303
8
0-0
62
  7
10
575.108
20
709.441
30
0.0
0
POINT
5
1304
8
0-0
62
  7
10
708.676
20
505.216
30
0.0
0
POINT
5
1305
8
0-0
62
  7
10
708.676
20
420.216
30
0.0
0
ENDSEC
0
EOF
