0
SECTION
2
HEADER
  9
$EXTMIN
10
0
20
0
30
0
  9
$EXTMAX
10
1421.950
20
1230.382
30
0
  9
$LTSCALE
40
5.000
  9
$DIMSCALE
40
5.000
  9
$PDMODE
70
0
  9
$PDSIZE
40
40
0
ENDSEC
0
SECTION
2
TABLES
0
TABLE
2
LTYPE
70
9
0
LTYPE
5
1f4
2
CONTINUOUS
70
0
3
実線
72
65
73
0
40
0.0
0
LTYPE
5
1f5
2
DOT
70
0
3
--  --  --  --  --  --  --  --     
72
65
73
2
40
5.000
49
1.000
49
-4.000
0
LTYPE
5
1f6
2
DASHED
70
0
3
----    ----    ----    ----    
72
65
73
2
40
5.000
49
2.000
49
-3.000
0
LTYPE
5
1f7
2
DASHED2
70
0
3
------  ------  ------  ------ 
72
65
73
2
40
10.000
49
4.000
49
-6.000
0
LTYPE
5
1f8
2
CENTER
70
0
3
----- - ----- - ----- - ----- - 
72
65
73
4
40
9.000
49
6.000
49
-1.000
49
1.000
49
-1.000
0
LTYPE
5
1f9
2
CENTER2
70
0
3
----------  --  ----------  -- 
72
65
73
4
40
18.000
49
12.000
49
-2.000
49
2.000
49
-2.000
0
LTYPE
5
1fa
2
PHANTOM
70
0
3
--- - - --- - - --- - - --- - -
72
65
73
6
40
10.000
49
5.000
49
-1.000
49
1.000
49
-1.000
49
1.000
49
-1.000
0
LTYPE
5
1fb
2
PHANTOM2
70
0
3
--------  -  -  --------  -  -
72
65
73
6
40
16.000
49
6.000
49
-2.000
49
2.000
49
-2.000
49
2.000
49
-2.000
0
LTYPE
5
1fc
2
HIDDEN
70
0
3
-   -   -   -   -   -   -   -   
72
65
73
2
40
2.500
49
0.500
49
-2.000
0
ENDTAB
0
TABLE
2
STYLE
70
1
0
STYLE
5
1fd
100
AcDbSymbolTableRecord
100
AcDbTextStyleTableRecord
2
STANDARD
70
0
40
0.0
41
1.0
50
0.0
71
0
42
0.0
3
txt.shx
4
extfont.shx
0
STYLE
5
1fe
100
AcDbSymbolTableRecord
100
AcDbTextStyleTableRecord
2
TATEGAKI
70
4
40
0.0
41
1.0
50
0.0
71
0
42
0.0
3
txt.shx
4
extfont.shx
0
STYLE
5
1ff
100
AcDbSymbolTableRecord
100
AcDbTextStyleTableRecord
2
MT
70
0
40
0.0
41
1.0
50
0.0
71
0
42
0.0
3
MS Mincho
4

0
STYLE
5
200
100
AcDbSymbolTableRecord
100
AcDbTextStyleTableRecord
2
TMT
70
4
40
0.0
41
1.0
50
0.0
71
0
42
0.0
3
@MS Mincho
4

0
ENDTAB
0
TABLE
2
LAYER
5
1836
100
AcDbSymbolTable
70
10
0
LAYER
5
1837
100
AcDbSymbolTableRecord
100
AcDbLayerTableRecord
2
0
70
64
62
  7
  6
CONTINUOUS
0
LAYER
5
1838
100
AcDbSymbolTableRecord
100
AcDbLayerTableRecord
2
0-0
70
64
62
  7
  6
CONTINUOUS
0
LAYER
5
1839
100
AcDbSymbolTableRecord
100
AcDbLayerTableRecord
2
ADD_LINE
70
64
62
  -7
  6
CONTINUOUS
0
ENDTAB
0
ENDSEC
0
SECTION
2
ENTITIES
0
LINE
5
183a
8
0-0
6
CONTINUOUS
62
  7
10
1167.112
20
496.612
30
0.0
11
1175.112
21
496.612
31
0.0
0
LINE
5
183b
8
0-0
6
CONTINUOUS
62
  7
10
920.112
20
1040.450
30
0.0
11
1175.112
21
1040.450
31
0.0
0
LINE
5
183c
8
0-0
6
CONTINUOUS
62
  7
10
920.112
20
1040.450
30
0.0
11
920.112
21
740.450
31
0.0
0
LINE
5
183d
8
0-0
6
CONTINUOUS
62
  7
10
920.112
20
740.450
30
0.0
11
1175.112
21
740.450
31
0.0
0
LINE
5
183e
8
0-0
6
CONTINUOUS
62
  7
10
1175.112
20
1040.450
30
0.0
11
1175.112
21
740.450
31
0.0
0
LINE
5
183f
8
0-0
6
CONTINUOUS
62
  7
10
1167.112
20
1040.450
30
0.0
11
1167.112
21
765.450
31
0.0
0
LINE
5
1840
8
0-0
6
CONTINUOUS
62
  7
10
1167.112
20
765.450
30
0.0
11
1175.112
21
765.450
31
0.0
0
LINE
5
1841
8
0-0
6
CONTINUOUS
62
  7
10
724.245
20
1040.450
30
0.0
11
724.245
21
740.450
31
0.0
0
LINE
5
1842
8
0-0
6
CONTINUOUS
62
  7
10
704.245
20
1040.450
30
0.0
11
704.245
21
758.458
31
0.0
0
LINE
5
1843
8
0-0
6
CONTINUOUS
62
  7
10
724.245
20
740.450
30
0.0
11
676.245
21
735.405
31
0.0
0
LINE
5
1844
8
0-0
6
CONTINUOUS
62
  7
10
676.245
20
755.515
30
0.0
11
676.245
21
735.405
31
0.0
0
LINE
5
1845
8
0-0
6
CONTINUOUS
62
  7
10
704.245
20
758.458
30
0.0
11
676.245
21
755.515
31
0.0
0
LINE
5
1846
8
0-0
6
CONTINUOUS
62
  7
10
676.245
20
755.515
30
0.0
11
676.245
21
770.450
31
0.0
0
LINE
5
1847
8
0-0
6
CONTINUOUS
62
  7
10
1167.112
20
496.612
30
0.0
11
1167.112
21
493.191
31
0.0
0
LINE
5
1848
8
0-0
6
CONTINUOUS
62
  7
10
1175.112
20
496.612
30
0.0
11
1172.952
21
455.387
31
0.0
0
LINE
5
1849
8
0-0
6
CONTINUOUS
62
  7
10
920.112
20
496.612
30
0.0
11
917.757
21
451.674
31
0.0
0
LINE
5
184a
8
0-0
6
CONTINUOUS
62
  7
10
1373.950
20
740.450
30
0.0
11
1373.950
21
1040.450
31
0.0
0
LINE
5
184b
8
0-0
6
CONTINUOUS
62
  7
10
1421.950
20
755.515
30
0.0
11
1421.950
21
735.405
31
0.0
0
LINE
5
184c
8
0-0
6
CONTINUOUS
62
  7
10
1393.950
20
758.458
30
0.0
11
1421.950
21
755.515
31
0.0
0
LINE
5
184d
8
0-0
6
CONTINUOUS
62
  7
10
1393.950
20
758.458
30
0.0
11
1393.950
21
1040.450
31
0.0
0
LINE
5
184e
8
0-0
6
CONTINUOUS
62
  7
10
1346.950
20
1040.450
30
0.0
11
1393.950
21
1040.450
31
0.0
0
LINE
5
184f
8
0-0
6
CONTINUOUS
62
  7
10
1346.950
20
743.288
30
0.0
11
1421.950
21
735.405
31
0.0
0
LINE
5
1850
8
0-0
6
CONTINUOUS
62
  7
10
1346.950
20
743.288
30
0.0
11
1346.950
21
1040.450
31
0.0
0
LINE
5
1851
8
0-0
6
CONTINUOUS
62
  7
10
920.112
20
1227.882
30
0.0
11
1175.112
21
1227.882
31
0.0
0
LINE
5
1852
8
0-0
6
CONTINUOUS
62
  7
10
920.112
20
1098.152
30
0.0
11
920.112
21
1227.882
31
0.0
0
LINE
5
1853
8
0-0
6
CONTINUOUS
62
  7
10
1175.112
20
1098.152
30
0.0
11
1175.112
21
1227.882
31
0.0
0
LINE
5
1854
8
0-0
6
CONTINUOUS
62
  7
10
1373.950
20
1227.882
30
0.0
11
1393.950
21
1227.882
31
0.0
0
LINE
5
1855
8
0-0
6
CONTINUOUS
62
  7
10
1373.950
20
1098.152
30
0.0
11
1373.950
21
1227.882
31
0.0
0
LINE
5
1856
8
0-0
6
CONTINUOUS
62
  7
10
1393.950
20
1098.152
30
0.0
11
1393.950
21
1227.882
31
0.0
0
LINE
5
1857
8
0-0
6
CONTINUOUS
62
  7
10
920.112
20
591.396
30
0.0
11
1175.112
21
591.396
31
0.0
0
LINE
5
1858
8
0-0
6
CONTINUOUS
62
  7
10
920.112
20
688.693
30
0.0
11
920.112
21
591.396
31
0.0
0
LINE
5
1859
8
0-0
6
CONTINUOUS
62
  7
10
1175.112
20
688.693
30
0.0
11
1175.112
21
591.396
31
0.0
0
LINE
5
185a
8
0-0
6
CONTINUOUS
62
  7
10
461.788
20
1040.450
30
0.0
11
461.788
21
810.450
31
0.0
0
LINE
5
185b
8
0-0
6
CONTINUOUS
62
  7
10
583.409
20
1040.450
30
0.0
11
461.788
21
1040.450
31
0.0
0
LINE
5
185c
8
0-0
6
CONTINUOUS
62
  7
10
583.409
20
810.450
30
0.0
11
461.788
21
810.450
31
0.0
0
LINE
5
185d
8
0-0
6
CONTINUOUS
62
  7
10
461.788
20
810.450
30
0.0
11
461.788
21
735.405
31
0.0
0
LINE
5
185e
8
0-0
6
CONTINUOUS
62
  7
10
583.409
20
735.405
30
0.0
11
461.788
21
735.405
31
0.0
0
LINE
5
185f
8
0-0
6
CONTINUOUS
62
  7
10
826.653
20
1040.450
30
0.0
11
826.653
21
740.450
31
0.0
0
LINE
5
1860
8
0-0
6
CONTINUOUS
62
  7
10
761.788
20
1040.450
30
0.0
11
826.653
21
1040.450
31
0.0
0
LINE
5
1861
8
0-0
6
CONTINUOUS
62
  7
10
761.788
20
740.450
30
0.0
11
826.653
21
740.450
31
0.0
0
LINE
5
1862
8
0-0
6
CONTINUOUS
62
  7
10
1252.328
20
1040.450
30
0.0
11
1252.328
21
740.450
31
0.0
0
LINE
5
1863
8
0-0
6
CONTINUOUS
62
  7
10
1203.679
20
1040.450
30
0.0
11
1252.328
21
1040.450
31
0.0
0
LINE
5
1864
8
0-0
6
CONTINUOUS
62
  7
10
1203.679
20
740.450
30
0.0
11
1252.328
21
740.450
31
0.0
0
LINE
5
1865
8
0-0
6
CONTINUOUS
62
  7
10
917.757
20
242.747
30
0.0
11
1172.952
21
242.747
31
0.0
0
LINE
5
1866
8
0-0
6
CONTINUOUS
62
  7
10
917.757
20
340.044
30
0.0
11
917.757
21
242.747
31
0.0
0
LINE
5
1867
8
0-0
6
CONTINUOUS
62
  7
10
1172.952
20
340.044
30
0.0
11
1172.952
21
242.747
31
0.0
0
LINE
5
1868
8
0-0
6
CONTINUOUS
62
  7
10
917.757
20
283.288
30
0.0
11
937.757
21
283.288
31
0.0
0
LINE
5
1869
8
0-0
6
CONTINUOUS
62
  7
10
917.757
20
340.044
30
0.0
11
917.757
21
283.288
31
0.0
0
LINE
5
186a
8
0-0
6
CONTINUOUS
62
  7
10
937.757
20
340.044
30
0.0
11
937.757
21
283.288
31
0.0
0
LINE
5
186b
8
0-0
6
CONTINUOUS
62
  7
10
937.757
20
283.288
30
0.0
11
956.757
21
283.288
31
0.0
0
LINE
5
186c
8
0-0
6
CONTINUOUS
62
  7
10
956.757
20
340.044
30
0.0
11
956.757
21
283.288
31
0.0
0
LINE
5
186d
8
0-0
6
CONTINUOUS
62
  7
10
937.757
20
442.320
30
0.0
11
937.757
21
398.612
31
0.0
0
LINE
5
186e
8
0-0
6
CONTINUOUS
62
  7
10
937.757
20
398.612
30
0.0
11
956.757
21
403.612
31
0.0
0
LINE
5
186f
8
0-0
6
CONTINUOUS
62
  7
10
956.757
20
435.193
30
0.0
11
956.757
21
403.612
31
0.0
0
LINE
5
1870
8
0-0
6
CONTINUOUS
62
  7
10
810.436
20
496.612
30
0.0
11
810.436
21
398.612
31
0.0
0
LINE
5
1871
8
0-0
6
CONTINUOUS
62
  7
10
891.517
20
496.612
30
0.0
11
810.436
21
496.612
31
0.0
0
LINE
5
1872
8
0-0
6
CONTINUOUS
62
  7
10
891.517
20
398.612
30
0.0
11
810.436
21
398.612
31
0.0
0
LINE
5
1873
8
0-0
6
CONTINUOUS
62
  7
10
838.830
20
496.612
30
0.0
11
838.830
21
451.674
31
0.0
0
LINE
5
1874
8
0-0
6
CONTINUOUS
62
  7
10
891.517
20
496.612
30
0.0
11
838.830
21
496.612
31
0.0
0
LINE
5
1875
8
0-0
6
CONTINUOUS
62
  7
10
891.517
20
451.674
30
0.0
11
838.830
21
451.674
31
0.0
0
LINE
5
1876
8
0-0
6
CONTINUOUS
62
  7
10
838.830
20
451.674
30
0.0
11
838.830
21
398.612
31
0.0
0
LINE
5
1877
8
0-0
6
CONTINUOUS
62
  7
10
891.517
20
398.612
30
0.0
11
838.830
21
398.612
31
0.0
0
LINE
5
1878
8
ADD_LINE
6
HIDDEN
62
  3
10
934.275
20
462.162
30
0.0
11
978.979
21
462.162
31
0.0
0
LINE
5
1879
8
ADD_LINE
6
HIDDEN
62
  3
10
956.757
20
448.836
30
0.0
11
956.757
21
473.170
31
0.0
0
LINE
5
187a
8
0-0
6
CONTINUOUS
62
  7
10
685.763
20
949.628
30
0.0
11
685.626
21
949.281
31
0.0
0
LINE
5
187b
8
0-0
6
CONTINUOUS
62
  7
10
684.439
20
874.142
30
0.0
11
683.874
21
873.688
31
0.0
0
LINE
5
187c
8
0-0
6
CONTINUOUS
62
  7
10
683.874
20
873.688
30
0.0
11
683.439
21
873.199
31
0.0
0
LINE
5
187d
8
0-0
6
CONTINUOUS
62
  7
10
683.439
20
873.199
30
0.0
11
683.138
21
872.677
31
0.0
0
LINE
5
187e
8
0-0
6
CONTINUOUS
62
  7
10
683.138
20
872.677
30
0.0
11
683.051
21
872.423
31
0.0
0
LINE
5
187f
8
0-0
6
CONTINUOUS
62
  7
10
683.051
20
872.423
30
0.0
11
683.001
21
872.114
31
0.0
0
LINE
5
1880
8
0-0
6
CONTINUOUS
62
  7
10
683.001
20
872.114
30
0.0
11
683.042
21
871.435
31
0.0
0
LINE
5
1881
8
0-0
6
CONTINUOUS
62
  7
10
683.042
20
871.435
30
0.0
11
683.250
21
870.699
31
0.0
0
LINE
5
1882
8
0-0
6
CONTINUOUS
62
  7
10
683.250
20
870.699
30
0.0
11
683.611
21
869.903
31
0.0
0
LINE
5
1883
8
0-0
6
CONTINUOUS
62
  7
10
683.611
20
869.903
30
0.0
11
683.865
21
869.455
31
0.0
0
LINE
5
1884
8
0-0
6
CONTINUOUS
62
  7
10
683.865
20
869.455
30
0.0
11
684.187
21
868.956
31
0.0
0
LINE
5
1885
8
0-0
6
CONTINUOUS
62
  7
10
684.187
20
868.956
30
0.0
11
684.813
21
868.160
31
0.0
0
LINE
5
1886
8
0-0
6
CONTINUOUS
62
  7
10
684.813
20
868.160
30
0.0
11
685.471
21
867.542
31
0.0
0
LINE
5
1887
8
0-0
6
CONTINUOUS
62
  7
10
685.471
20
867.542
30
0.0
11
686.162
21
867.122
31
0.0
0
LINE
5
1888
8
0-0
6
CONTINUOUS
62
  7
10
686.162
20
867.122
30
0.0
11
686.504
21
867.002
31
0.0
0
LINE
5
1889
8
0-0
6
CONTINUOUS
62
  7
10
686.504
20
867.002
30
0.0
11
687.000
21
866.936
31
0.0
0
LINE
5
188a
8
0-0
6
CONTINUOUS
62
  7
10
687.000
20
866.936
30
0.0
11
688.065
21
867.072
31
0.0
0
LINE
5
188b
8
0-0
6
CONTINUOUS
62
  7
10
688.065
20
867.072
30
0.0
11
689.216
21
867.502
31
0.0
0
LINE
5
188c
8
0-0
6
CONTINUOUS
62
  7
10
689.216
20
867.502
30
0.0
11
690.405
21
868.159
31
0.0
0
LINE
5
188d
8
0-0
6
CONTINUOUS
62
  7
10
690.405
20
868.159
30
0.0
11
691.058
21
868.593
31
0.0
0
LINE
5
188e
8
0-0
6
CONTINUOUS
62
  7
10
691.058
20
868.593
30
0.0
11
691.658
21
869.031
31
0.0
0
LINE
5
188f
8
0-0
6
CONTINUOUS
62
  7
10
691.658
20
869.031
30
0.0
11
692.629
21
869.833
31
0.0
0
LINE
5
1890
8
0-0
6
CONTINUOUS
62
  7
10
692.629
20
869.833
30
0.0
11
693.516
21
870.677
31
0.0
0
LINE
5
1891
8
0-0
6
CONTINUOUS
62
  7
10
693.516
20
870.677
30
0.0
11
694.353
21
871.585
31
0.0
0
LINE
5
1892
8
0-0
6
CONTINUOUS
62
  7
10
694.353
20
871.585
30
0.0
11
694.821
21
872.138
31
0.0
0
LINE
5
1893
8
0-0
6
CONTINUOUS
62
  7
10
694.821
20
872.138
30
0.0
11
695.014
21
872.376
31
0.0
0
LINE
5
1894
8
0-0
6
CONTINUOUS
62
  7
10
695.014
20
872.376
30
0.0
11
695.334
21
872.796
31
0.0
0
LINE
5
1895
8
0-0
6
CONTINUOUS
62
  7
10
695.334
20
872.796
30
0.0
11
695.612
21
873.210
31
0.0
0
LINE
5
1896
8
0-0
6
CONTINUOUS
62
  7
10
695.612
20
873.210
30
0.0
11
695.844
21
873.629
31
0.0
0
LINE
5
1897
8
0-0
6
CONTINUOUS
62
  7
10
695.844
20
873.629
30
0.0
11
695.945
21
873.856
31
0.0
0
LINE
5
1898
8
0-0
6
CONTINUOUS
62
  7
10
695.945
20
873.856
30
0.0
11
696.018
21
874.054
31
0.0
0
LINE
5
1899
8
0-0
6
CONTINUOUS
62
  7
10
696.018
20
874.054
30
0.0
11
696.132
21
874.456
31
0.0
0
LINE
5
189a
8
0-0
6
CONTINUOUS
62
  7
10
696.132
20
874.456
30
0.0
11
696.224
21
874.884
31
0.0
0
LINE
5
189b
8
0-0
6
CONTINUOUS
62
  7
10
696.224
20
874.884
30
0.0
11
696.306
21
875.348
31
0.0
0
LINE
5
189c
8
0-0
6
CONTINUOUS
62
  7
10
696.306
20
875.348
30
0.0
11
696.349
21
875.607
31
0.0
0
LINE
5
189d
8
0-0
6
CONTINUOUS
62
  7
10
696.349
20
875.607
30
0.0
11
696.395
21
875.879
31
0.0
0
LINE
5
189e
8
0-0
6
CONTINUOUS
62
  7
10
696.395
20
875.879
30
0.0
11
696.467
21
876.320
31
0.0
0
LINE
5
189f
8
0-0
6
CONTINUOUS
62
  7
10
696.467
20
876.320
30
0.0
11
696.524
21
876.734
31
0.0
0
LINE
5
18a0
8
0-0
6
CONTINUOUS
62
  7
10
696.524
20
876.734
30
0.0
11
696.562
21
877.134
31
0.0
0
LINE
5
18a1
8
0-0
6
CONTINUOUS
62
  7
10
696.562
20
877.134
30
0.0
11
696.572
21
877.348
31
0.0
0
LINE
5
18a2
8
0-0
6
CONTINUOUS
62
  7
10
696.572
20
877.348
30
0.0
11
696.572
21
877.576
31
0.0
0
LINE
5
18a3
8
0-0
6
CONTINUOUS
62
  7
10
696.572
20
877.576
30
0.0
11
696.549
21
877.989
31
0.0
0
LINE
5
18a4
8
0-0
6
CONTINUOUS
62
  7
10
696.549
20
877.989
30
0.0
11
696.497
21
878.406
31
0.0
0
LINE
5
18a5
8
0-0
6
CONTINUOUS
62
  7
10
696.497
20
878.406
30
0.0
11
696.420
21
878.834
31
0.0
0
LINE
5
18a6
8
0-0
6
CONTINUOUS
62
  7
10
696.420
20
878.834
30
0.0
11
696.367
21
879.069
31
0.0
0
LINE
5
18a7
8
0-0
6
CONTINUOUS
62
  7
10
696.367
20
879.069
30
0.0
11
696.224
21
879.608
31
0.0
0
LINE
5
18a8
8
0-0
6
CONTINUOUS
62
  7
10
696.224
20
879.608
30
0.0
11
695.901
21
880.529
31
0.0
0
LINE
5
18a9
8
0-0
6
CONTINUOUS
62
  7
10
695.901
20
880.529
30
0.0
11
695.495
21
881.397
31
0.0
0
LINE
5
18aa
8
0-0
6
CONTINUOUS
62
  7
10
695.495
20
881.397
30
0.0
11
694.999
21
882.221
31
0.0
0
LINE
5
18ab
8
0-0
6
CONTINUOUS
62
  7
10
694.999
20
882.221
30
0.0
11
694.681
21
882.659
31
0.0
0
LINE
5
18ac
8
0-0
6
CONTINUOUS
62
  7
10
694.681
20
882.659
30
0.0
11
694.504
21
882.878
31
0.0
0
LINE
5
18ad
8
0-0
6
CONTINUOUS
62
  7
10
694.504
20
882.878
30
0.0
11
694.161
21
883.277
31
0.0
0
LINE
5
18ae
8
0-0
6
CONTINUOUS
62
  7
10
694.161
20
883.277
30
0.0
11
693.791
21
883.688
31
0.0
0
LINE
5
18af
8
0-0
6
CONTINUOUS
62
  7
10
693.791
20
883.688
30
0.0
11
693.416
21
884.111
31
0.0
0
LINE
5
18b0
8
0-0
6
CONTINUOUS
62
  7
10
693.416
20
884.111
30
0.0
11
693.191
21
884.376
31
0.0
0
LINE
5
18b1
8
0-0
6
CONTINUOUS
62
  7
10
693.191
20
884.376
30
0.0
11
692.949
21
884.675
31
0.0
0
LINE
5
18b2
8
0-0
6
CONTINUOUS
62
  7
10
692.949
20
884.675
30
0.0
11
692.567
21
885.168
31
0.0
0
LINE
5
18b3
8
0-0
6
CONTINUOUS
62
  7
10
692.567
20
885.168
30
0.0
11
692.199
21
885.638
31
0.0
0
LINE
5
18b4
8
0-0
6
CONTINUOUS
62
  7
10
692.199
20
885.638
30
0.0
11
691.832
21
886.068
31
0.0
0
LINE
5
18b5
8
0-0
6
CONTINUOUS
62
  7
10
691.832
20
886.068
30
0.0
11
691.624
21
886.286
31
0.0
0
LINE
5
18b6
8
0-0
6
CONTINUOUS
62
  7
10
691.624
20
886.286
30
0.0
11
691.453
21
886.448
31
0.0
0
LINE
5
18b7
8
0-0
6
CONTINUOUS
62
  7
10
691.453
20
886.448
30
0.0
11
691.114
21
886.736
31
0.0
0
LINE
5
18b8
8
0-0
6
CONTINUOUS
62
  7
10
691.114
20
886.736
30
0.0
11
690.754
21
887.012
31
0.0
0
LINE
5
18b9
8
0-0
6
CONTINUOUS
62
  7
10
690.754
20
887.012
30
0.0
11
690.362
21
887.293
31
0.0
0
LINE
5
18ba
8
0-0
6
CONTINUOUS
62
  7
10
690.362
20
887.293
30
0.0
11
690.126
21
887.457
31
0.0
0
LINE
5
18bb
8
0-0
6
CONTINUOUS
62
  7
10
690.126
20
887.457
30
0.0
11
689.891
21
887.618
31
0.0
0
LINE
5
18bc
8
0-0
6
CONTINUOUS
62
  7
10
689.891
20
887.618
30
0.0
11
689.482
21
887.888
31
0.0
0
LINE
5
18bd
8
0-0
6
CONTINUOUS
62
  7
10
689.482
20
887.888
30
0.0
11
689.095
21
888.117
31
0.0
0
LINE
5
18be
8
0-0
6
CONTINUOUS
62
  7
10
689.095
20
888.117
30
0.0
11
688.711
21
888.302
31
0.0
0
LINE
5
18bf
8
0-0
6
CONTINUOUS
62
  7
10
688.711
20
888.302
30
0.0
11
688.523
21
888.374
31
0.0
0
LINE
5
18c0
8
0-0
6
CONTINUOUS
62
  7
10
688.523
20
888.374
30
0.0
11
688.203
21
888.462
31
0.0
0
LINE
5
18c1
8
0-0
6
CONTINUOUS
62
  7
10
688.203
20
888.462
30
0.0
11
687.564
21
888.549
31
0.0
0
LINE
5
18c2
8
0-0
6
CONTINUOUS
62
  7
10
687.564
20
888.549
30
0.0
11
686.876
21
888.553
31
0.0
0
LINE
5
18c3
8
0-0
6
CONTINUOUS
62
  7
10
686.876
20
888.553
30
0.0
11
686.130
21
888.497
31
0.0
0
LINE
5
18c4
8
0-0
6
CONTINUOUS
62
  7
10
686.130
20
888.497
30
0.0
11
685.688
21
888.449
31
0.0
0
LINE
5
18c5
8
0-0
6
CONTINUOUS
62
  7
10
685.688
20
888.449
30
0.0
11
685.037
21
888.367
31
0.0
0
LINE
5
18c6
8
0-0
6
CONTINUOUS
62
  7
10
685.037
20
888.367
30
0.0
11
683.929
21
888.200
31
0.0
0
LINE
5
18c7
8
0-0
6
CONTINUOUS
62
  7
10
683.929
20
888.200
30
0.0
11
682.854
21
887.992
31
0.0
0
LINE
5
18c8
8
0-0
6
CONTINUOUS
62
  7
10
682.854
20
887.992
30
0.0
11
681.804
21
887.732
31
0.0
0
LINE
5
18c9
8
0-0
6
CONTINUOUS
62
  7
10
681.804
20
887.732
30
0.0
11
681.214
21
887.556
31
0.0
0
LINE
5
18ca
8
0-0
6
CONTINUOUS
62
  7
10
681.214
20
887.556
30
0.0
11
680.721
21
887.391
31
0.0
0
LINE
5
18cb
8
0-0
6
CONTINUOUS
62
  7
10
680.721
20
887.391
30
0.0
11
679.853
21
887.070
31
0.0
0
LINE
5
18cc
8
0-0
6
CONTINUOUS
62
  7
10
679.853
20
887.070
30
0.0
11
678.975
21
886.726
31
0.0
0
LINE
5
18cd
8
0-0
6
CONTINUOUS
62
  7
10
678.975
20
886.726
30
0.0
11
678.059
21
886.369
31
0.0
0
LINE
5
18ce
8
0-0
6
CONTINUOUS
62
  7
10
678.059
20
886.369
30
0.0
11
677.521
21
886.170
31
0.0
0
LINE
5
18cf
8
0-0
6
CONTINUOUS
62
  7
10
677.521
20
886.170
30
0.0
11
676.897
21
885.954
31
0.0
0
LINE
5
18d0
8
0-0
6
CONTINUOUS
62
  7
10
676.897
20
885.954
30
0.0
11
675.840
21
885.602
31
0.0
0
LINE
5
18d1
8
0-0
6
CONTINUOUS
62
  7
10
675.840
20
885.602
30
0.0
11
674.828
21
885.242
31
0.0
0
LINE
5
18d2
8
0-0
6
CONTINUOUS
62
  7
10
674.828
20
885.242
30
0.0
11
673.873
21
884.837
31
0.0
0
LINE
5
18d3
8
0-0
6
CONTINUOUS
62
  7
10
673.873
20
884.837
30
0.0
11
673.365
21
884.575
31
0.0
0
LINE
5
18d4
8
0-0
6
CONTINUOUS
62
  7
10
673.365
20
884.575
30
0.0
11
672.989
21
884.351
31
0.0
0
LINE
5
18d5
8
0-0
6
CONTINUOUS
62
  7
10
672.989
20
884.351
30
0.0
11
672.336
21
883.895
31
0.0
0
LINE
5
18d6
8
0-0
6
CONTINUOUS
62
  7
10
672.336
20
883.895
30
0.0
11
671.721
21
883.385
31
0.0
0
LINE
5
18d7
8
0-0
6
CONTINUOUS
62
  7
10
671.721
20
883.385
30
0.0
11
671.137
21
882.822
31
0.0
0
LINE
5
18d8
8
0-0
6
CONTINUOUS
62
  7
10
671.137
20
882.822
30
0.0
11
670.822
21
882.483
31
0.0
0
LINE
5
18d9
8
0-0
6
CONTINUOUS
62
  7
10
670.822
20
882.483
30
0.0
11
670.517
21
882.128
31
0.0
0
LINE
5
18da
8
0-0
6
CONTINUOUS
62
  7
10
670.517
20
882.128
30
0.0
11
670.008
21
881.473
31
0.0
0
LINE
5
18db
8
0-0
6
CONTINUOUS
62
  7
10
670.008
20
881.473
30
0.0
11
669.539
21
880.790
31
0.0
0
LINE
5
18dc
8
0-0
6
CONTINUOUS
62
  7
10
669.539
20
880.790
30
0.0
11
669.097
21
880.068
31
0.0
0
LINE
5
18dd
8
0-0
6
CONTINUOUS
62
  7
10
669.097
20
880.068
30
0.0
11
668.857
21
879.641
31
0.0
0
LINE
5
18de
8
0-0
6
CONTINUOUS
62
  7
10
668.857
20
879.641
30
0.0
11
668.697
21
879.341
31
0.0
0
LINE
5
18df
8
0-0
6
CONTINUOUS
62
  7
10
668.697
20
879.341
30
0.0
11
668.440
21
878.813
31
0.0
0
LINE
5
18e0
8
0-0
6
CONTINUOUS
62
  7
10
668.440
20
878.813
30
0.0
11
668.236
21
878.304
31
0.0
0
LINE
5
18e1
8
0-0
6
CONTINUOUS
62
  7
10
668.236
20
878.304
30
0.0
11
668.088
21
877.796
31
0.0
0
LINE
5
18e2
8
0-0
6
CONTINUOUS
62
  7
10
668.088
20
877.796
30
0.0
11
668.039
21
877.534
31
0.0
0
LINE
5
18e3
8
0-0
6
CONTINUOUS
62
  7
10
668.039
20
877.534
30
0.0
11
668.010
21
877.243
31
0.0
0
LINE
5
18e4
8
0-0
6
CONTINUOUS
62
  7
10
668.010
20
877.243
30
0.0
11
668.012
21
876.676
31
0.0
0
LINE
5
18e5
8
0-0
6
CONTINUOUS
62
  7
10
668.012
20
876.676
30
0.0
11
668.074
21
876.083
31
0.0
0
LINE
5
18e6
8
0-0
6
CONTINUOUS
62
  7
10
668.074
20
876.083
30
0.0
11
668.183
21
875.455
31
0.0
0
LINE
5
18e7
8
0-0
6
CONTINUOUS
62
  7
10
668.183
20
875.455
30
0.0
11
668.259
21
875.087
31
0.0
0
LINE
5
18e8
8
0-0
6
CONTINUOUS
62
  7
10
668.259
20
875.087
30
0.0
11
668.369
21
874.588
31
0.0
0
LINE
5
18e9
8
0-0
6
CONTINUOUS
62
  7
10
668.369
20
874.588
30
0.0
11
668.579
21
873.730
31
0.0
0
LINE
5
18ea
8
0-0
6
CONTINUOUS
62
  7
10
668.579
20
873.730
30
0.0
11
668.815
21
872.903
31
0.0
0
LINE
5
18eb
8
0-0
6
CONTINUOUS
62
  7
10
668.815
20
872.903
30
0.0
11
669.087
21
872.090
31
0.0
0
LINE
5
18ec
8
0-0
6
CONTINUOUS
62
  7
10
669.087
20
872.090
30
0.0
11
669.259
21
871.636
31
0.0
0
LINE
5
18ed
8
0-0
6
CONTINUOUS
62
  7
10
669.259
20
871.636
30
0.0
11
669.378
21
871.347
31
0.0
0
LINE
5
18ee
8
0-0
6
CONTINUOUS
62
  7
10
669.378
20
871.347
30
0.0
11
669.605
21
870.834
31
0.0
0
LINE
5
18ef
8
0-0
6
CONTINUOUS
62
  7
10
669.605
20
870.834
30
0.0
11
669.847
21
870.328
31
0.0
0
LINE
5
18f0
8
0-0
6
CONTINUOUS
62
  7
10
669.847
20
870.328
30
0.0
11
670.106
21
869.818
31
0.0
0
LINE
5
18f1
8
0-0
6
CONTINUOUS
62
  7
10
670.106
20
869.818
30
0.0
11
670.261
21
869.523
31
0.0
0
LINE
5
18f2
8
0-0
6
CONTINUOUS
62
  7
10
670.261
20
869.523
30
0.0
11
670.409
21
869.247
31
0.0
0
LINE
5
18f3
8
0-0
6
CONTINUOUS
62
  7
10
670.409
20
869.247
30
0.0
11
670.663
21
868.767
31
0.0
0
LINE
5
18f4
8
0-0
6
CONTINUOUS
62
  7
10
670.663
20
868.767
30
0.0
11
670.916
21
868.253
31
0.0
0
LINE
5
18f5
8
0-0
6
CONTINUOUS
62
  7
10
670.916
20
868.253
30
0.0
11
671.144
21
867.717
31
0.0
0
LINE
5
18f6
8
0-0
6
CONTINUOUS
62
  7
10
671.144
20
867.717
30
0.0
11
671.264
21
867.375
31
0.0
0
LINE
5
18f7
8
0-0
6
CONTINUOUS
62
  7
10
671.264
20
867.375
30
0.0
11
671.384
21
866.949
31
0.0
0
LINE
5
18f8
8
0-0
6
CONTINUOUS
62
  7
10
671.384
20
866.949
30
0.0
11
671.518
21
866.245
31
0.0
0
LINE
5
18f9
8
0-0
6
CONTINUOUS
62
  7
10
671.518
20
866.245
30
0.0
11
671.596
21
865.538
31
0.0
0
LINE
5
18fa
8
0-0
6
CONTINUOUS
62
  7
10
671.596
20
865.538
30
0.0
11
671.639
21
864.847
31
0.0
0
LINE
5
18fb
8
0-0
6
CONTINUOUS
62
  7
10
671.639
20
864.847
30
0.0
11
671.659
21
864.438
31
0.0
0
LINE
5
18fc
8
0-0
6
CONTINUOUS
62
  7
10
671.659
20
864.438
30
0.0
11
671.675
21
864.051
31
0.0
0
LINE
5
18fd
8
0-0
6
CONTINUOUS
62
  7
10
671.675
20
864.051
30
0.0
11
671.682
21
863.351
31
0.0
0
LINE
5
18fe
8
0-0
6
CONTINUOUS
62
  7
10
671.682
20
863.351
30
0.0
11
671.612
21
862.599
31
0.0
0
LINE
5
18ff
8
0-0
6
CONTINUOUS
62
  7
10
671.612
20
862.599
30
0.0
11
671.396
21
861.849
31
0.0
0
LINE
5
1900
8
0-0
6
CONTINUOUS
62
  7
10
671.396
20
861.849
30
0.0
11
671.148
21
861.394
31
0.0
0
LINE
5
1901
8
0-0
6
CONTINUOUS
62
  7
10
671.148
20
861.394
30
0.0
11
670.901
21
861.081
31
0.0
0
LINE
5
1902
8
0-0
6
CONTINUOUS
62
  7
10
670.901
20
861.081
30
0.0
11
670.496
21
860.699
31
0.0
0
LINE
5
1903
8
0-0
6
CONTINUOUS
62
  7
10
670.496
20
860.699
30
0.0
11
670.081
21
860.387
31
0.0
0
LINE
5
1904
8
0-0
6
CONTINUOUS
62
  7
10
670.081
20
860.387
30
0.0
11
669.705
21
860.123
31
0.0
0
LINE
5
1905
8
0-0
6
CONTINUOUS
62
  7
10
669.705
20
860.123
30
0.0
11
669.517
21
859.986
31
0.0
0
LINE
5
1906
8
0-0
6
CONTINUOUS
62
  7
10
669.517
20
859.986
30
0.0
11
669.390
21
859.886
31
0.0
0
LINE
5
1907
8
0-0
6
CONTINUOUS
62
  7
10
669.390
20
859.886
30
0.0
11
669.152
21
859.689
31
0.0
0
LINE
5
1908
8
0-0
6
CONTINUOUS
62
  7
10
669.152
20
859.689
30
0.0
11
668.888
21
859.472
31
0.0
0
LINE
5
1909
8
0-0
6
CONTINUOUS
62
  7
10
668.888
20
859.472
30
0.0
11
668.594
21
859.251
31
0.0
0
LINE
5
190a
8
0-0
6
CONTINUOUS
62
  7
10
668.594
20
859.251
30
0.0
11
668.385
21
859.112
31
0.0
0
LINE
5
190b
8
0-0
6
CONTINUOUS
62
  7
10
668.385
20
859.112
30
0.0
11
668.052
21
858.926
31
0.0
0
LINE
5
190c
8
0-0
6
CONTINUOUS
62
  7
10
668.052
20
858.926
30
0.0
11
667.490
21
858.683
31
0.0
0
LINE
5
190d
8
0-0
6
CONTINUOUS
62
  7
10
667.490
20
858.683
30
0.0
11
666.927
21
858.500
31
0.0
0
LINE
5
190e
8
0-0
6
CONTINUOUS
62
  7
10
666.927
20
858.500
30
0.0
11
666.399
21
858.362
31
0.0
0
LINE
5
190f
8
0-0
6
CONTINUOUS
62
  7
10
666.399
20
858.362
30
0.0
11
666.112
21
858.294
31
0.0
0
LINE
5
1910
8
0-0
6
CONTINUOUS
62
  7
10
666.112
20
858.294
30
0.0
11
665.854
21
858.235
31
0.0
0
LINE
5
1911
8
0-0
6
CONTINUOUS
62
  7
10
665.854
20
858.235
30
0.0
11
666.029
21
858.136
31
0.0
0
LINE
5
1912
8
0-0
6
CONTINUOUS
62
  7
10
666.029
20
858.136
30
0.0
11
666.507
21
857.801
31
0.0
0
LINE
5
1913
8
0-0
6
CONTINUOUS
62
  7
10
666.507
20
857.801
30
0.0
11
666.788
21
857.562
31
0.0
0
LINE
5
1914
8
0-0
6
CONTINUOUS
62
  7
10
666.788
20
857.562
30
0.0
11
667.028
21
857.330
31
0.0
0
LINE
5
1915
8
0-0
6
CONTINUOUS
62
  7
10
667.028
20
857.330
30
0.0
11
667.402
21
856.908
31
0.0
0
LINE
5
1916
8
0-0
6
CONTINUOUS
62
  7
10
667.402
20
856.908
30
0.0
11
667.752
21
856.427
31
0.0
0
LINE
5
1917
8
0-0
6
CONTINUOUS
62
  7
10
667.752
20
856.427
30
0.0
11
668.050
21
855.910
31
0.0
0
LINE
5
1918
8
0-0
6
CONTINUOUS
62
  7
10
668.050
20
855.910
30
0.0
11
668.208
21
855.567
31
0.0
0
LINE
5
1919
8
0-0
6
CONTINUOUS
62
  7
10
668.208
20
855.567
30
0.0
11
668.372
21
855.106
31
0.0
0
LINE
5
191a
8
0-0
6
CONTINUOUS
62
  7
10
668.372
20
855.106
30
0.0
11
668.539
21
854.337
31
0.0
0
LINE
5
191b
8
0-0
6
CONTINUOUS
62
  7
10
668.539
20
854.337
30
0.0
11
668.594
21
853.557
31
0.0
0
LINE
5
191c
8
0-0
6
CONTINUOUS
62
  7
10
668.594
20
853.557
30
0.0
11
668.558
21
852.805
31
0.0
0
LINE
5
191d
8
0-0
6
CONTINUOUS
62
  7
10
668.558
20
852.805
30
0.0
11
668.504
21
852.365
31
0.0
0
LINE
5
191e
8
0-0
6
CONTINUOUS
62
  7
10
668.504
20
852.365
30
0.0
11
668.443
21
852.005
31
0.0
0
LINE
5
191f
8
0-0
6
CONTINUOUS
62
  7
10
668.443
20
852.005
30
0.0
11
668.305
21
851.408
31
0.0
0
LINE
5
1920
8
0-0
6
CONTINUOUS
62
  7
10
668.305
20
851.408
30
0.0
11
668.112
21
850.810
31
0.0
0
LINE
5
1921
8
0-0
6
CONTINUOUS
62
  7
10
668.112
20
850.810
30
0.0
11
667.860
21
850.236
31
0.0
0
LINE
5
1922
8
0-0
6
CONTINUOUS
62
  7
10
667.860
20
850.236
30
0.0
11
667.672
21
849.897
31
0.0
0
LINE
5
1923
8
0-0
6
CONTINUOUS
62
  7
10
667.672
20
849.897
30
0.0
11
667.440
21
849.543
31
0.0
0
LINE
5
1924
8
0-0
6
CONTINUOUS
62
  7
10
667.440
20
849.543
30
0.0
11
667.022
21
849.013
31
0.0
0
LINE
5
1925
8
0-0
6
CONTINUOUS
62
  7
10
667.022
20
849.013
30
0.0
11
666.577
21
848.531
31
0.0
0
LINE
5
1926
8
0-0
6
CONTINUOUS
62
  7
10
666.577
20
848.531
30
0.0
11
666.130
21
848.081
31
0.0
0
LINE
5
1927
8
0-0
6
CONTINUOUS
62
  7
10
666.130
20
848.081
30
0.0
11
665.893
21
847.844
31
0.0
0
LINE
5
1928
8
0-0
6
CONTINUOUS
62
  7
10
665.893
20
847.844
30
0.0
11
665.625
21
847.569
31
0.0
0
LINE
5
1929
8
0-0
6
CONTINUOUS
62
  7
10
665.625
20
847.569
30
0.0
11
665.153
21
847.069
31
0.0
0
LINE
5
192a
8
0-0
6
CONTINUOUS
62
  7
10
665.153
20
847.069
30
0.0
11
664.691
21
846.573
31
0.0
0
LINE
5
192b
8
0-0
6
CONTINUOUS
62
  7
10
664.691
20
846.573
30
0.0
11
664.206
21
846.053
31
0.0
0
LINE
5
192c
8
0-0
6
CONTINUOUS
62
  7
10
664.206
20
846.053
30
0.0
11
663.923
21
845.758
31
0.0
0
LINE
5
192d
8
0-0
6
CONTINUOUS
62
  7
10
663.923
20
845.758
30
0.0
11
663.711
21
845.541
31
0.0
0
LINE
5
192e
8
0-0
6
CONTINUOUS
62
  7
10
663.711
20
845.541
30
0.0
11
663.342
21
845.176
31
0.0
0
LINE
5
192f
8
0-0
6
CONTINUOUS
62
  7
10
663.342
20
845.176
30
0.0
11
662.955
21
844.816
31
0.0
0
LINE
5
1930
8
0-0
6
CONTINUOUS
62
  7
10
662.955
20
844.816
30
0.0
11
662.556
21
844.470
31
0.0
0
LINE
5
1931
8
0-0
6
CONTINUOUS
62
  7
10
662.556
20
844.470
30
0.0
11
662.308
21
844.268
31
0.0
0
LINE
5
1932
8
0-0
6
CONTINUOUS
62
  7
10
662.308
20
844.268
30
0.0
11
662.028
21
844.054
31
0.0
0
LINE
5
1933
8
0-0
6
CONTINUOUS
62
  7
10
662.028
20
844.054
30
0.0
11
661.563
21
843.716
31
0.0
0
LINE
5
1934
8
0-0
6
CONTINUOUS
62
  7
10
661.563
20
843.716
30
0.0
11
661.113
21
843.394
31
0.0
0
LINE
5
1935
8
0-0
6
CONTINUOUS
62
  7
10
661.113
20
843.394
30
0.0
11
660.694
21
843.077
31
0.0
0
LINE
5
1936
8
0-0
6
CONTINUOUS
62
  7
10
660.694
20
843.077
30
0.0
11
660.475
21
842.896
31
0.0
0
LINE
5
1937
8
0-0
6
CONTINUOUS
62
  7
10
660.475
20
842.896
30
0.0
11
660.313
21
842.752
31
0.0
0
LINE
5
1938
8
0-0
6
CONTINUOUS
62
  7
10
660.313
20
842.752
30
0.0
11
660.025
21
842.478
31
0.0
0
LINE
5
1939
8
0-0
6
CONTINUOUS
62
  7
10
660.025
20
842.478
30
0.0
11
659.739
21
842.186
31
0.0
0
LINE
5
193a
8
0-0
6
CONTINUOUS
62
  7
10
659.739
20
842.186
30
0.0
11
659.445
21
841.875
31
0.0
0
LINE
5
193b
8
0-0
6
CONTINUOUS
62
  7
10
659.445
20
841.875
30
0.0
11
659.268
21
841.685
31
0.0
0
LINE
5
193c
8
0-0
6
CONTINUOUS
62
  7
10
659.268
20
841.685
30
0.0
11
659.046
21
841.449
31
0.0
0
LINE
5
193d
8
0-0
6
CONTINUOUS
62
  7
10
659.046
20
841.449
30
0.0
11
658.668
21
841.036
31
0.0
0
LINE
5
193e
8
0-0
6
CONTINUOUS
62
  7
10
658.668
20
841.036
30
0.0
11
658.329
21
840.637
31
0.0
0
LINE
5
193f
8
0-0
6
CONTINUOUS
62
  7
10
658.329
20
840.637
30
0.0
11
658.033
21
840.233
31
0.0
0
LINE
5
1940
8
0-0
6
CONTINUOUS
62
  7
10
658.033
20
840.233
30
0.0
11
657.899
21
840.017
31
0.0
0
LINE
5
1941
8
0-0
6
CONTINUOUS
62
  7
10
657.899
20
840.017
30
0.0
11
657.737
21
839.703
31
0.0
0
LINE
5
1942
8
0-0
6
CONTINUOUS
62
  7
10
657.737
20
839.703
30
0.0
11
657.502
21
839.084
31
0.0
0
LINE
5
1943
8
0-0
6
CONTINUOUS
62
  7
10
657.502
20
839.084
30
0.0
11
657.341
21
838.425
31
0.0
0
LINE
5
1944
8
0-0
6
CONTINUOUS
62
  7
10
657.341
20
838.425
30
0.0
11
657.242
21
837.719
31
0.0
0
LINE
5
1945
8
0-0
6
CONTINUOUS
62
  7
10
657.242
20
837.719
30
0.0
11
657.212
21
837.315
31
0.0
0
LINE
5
1946
8
0-0
6
CONTINUOUS
62
  7
10
657.212
20
837.315
30
0.0
11
657.199
21
836.870
31
0.0
0
LINE
5
1947
8
0-0
6
CONTINUOUS
62
  7
10
657.199
20
836.870
30
0.0
11
657.206
21
836.671
31
0.0
0
LINE
5
1948
8
0-0
6
CONTINUOUS
62
  7
10
685.626
20
949.281
30
0.0
11
685.564
21
949.124
31
0.0
0
LINE
5
1949
8
0-0
6
CONTINUOUS
62
  7
10
685.564
20
949.124
30
0.0
11
685.174
21
948.239
31
0.0
0
LINE
5
194a
8
0-0
6
CONTINUOUS
62
  7
10
685.174
20
948.239
30
0.0
11
684.744
21
947.375
31
0.0
0
LINE
5
194b
8
0-0
6
CONTINUOUS
62
  7
10
684.744
20
947.375
30
0.0
11
684.273
21
946.526
31
0.0
0
LINE
5
194c
8
0-0
6
CONTINUOUS
62
  7
10
684.273
20
946.526
30
0.0
11
683.995
21
946.063
31
0.0
0
LINE
5
194d
8
0-0
6
CONTINUOUS
62
  7
10
683.995
20
946.063
30
0.0
11
682.804
21
944.307
31
0.0
0
LINE
5
194e
8
0-0
6
CONTINUOUS
62
  7
10
682.804
20
944.307
30
0.0
11
680.440
21
941.451
31
0.0
0
LINE
5
194f
8
0-0
6
CONTINUOUS
62
  7
10
680.440
20
941.451
30
0.0
11
677.826
21
938.740
31
0.0
0
LINE
5
1950
8
0-0
6
CONTINUOUS
62
  7
10
677.826
20
938.740
30
0.0
11
675.110
21
936.062
31
0.0
0
LINE
5
1951
8
0-0
6
CONTINUOUS
62
  7
10
675.110
20
936.062
30
0.0
11
673.550
21
934.477
31
0.0
0
LINE
5
1952
8
0-0
6
CONTINUOUS
62
  7
10
673.550
20
934.477
30
0.0
11
672.013
21
932.821
31
0.0
0
LINE
5
1953
8
0-0
6
CONTINUOUS
62
  7
10
672.013
20
932.821
30
0.0
11
669.503
21
929.877
31
0.0
0
LINE
5
1954
8
0-0
6
CONTINUOUS
62
  7
10
669.503
20
929.877
30
0.0
11
667.131
21
926.802
31
0.0
0
LINE
5
1955
8
0-0
6
CONTINUOUS
62
  7
10
667.131
20
926.802
30
0.0
11
664.863
21
923.592
31
0.0
0
LINE
5
1956
8
0-0
6
CONTINUOUS
62
  7
10
664.863
20
923.592
30
0.0
11
663.574
21
921.653
31
0.0
0
LINE
5
1957
8
0-0
6
CONTINUOUS
62
  7
10
663.574
20
921.653
30
0.0
11
662.262
21
919.590
31
0.0
0
LINE
5
1958
8
0-0
6
CONTINUOUS
62
  7
10
662.262
20
919.590
30
0.0
11
660.176
21
915.895
31
0.0
0
LINE
5
1959
8
0-0
6
CONTINUOUS
62
  7
10
660.176
20
915.895
30
0.0
11
658.529
21
912.015
31
0.0
0
LINE
5
195a
8
0-0
6
CONTINUOUS
62
  7
10
658.529
20
912.015
30
0.0
11
657.618
21
907.996
31
0.0
0
LINE
5
195b
8
0-0
6
CONTINUOUS
62
  7
10
657.618
20
907.996
30
0.0
11
657.542
21
905.579
31
0.0
0
LINE
5
195c
8
0-0
6
CONTINUOUS
62
  7
10
657.542
20
905.579
30
0.0
11
657.695
21
904.049
31
0.0
0
LINE
5
195d
8
0-0
6
CONTINUOUS
62
  7
10
657.695
20
904.049
30
0.0
11
658.274
21
901.520
31
0.0
0
LINE
5
195e
8
0-0
6
CONTINUOUS
62
  7
10
658.274
20
901.520
30
0.0
11
659.207
21
899.055
31
0.0
0
LINE
5
195f
8
0-0
6
CONTINUOUS
62
  7
10
659.207
20
899.055
30
0.0
11
660.418
21
896.724
31
0.0
0
LINE
5
1960
8
0-0
6
CONTINUOUS
62
  7
10
660.418
20
896.724
30
0.0
11
661.237
21
895.425
31
0.0
0
LINE
5
1961
8
0-0
6
CONTINUOUS
62
  7
10
661.237
20
895.425
30
0.0
11
662.543
21
893.641
31
0.0
0
LINE
5
1962
8
0-0
6
CONTINUOUS
62
  7
10
662.543
20
893.641
30
0.0
11
665.028
21
890.862
31
0.0
0
LINE
5
1963
8
0-0
6
CONTINUOUS
62
  7
10
665.028
20
890.862
30
0.0
11
667.747
21
888.340
31
0.0
0
LINE
5
1964
8
0-0
6
CONTINUOUS
62
  7
10
667.747
20
888.340
30
0.0
11
670.588
21
885.991
31
0.0
0
LINE
5
1965
8
0-0
6
CONTINUOUS
62
  7
10
670.588
20
885.991
30
0.0
11
671.152
21
885.544
31
0.0
0
LINE
5
1966
8
0-0
6
CONTINUOUS
62
  7
10
687.639
20
948.934
30
0.0
11
687.409
21
948.351
31
0.0
0
LINE
5
1967
8
0-0
6
CONTINUOUS
62
  7
10
687.409
20
948.351
30
0.0
11
686.985
21
947.389
31
0.0
0
LINE
5
1968
8
0-0
6
CONTINUOUS
62
  7
10
686.985
20
947.389
30
0.0
11
686.515
21
946.444
31
0.0
0
LINE
5
1969
8
0-0
6
CONTINUOUS
62
  7
10
686.515
20
946.444
30
0.0
11
686.005
21
945.527
31
0.0
0
LINE
5
196a
8
0-0
6
CONTINUOUS
62
  7
10
686.005
20
945.527
30
0.0
11
685.681
21
944.986
31
0.0
0
LINE
5
196b
8
0-0
6
CONTINUOUS
62
  7
10
685.681
20
944.986
30
0.0
11
684.406
21
943.105
31
0.0
0
LINE
5
196c
8
0-0
6
CONTINUOUS
62
  7
10
684.406
20
943.105
30
0.0
11
681.933
21
940.117
31
0.0
0
LINE
5
196d
8
0-0
6
CONTINUOUS
62
  7
10
681.933
20
940.117
30
0.0
11
679.248
21
937.334
31
0.0
0
LINE
5
196e
8
0-0
6
CONTINUOUS
62
  7
10
679.248
20
937.334
30
0.0
11
676.526
21
934.649
31
0.0
0
LINE
5
196f
8
0-0
6
CONTINUOUS
62
  7
10
676.526
20
934.649
30
0.0
11
674.996
21
933.095
31
0.0
0
LINE
5
1970
8
0-0
6
CONTINUOUS
62
  7
10
674.996
20
933.095
30
0.0
11
673.506
21
931.490
31
0.0
0
LINE
5
1971
8
0-0
6
CONTINUOUS
62
  7
10
673.506
20
931.490
30
0.0
11
671.058
21
928.618
31
0.0
0
LINE
5
1972
8
0-0
6
CONTINUOUS
62
  7
10
671.058
20
928.618
30
0.0
11
668.740
21
925.614
31
0.0
0
LINE
5
1973
8
0-0
6
CONTINUOUS
62
  7
10
668.740
20
925.614
30
0.0
11
666.512
21
922.459
31
0.0
0
LINE
5
1974
8
0-0
6
CONTINUOUS
62
  7
10
666.512
20
922.459
30
0.0
11
665.251
21
920.564
31
0.0
0
LINE
5
1975
8
0-0
6
CONTINUOUS
62
  7
10
665.251
20
920.564
30
0.0
11
663.978
21
918.561
31
0.0
0
LINE
5
1976
8
0-0
6
CONTINUOUS
62
  7
10
663.978
20
918.561
30
0.0
11
661.973
21
915.010
31
0.0
0
LINE
5
1977
8
0-0
6
CONTINUOUS
62
  7
10
661.973
20
915.010
30
0.0
11
660.440
21
911.398
31
0.0
0
LINE
5
1978
8
0-0
6
CONTINUOUS
62
  7
10
660.440
20
911.398
30
0.0
11
659.611
21
907.741
31
0.0
0
LINE
5
1979
8
0-0
6
CONTINUOUS
62
  7
10
659.611
20
907.741
30
0.0
11
659.545
21
905.647
31
0.0
0
LINE
5
197a
8
0-0
6
CONTINUOUS
62
  7
10
659.545
20
905.647
30
0.0
11
659.672
21
904.374
31
0.0
0
LINE
5
197b
8
0-0
6
CONTINUOUS
62
  7
10
659.672
20
904.374
30
0.0
11
660.193
21
902.099
31
0.0
0
LINE
5
197c
8
0-0
6
CONTINUOUS
62
  7
10
660.193
20
902.099
30
0.0
11
661.036
21
899.873
31
0.0
0
LINE
5
197d
8
0-0
6
CONTINUOUS
62
  7
10
661.036
20
899.873
30
0.0
11
662.155
21
897.720
31
0.0
0
LINE
5
197e
8
0-0
6
CONTINUOUS
62
  7
10
662.155
20
897.720
30
0.0
11
662.892
21
896.550
31
0.0
0
LINE
5
197f
8
0-0
6
CONTINUOUS
62
  7
10
662.892
20
896.550
30
0.0
11
664.099
21
894.902
31
0.0
0
LINE
5
1980
8
0-0
6
CONTINUOUS
62
  7
10
664.099
20
894.902
30
0.0
11
666.457
21
892.265
31
0.0
0
LINE
5
1981
8
0-0
6
CONTINUOUS
62
  7
10
666.457
20
892.265
30
0.0
11
669.065
21
889.846
31
0.0
0
LINE
5
1982
8
0-0
6
CONTINUOUS
62
  7
10
669.065
20
889.846
30
0.0
11
671.848
21
887.544
31
0.0
0
LINE
5
1983
8
0-0
6
CONTINUOUS
62
  7
10
671.848
20
887.544
30
0.0
11
673.005
21
886.626
31
0.0
0
LINE
5
1984
8
0-0
6
CONTINUOUS
62
  7
10
684.324
20
876.372
30
0.0
11
683.794
21
876.097
31
0.0
0
LINE
5
1985
8
0-0
6
CONTINUOUS
62
  7
10
683.794
20
876.097
30
0.0
11
683.279
21
875.775
31
0.0
0
LINE
5
1986
8
0-0
6
CONTINUOUS
62
  7
10
683.279
20
875.775
30
0.0
11
682.491
21
875.142
31
0.0
0
LINE
5
1987
8
0-0
6
CONTINUOUS
62
  7
10
682.491
20
875.142
30
0.0
11
681.810
21
874.377
31
0.0
0
LINE
5
1988
8
0-0
6
CONTINUOUS
62
  7
10
681.810
20
874.377
30
0.0
11
681.308
21
873.509
31
0.0
0
LINE
5
1989
8
0-0
6
CONTINUOUS
62
  7
10
681.308
20
873.509
30
0.0
11
681.103
21
872.908
31
0.0
0
LINE
5
198a
8
0-0
6
CONTINUOUS
62
  7
10
681.103
20
872.908
30
0.0
11
680.992
21
872.212
31
0.0
0
LINE
5
198b
8
0-0
6
CONTINUOUS
62
  7
10
680.992
20
872.212
30
0.0
11
681.059
21
871.099
31
0.0
0
LINE
5
198c
8
0-0
6
CONTINUOUS
62
  7
10
681.059
20
871.099
30
0.0
11
681.366
21
870.010
31
0.0
0
LINE
5
198d
8
0-0
6
CONTINUOUS
62
  7
10
681.366
20
870.010
30
0.0
11
681.827
21
868.996
31
0.0
0
LINE
5
198e
8
0-0
6
CONTINUOUS
62
  7
10
681.827
20
868.996
30
0.0
11
682.153
21
868.420
31
0.0
0
LINE
5
198f
8
0-0
6
CONTINUOUS
62
  7
10
682.153
20
868.420
30
0.0
11
682.557
21
867.792
31
0.0
0
LINE
5
1990
8
0-0
6
CONTINUOUS
62
  7
10
682.557
20
867.792
30
0.0
11
683.334
21
866.805
31
0.0
0
LINE
5
1991
8
0-0
6
CONTINUOUS
62
  7
10
683.334
20
866.805
30
0.0
11
684.254
21
865.942
31
0.0
0
LINE
5
1992
8
0-0
6
CONTINUOUS
62
  7
10
684.254
20
865.942
30
0.0
11
685.303
21
865.303
31
0.0
0
LINE
5
1993
8
0-0
6
CONTINUOUS
62
  7
10
685.303
20
865.303
30
0.0
11
686.038
21
865.047
31
0.0
0
LINE
5
1994
8
0-0
6
CONTINUOUS
62
  7
10
686.038
20
865.047
30
0.0
11
686.995
21
864.919
31
0.0
0
LINE
5
1995
8
0-0
6
CONTINUOUS
62
  7
10
686.995
20
864.919
30
0.0
11
688.548
21
865.118
31
0.0
0
LINE
5
1996
8
0-0
6
CONTINUOUS
62
  7
10
688.548
20
865.118
30
0.0
11
690.054
21
865.680
31
0.0
0
LINE
5
1997
8
0-0
6
CONTINUOUS
62
  7
10
690.054
20
865.680
30
0.0
11
691.443
21
866.448
31
0.0
0
LINE
5
1998
8
0-0
6
CONTINUOUS
62
  7
10
691.443
20
866.448
30
0.0
11
692.202
21
866.951
31
0.0
0
LINE
5
1999
8
0-0
6
CONTINUOUS
62
  7
10
692.202
20
866.951
30
0.0
11
692.885
21
867.451
31
0.0
0
LINE
5
199a
8
0-0
6
CONTINUOUS
62
  7
10
692.885
20
867.451
30
0.0
11
693.957
21
868.335
31
0.0
0
LINE
5
199b
8
0-0
6
CONTINUOUS
62
  7
10
693.957
20
868.335
30
0.0
11
694.942
21
869.273
31
0.0
0
LINE
5
199c
8
0-0
6
CONTINUOUS
62
  7
10
694.942
20
869.273
30
0.0
11
695.852
21
870.261
31
0.0
0
LINE
5
199d
8
0-0
6
CONTINUOUS
62
  7
10
695.852
20
870.261
30
0.0
11
696.362
21
870.863
31
0.0
0
LINE
5
199e
8
0-0
6
CONTINUOUS
62
  7
10
696.362
20
870.863
30
0.0
11
696.586
21
871.140
31
0.0
0
LINE
5
199f
8
0-0
6
CONTINUOUS
62
  7
10
696.586
20
871.140
30
0.0
11
696.961
21
871.631
31
0.0
0
LINE
5
19a0
8
0-0
6
CONTINUOUS
62
  7
10
696.961
20
871.631
30
0.0
11
697.320
21
872.165
31
0.0
0
LINE
5
19a1
8
0-0
6
CONTINUOUS
62
  7
10
697.320
20
872.165
30
0.0
11
697.636
21
872.736
31
0.0
0
LINE
5
19a2
8
0-0
6
CONTINUOUS
62
  7
10
697.636
20
872.736
30
0.0
11
697.800
21
873.106
31
0.0
0
LINE
5
19a3
8
0-0
6
CONTINUOUS
62
  7
10
697.800
20
873.106
30
0.0
11
697.921
21
873.436
31
0.0
0
LINE
5
19a4
8
0-0
6
CONTINUOUS
62
  7
10
697.921
20
873.436
30
0.0
11
698.073
21
873.970
31
0.0
0
LINE
5
19a5
8
0-0
6
CONTINUOUS
62
  7
10
698.073
20
873.970
30
0.0
11
698.188
21
874.502
31
0.0
0
LINE
5
19a6
8
0-0
6
CONTINUOUS
62
  7
10
698.188
20
874.502
30
0.0
11
698.277
21
875.010
31
0.0
0
LINE
5
19a7
8
0-0
6
CONTINUOUS
62
  7
10
698.277
20
875.010
30
0.0
11
698.328
21
875.315
31
0.0
0
LINE
5
19a8
8
0-0
6
CONTINUOUS
62
  7
10
698.328
20
875.315
30
0.0
11
698.370
21
875.565
31
0.0
0
LINE
5
19a9
8
0-0
6
CONTINUOUS
62
  7
10
698.370
20
875.565
30
0.0
11
698.445
21
876.020
31
0.0
0
LINE
5
19aa
8
0-0
6
CONTINUOUS
62
  7
10
698.445
20
876.020
30
0.0
11
698.511
21
876.501
31
0.0
0
LINE
5
19ab
8
0-0
6
CONTINUOUS
62
  7
10
698.511
20
876.501
30
0.0
11
698.558
21
876.997
31
0.0
0
LINE
5
19ac
8
0-0
6
CONTINUOUS
62
  7
10
698.558
20
876.997
30
0.0
11
698.572
21
877.303
31
0.0
0
LINE
5
19ad
8
0-0
6
CONTINUOUS
62
  7
10
698.572
20
877.303
30
0.0
11
698.572
21
877.629
31
0.0
0
LINE
5
19ae
8
0-0
6
CONTINUOUS
62
  7
10
698.572
20
877.629
30
0.0
11
698.542
21
878.170
31
0.0
0
LINE
5
19af
8
0-0
6
CONTINUOUS
62
  7
10
698.542
20
878.170
30
0.0
11
698.475
21
878.707
31
0.0
0
LINE
5
19b0
8
0-0
6
CONTINUOUS
62
  7
10
698.475
20
878.707
30
0.0
11
698.380
21
879.230
31
0.0
0
LINE
5
19b1
8
0-0
6
CONTINUOUS
62
  7
10
698.380
20
879.230
30
0.0
11
698.311
21
879.543
31
0.0
0
LINE
5
19b2
8
0-0
6
CONTINUOUS
62
  7
10
698.311
20
879.543
30
0.0
11
698.136
21
880.197
31
0.0
0
LINE
5
19b3
8
0-0
6
CONTINUOUS
62
  7
10
698.136
20
880.197
30
0.0
11
697.755
21
881.284
31
0.0
0
LINE
5
19b4
8
0-0
6
CONTINUOUS
62
  7
10
697.755
20
881.284
30
0.0
11
697.262
21
882.339
31
0.0
0
LINE
5
19b5
8
0-0
6
CONTINUOUS
62
  7
10
697.262
20
882.339
30
0.0
11
696.668
21
883.326
31
0.0
0
LINE
5
19b6
8
0-0
6
CONTINUOUS
62
  7
10
696.668
20
883.326
30
0.0
11
696.269
21
883.875
31
0.0
0
LINE
5
19b7
8
0-0
6
CONTINUOUS
62
  7
10
696.269
20
883.875
30
0.0
11
696.042
21
884.157
31
0.0
0
LINE
5
19b8
8
0-0
6
CONTINUOUS
62
  7
10
696.042
20
884.157
30
0.0
11
695.660
21
884.600
31
0.0
0
LINE
5
19b9
8
0-0
6
CONTINUOUS
62
  7
10
695.660
20
884.600
30
0.0
11
695.287
21
885.016
31
0.0
0
LINE
5
19ba
8
0-0
6
CONTINUOUS
62
  7
10
695.287
20
885.016
30
0.0
11
694.923
21
885.426
31
0.0
0
LINE
5
19bb
8
0-0
6
CONTINUOUS
62
  7
10
694.923
20
885.426
30
0.0
11
694.730
21
885.654
31
0.0
0
LINE
5
19bc
8
0-0
6
CONTINUOUS
62
  7
10
694.730
20
885.654
30
0.0
11
694.520
21
885.913
31
0.0
0
LINE
5
19bd
8
0-0
6
CONTINUOUS
62
  7
10
694.520
20
885.913
30
0.0
11
694.142
21
886.400
31
0.0
0
LINE
5
19be
8
0-0
6
CONTINUOUS
62
  7
10
694.142
20
886.400
30
0.0
11
693.748
21
886.904
31
0.0
0
LINE
5
19bf
8
0-0
6
CONTINUOUS
62
  7
10
693.748
20
886.904
30
0.0
11
693.317
21
887.410
31
0.0
0
LINE
5
19c0
8
0-0
6
CONTINUOUS
62
  7
10
693.317
20
887.410
30
0.0
11
693.034
21
887.705
31
0.0
0
LINE
5
19c1
8
0-0
6
CONTINUOUS
62
  7
10
693.034
20
887.705
30
0.0
11
692.789
21
887.937
31
0.0
0
LINE
5
19c2
8
0-0
6
CONTINUOUS
62
  7
10
692.789
20
887.937
30
0.0
11
692.373
21
888.291
31
0.0
0
LINE
5
19c3
8
0-0
6
CONTINUOUS
62
  7
10
692.373
20
888.291
30
0.0
11
691.941
21
888.622
31
0.0
0
LINE
5
19c4
8
0-0
6
CONTINUOUS
62
  7
10
691.941
20
888.622
30
0.0
11
691.516
21
888.926
31
0.0
0
LINE
5
19c5
8
0-0
6
CONTINUOUS
62
  7
10
691.516
20
888.926
30
0.0
11
691.270
21
889.097
31
0.0
0
LINE
5
19c6
8
0-0
6
CONTINUOUS
62
  7
10
691.270
20
889.097
30
0.0
11
691.005
21
889.279
31
0.0
0
LINE
5
19c7
8
0-0
6
CONTINUOUS
62
  7
10
691.005
20
889.279
30
0.0
11
690.543
21
889.584
31
0.0
0
LINE
5
19c8
8
0-0
6
CONTINUOUS
62
  7
10
690.543
20
889.584
30
0.0
11
690.039
21
889.881
31
0.0
0
LINE
5
19c9
8
0-0
6
CONTINUOUS
62
  7
10
690.039
20
889.881
30
0.0
11
689.505
21
890.140
31
0.0
0
LINE
5
19ca
8
0-0
6
CONTINUOUS
62
  7
10
689.505
20
890.140
30
0.0
11
689.146
21
890.277
31
0.0
0
LINE
5
19cb
8
0-0
6
CONTINUOUS
62
  7
10
689.146
20
890.277
30
0.0
11
688.605
21
890.426
31
0.0
0
LINE
5
19cc
8
0-0
6
CONTINUOUS
62
  7
10
688.605
20
890.426
30
0.0
11
687.705
21
890.548
31
0.0
0
LINE
5
19cd
8
0-0
6
CONTINUOUS
62
  7
10
687.705
20
890.548
30
0.0
11
686.807
21
890.554
31
0.0
0
LINE
5
19ce
8
0-0
6
CONTINUOUS
62
  7
10
686.807
20
890.554
30
0.0
11
685.945
21
890.489
31
0.0
0
LINE
5
19cf
8
0-0
6
CONTINUOUS
62
  7
10
685.945
20
890.489
30
0.0
11
685.456
21
890.435
31
0.0
0
LINE
5
19d0
8
0-0
6
CONTINUOUS
62
  7
10
685.456
20
890.435
30
0.0
11
684.764
21
890.348
31
0.0
0
LINE
5
19d1
8
0-0
6
CONTINUOUS
62
  7
10
684.764
20
890.348
30
0.0
11
683.590
21
890.171
31
0.0
0
LINE
5
19d2
8
0-0
6
CONTINUOUS
62
  7
10
683.590
20
890.171
30
0.0
11
682.426
21
889.946
31
0.0
0
LINE
5
19d3
8
0-0
6
CONTINUOUS
62
  7
10
682.426
20
889.946
30
0.0
11
681.278
21
889.662
31
0.0
0
LINE
5
19d4
8
0-0
6
CONTINUOUS
62
  7
10
681.278
20
889.662
30
0.0
11
680.610
21
889.463
31
0.0
0
LINE
5
19d5
8
0-0
6
CONTINUOUS
62
  7
10
680.610
20
889.463
30
0.0
11
680.058
21
889.279
31
0.0
0
LINE
5
19d6
8
0-0
6
CONTINUOUS
62
  7
10
680.058
20
889.279
30
0.0
11
679.137
21
888.938
31
0.0
0
LINE
5
19d7
8
0-0
6
CONTINUOUS
62
  7
10
679.137
20
888.938
30
0.0
11
678.231
21
888.582
31
0.0
0
LINE
5
19d8
8
0-0
6
CONTINUOUS
62
  7
10
678.231
20
888.582
30
0.0
11
677.356
21
888.241
31
0.0
0
LINE
5
19d9
8
0-0
6
CONTINUOUS
62
  7
10
677.356
20
888.241
30
0.0
11
676.847
21
888.053
31
0.0
0
LINE
5
19da
8
0-0
6
CONTINUOUS
62
  7
10
676.847
20
888.053
30
0.0
11
676.247
21
887.846
31
0.0
0
LINE
5
19db
8
0-0
6
CONTINUOUS
62
  7
10
676.247
20
887.846
30
0.0
11
675.186
21
887.492
31
0.0
0
LINE
5
19dc
8
0-0
6
CONTINUOUS
62
  7
10
675.186
20
887.492
30
0.0
11
674.103
21
887.107
31
0.0
0
LINE
5
19dd
8
0-0
6
CONTINUOUS
62
  7
10
674.103
20
887.107
30
0.0
11
673.023
21
886.649
31
0.0
0
LINE
5
19de
8
0-0
6
CONTINUOUS
62
  7
10
673.023
20
886.649
30
0.0
11
672.990
21
886.632
31
0.0
0
LINE
5
19df
8
0-0
6
CONTINUOUS
62
  7
10
671.169
20
885.519
30
0.0
11
671.123
21
885.488
31
0.0
0
LINE
5
19e0
8
0-0
6
CONTINUOUS
62
  7
10
671.123
20
885.488
30
0.0
11
670.388
21
884.878
31
0.0
0
LINE
5
19e1
8
0-0
6
CONTINUOUS
62
  7
10
670.388
20
884.878
30
0.0
11
669.708
21
884.223
31
0.0
0
LINE
5
19e2
8
0-0
6
CONTINUOUS
62
  7
10
669.708
20
884.223
30
0.0
11
669.332
21
883.818
31
0.0
0
LINE
5
19e3
8
0-0
6
CONTINUOUS
62
  7
10
669.332
20
883.818
30
0.0
11
668.967
21
883.394
31
0.0
0
LINE
5
19e4
8
0-0
6
CONTINUOUS
62
  7
10
668.967
20
883.394
30
0.0
11
668.392
21
882.653
31
0.0
0
LINE
5
19e5
8
0-0
6
CONTINUOUS
62
  7
10
668.392
20
882.653
30
0.0
11
667.860
21
881.878
31
0.0
0
LINE
5
19e6
8
0-0
6
CONTINUOUS
62
  7
10
667.860
20
881.878
30
0.0
11
667.372
21
881.081
31
0.0
0
LINE
5
19e7
8
0-0
6
CONTINUOUS
62
  7
10
667.372
20
881.081
30
0.0
11
667.103
21
880.603
31
0.0
0
LINE
5
19e8
8
0-0
6
CONTINUOUS
62
  7
10
667.103
20
880.603
30
0.0
11
666.914
21
880.247
31
0.0
0
LINE
5
19e9
8
0-0
6
CONTINUOUS
62
  7
10
666.914
20
880.247
30
0.0
11
666.611
21
879.624
31
0.0
0
LINE
5
19ea
8
0-0
6
CONTINUOUS
62
  7
10
666.611
20
879.624
30
0.0
11
666.343
21
878.957
31
0.0
0
LINE
5
19eb
8
0-0
6
CONTINUOUS
62
  7
10
666.343
20
878.957
30
0.0
11
666.140
21
878.262
31
0.0
0
LINE
5
19ec
8
0-0
6
CONTINUOUS
62
  7
10
666.140
20
878.262
30
0.0
11
666.057
21
877.817
31
0.0
0
LINE
5
19ed
8
0-0
6
CONTINUOUS
62
  7
10
666.057
20
877.817
30
0.0
11
666.009
21
877.339
31
0.0
0
LINE
5
19ee
8
0-0
6
CONTINUOUS
62
  7
10
666.009
20
877.339
30
0.0
11
666.012
21
876.566
31
0.0
0
LINE
5
19ef
8
0-0
6
CONTINUOUS
62
  7
10
666.012
20
876.566
30
0.0
11
666.092
21
875.808
31
0.0
0
LINE
5
19f0
8
0-0
6
CONTINUOUS
62
  7
10
666.092
20
875.808
30
0.0
11
666.218
21
875.084
31
0.0
0
LINE
5
19f1
8
0-0
6
CONTINUOUS
62
  7
10
666.218
20
875.084
30
0.0
11
666.303
21
874.671
31
0.0
0
LINE
5
19f2
8
0-0
6
CONTINUOUS
62
  7
10
666.303
20
874.671
30
0.0
11
666.422
21
874.132
31
0.0
0
LINE
5
19f3
8
0-0
6
CONTINUOUS
62
  7
10
666.422
20
874.132
30
0.0
11
666.645
21
873.221
31
0.0
0
LINE
5
19f4
8
0-0
6
CONTINUOUS
62
  7
10
666.645
20
873.221
30
0.0
11
666.904
21
872.310
31
0.0
0
LINE
5
19f5
8
0-0
6
CONTINUOUS
62
  7
10
666.904
20
872.310
30
0.0
11
667.202
21
871.418
31
0.0
0
LINE
5
19f6
8
0-0
6
CONTINUOUS
62
  7
10
667.202
20
871.418
30
0.0
11
667.400
21
870.898
31
0.0
0
LINE
5
19f7
8
0-0
6
CONTINUOUS
62
  7
10
667.400
20
870.898
30
0.0
11
667.539
21
870.560
31
0.0
0
LINE
5
19f8
8
0-0
6
CONTINUOUS
62
  7
10
667.539
20
870.560
30
0.0
11
667.787
21
870.001
31
0.0
0
LINE
5
19f9
8
0-0
6
CONTINUOUS
62
  7
10
667.787
20
870.001
30
0.0
11
668.053
21
869.445
31
0.0
0
LINE
5
19fa
8
0-0
6
CONTINUOUS
62
  7
10
668.053
20
869.445
30
0.0
11
668.329
21
868.900
31
0.0
0
LINE
5
19fb
8
0-0
6
CONTINUOUS
62
  7
10
668.329
20
868.900
30
0.0
11
668.495
21
868.585
31
0.0
0
LINE
5
19fc
8
0-0
6
CONTINUOUS
62
  7
10
668.495
20
868.585
30
0.0
11
668.639
21
868.316
31
0.0
0
LINE
5
19fd
8
0-0
6
CONTINUOUS
62
  7
10
668.639
20
868.316
30
0.0
11
668.883
21
867.855
31
0.0
0
LINE
5
19fe
8
0-0
6
CONTINUOUS
62
  7
10
668.883
20
867.855
30
0.0
11
669.097
21
867.420
31
0.0
0
LINE
5
19ff
8
0-0
6
CONTINUOUS
62
  7
10
669.097
20
867.420
30
0.0
11
669.278
21
866.995
31
0.0
0
LINE
5
1a00
8
0-0
6
CONTINUOUS
62
  7
10
669.278
20
866.995
30
0.0
11
669.356
21
866.772
31
0.0
0
LINE
5
1a01
8
0-0
6
CONTINUOUS
62
  7
10
669.356
20
866.772
30
0.0
11
669.435
21
866.490
31
0.0
0
LINE
5
1a02
8
0-0
6
CONTINUOUS
62
  7
10
669.435
20
866.490
30
0.0
11
669.539
21
865.947
31
0.0
0
LINE
5
1a03
8
0-0
6
CONTINUOUS
62
  7
10
669.539
20
865.947
30
0.0
11
669.602
21
865.367
31
0.0
0
LINE
5
1a04
8
0-0
6
CONTINUOUS
62
  7
10
669.602
20
865.367
30
0.0
11
669.642
21
864.731
31
0.0
0
LINE
5
1a05
8
0-0
6
CONTINUOUS
62
  7
10
669.642
20
864.731
30
0.0
11
669.661
21
864.350
31
0.0
0
LINE
5
1a06
8
0-0
6
CONTINUOUS
62
  7
10
669.661
20
864.350
30
0.0
11
669.676
21
864.000
31
0.0
0
LINE
5
1a07
8
0-0
6
CONTINUOUS
62
  7
10
669.676
20
864.000
30
0.0
11
669.681
21
863.434
31
0.0
0
LINE
5
1a08
8
0-0
6
CONTINUOUS
62
  7
10
669.681
20
863.434
30
0.0
11
669.638
21
862.971
31
0.0
0
LINE
5
1a09
8
0-0
6
CONTINUOUS
62
  7
10
669.638
20
862.971
30
0.0
11
669.535
21
862.615
31
0.0
0
LINE
5
1a0a
8
0-0
6
CONTINUOUS
62
  7
10
669.535
20
862.615
30
0.0
11
669.473
21
862.500
31
0.0
0
LINE
5
1a0b
8
0-0
6
CONTINUOUS
62
  7
10
669.473
20
862.500
30
0.0
11
669.422
21
862.435
31
0.0
0
LINE
5
1a0c
8
0-0
6
CONTINUOUS
62
  7
10
669.422
20
862.435
30
0.0
11
669.204
21
862.230
31
0.0
0
LINE
5
1a0d
8
0-0
6
CONTINUOUS
62
  7
10
669.204
20
862.230
30
0.0
11
668.908
21
862.007
31
0.0
0
LINE
5
1a0e
8
0-0
6
CONTINUOUS
62
  7
10
668.908
20
862.007
30
0.0
11
668.541
21
861.750
31
0.0
0
LINE
5
1a0f
8
0-0
6
CONTINUOUS
62
  7
10
668.541
20
861.750
30
0.0
11
668.307
21
861.578
31
0.0
0
LINE
5
1a10
8
0-0
6
CONTINUOUS
62
  7
10
668.307
20
861.578
30
0.0
11
668.137
21
861.445
31
0.0
0
LINE
5
1a11
8
0-0
6
CONTINUOUS
62
  7
10
668.137
20
861.445
30
0.0
11
667.879
21
861.232
31
0.0
0
LINE
5
1a12
8
0-0
6
CONTINUOUS
62
  7
10
667.879
20
861.232
30
0.0
11
667.652
21
861.045
31
0.0
0
LINE
5
1a13
8
0-0
6
CONTINUOUS
62
  7
10
667.652
20
861.045
30
0.0
11
667.440
21
860.885
31
0.0
0
LINE
5
1a14
8
0-0
6
CONTINUOUS
62
  7
10
667.440
20
860.885
30
0.0
11
667.343
21
860.821
31
0.0
0
LINE
5
1a15
8
0-0
6
CONTINUOUS
62
  7
10
667.343
20
860.821
30
0.0
11
667.164
21
860.721
31
0.0
0
LINE
5
1a16
8
0-0
6
CONTINUOUS
62
  7
10
667.164
20
860.721
30
0.0
11
666.783
21
860.556
31
0.0
0
LINE
5
1a17
8
0-0
6
CONTINUOUS
62
  7
10
666.783
20
860.556
30
0.0
11
666.365
21
860.420
31
0.0
0
LINE
5
1a18
8
0-0
6
CONTINUOUS
62
  7
10
666.365
20
860.420
30
0.0
11
665.915
21
860.303
31
0.0
0
LINE
5
1a19
8
0-0
6
CONTINUOUS
62
  7
10
665.915
20
860.303
30
0.0
11
665.654
21
860.241
31
0.0
0
LINE
5
1a1a
8
0-0
6
CONTINUOUS
62
  7
10
665.654
20
860.241
30
0.0
11
665.425
21
860.188
31
0.0
0
LINE
5
1a1b
8
0-0
6
CONTINUOUS
62
  7
10
665.425
20
860.188
30
0.0
11
665.036
21
860.104
31
0.0
0
LINE
5
1a1c
8
0-0
6
CONTINUOUS
62
  7
10
665.036
20
860.104
30
0.0
11
664.634
21
860.026
31
0.0
0
LINE
5
1a1d
8
0-0
6
CONTINUOUS
62
  7
10
664.634
20
860.026
30
0.0
11
664.181
21
859.951
31
0.0
0
LINE
5
1a1e
8
0-0
6
CONTINUOUS
62
  7
10
664.181
20
859.951
30
0.0
11
663.881
21
859.909
31
0.0
0
LINE
5
1a1f
8
0-0
6
CONTINUOUS
62
  7
10
663.881
20
859.909
30
0.0
11
663.713
21
859.886
31
0.0
0
LINE
5
1a20
8
0-0
6
CONTINUOUS
62
  7
10
663.713
20
859.886
30
0.0
11
663.387
21
859.839
31
0.0
0
LINE
5
1a21
8
0-0
6
CONTINUOUS
62
  7
10
663.387
20
859.839
30
0.0
11
663.024
21
859.764
31
0.0
0
LINE
5
1a22
8
0-0
6
CONTINUOUS
62
  7
10
663.024
20
859.764
30
0.0
11
662.575
21
859.589
31
0.0
0
LINE
5
1a23
8
0-0
6
CONTINUOUS
62
  7
10
662.575
20
859.589
30
0.0
11
662.061
21
859.071
31
0.0
0
LINE
5
1a24
8
0-0
6
CONTINUOUS
62
  7
10
662.061
20
859.071
30
0.0
11
662.118
21
858.161
31
0.0
0
LINE
5
1a25
8
0-0
6
CONTINUOUS
62
  7
10
662.118
20
858.161
30
0.0
11
662.640
21
857.652
31
0.0
0
LINE
5
1a26
8
0-0
6
CONTINUOUS
62
  7
10
662.640
20
857.652
30
0.0
11
663.071
21
857.395
31
0.0
0
LINE
5
1a27
8
0-0
6
CONTINUOUS
62
  7
10
663.071
20
857.395
30
0.0
11
663.483
21
857.189
31
0.0
0
LINE
5
1a28
8
0-0
6
CONTINUOUS
62
  7
10
663.483
20
857.189
30
0.0
11
663.610
21
857.129
31
0.0
0
LINE
5
1a29
8
0-0
6
CONTINUOUS
62
  7
10
663.610
20
857.129
30
0.0
11
664.061
21
856.915
31
0.0
0
LINE
5
1a2a
8
0-0
6
CONTINUOUS
62
  7
10
664.061
20
856.915
30
0.0
11
664.572
21
856.662
31
0.0
0
LINE
5
1a2b
8
0-0
6
CONTINUOUS
62
  7
10
664.572
20
856.662
30
0.0
11
664.960
21
856.443
31
0.0
0
LINE
5
1a2c
8
0-0
6
CONTINUOUS
62
  7
10
664.960
20
856.443
30
0.0
11
665.284
21
856.216
31
0.0
0
LINE
5
1a2d
8
0-0
6
CONTINUOUS
62
  7
10
665.284
20
856.216
30
0.0
11
665.444
21
856.080
31
0.0
0
LINE
5
1a2e
8
0-0
6
CONTINUOUS
62
  7
10
665.444
20
856.080
30
0.0
11
665.583
21
855.945
31
0.0
0
LINE
5
1a2f
8
0-0
6
CONTINUOUS
62
  7
10
665.583
20
855.945
30
0.0
11
665.842
21
855.654
31
0.0
0
LINE
5
1a30
8
0-0
6
CONTINUOUS
62
  7
10
665.842
20
855.654
30
0.0
11
666.072
21
855.337
31
0.0
0
LINE
5
1a31
8
0-0
6
CONTINUOUS
62
  7
10
666.072
20
855.337
30
0.0
11
666.272
21
854.991
31
0.0
0
LINE
5
1a32
8
0-0
6
CONTINUOUS
62
  7
10
666.272
20
854.991
30
0.0
11
666.354
21
854.812
31
0.0
0
LINE
5
1a33
8
0-0
6
CONTINUOUS
62
  7
10
666.354
20
854.812
30
0.0
11
666.445
21
854.557
31
0.0
0
LINE
5
1a34
8
0-0
6
CONTINUOUS
62
  7
10
666.445
20
854.557
30
0.0
11
666.554
21
854.055
31
0.0
0
LINE
5
1a35
8
0-0
6
CONTINUOUS
62
  7
10
666.554
20
854.055
30
0.0
11
666.590
21
853.534
31
0.0
0
LINE
5
1a36
8
0-0
6
CONTINUOUS
62
  7
10
666.590
20
853.534
30
0.0
11
666.564
21
852.975
31
0.0
0
LINE
5
1a37
8
0-0
6
CONTINUOUS
62
  7
10
666.564
20
852.975
30
0.0
11
666.524
21
852.655
31
0.0
0
LINE
5
1a38
8
0-0
6
CONTINUOUS
62
  7
10
666.524
20
852.655
30
0.0
11
666.480
21
852.396
31
0.0
0
LINE
5
1a39
8
0-0
6
CONTINUOUS
62
  7
10
666.480
20
852.396
30
0.0
11
666.376
21
851.941
31
0.0
0
LINE
5
1a3a
8
0-0
6
CONTINUOUS
62
  7
10
666.376
20
851.941
30
0.0
11
666.240
21
851.521
31
0.0
0
LINE
5
1a3b
8
0-0
6
CONTINUOUS
62
  7
10
666.240
20
851.521
30
0.0
11
666.066
21
851.125
31
0.0
0
LINE
5
1a3c
8
0-0
6
CONTINUOUS
62
  7
10
666.066
20
851.125
30
0.0
11
665.958
21
850.930
31
0.0
0
LINE
5
1a3d
8
0-0
6
CONTINUOUS
62
  7
10
665.958
20
850.930
30
0.0
11
665.815
21
850.712
31
0.0
0
LINE
5
1a3e
8
0-0
6
CONTINUOUS
62
  7
10
665.815
20
850.712
30
0.0
11
665.500
21
850.313
31
0.0
0
LINE
5
1a3f
8
0-0
6
CONTINUOUS
62
  7
10
665.500
20
850.313
30
0.0
11
665.133
21
849.915
31
0.0
0
LINE
5
1a40
8
0-0
6
CONTINUOUS
62
  7
10
665.133
20
849.915
30
0.0
11
664.731
21
849.511
31
0.0
0
LINE
5
1a41
8
0-0
6
CONTINUOUS
62
  7
10
664.731
20
849.511
30
0.0
11
664.475
21
849.255
31
0.0
0
LINE
5
1a42
8
0-0
6
CONTINUOUS
62
  7
10
664.475
20
849.255
30
0.0
11
664.177
21
848.950
31
0.0
0
LINE
5
1a43
8
0-0
6
CONTINUOUS
62
  7
10
664.177
20
848.950
30
0.0
11
663.696
21
848.440
31
0.0
0
LINE
5
1a44
8
0-0
6
CONTINUOUS
62
  7
10
663.696
20
848.440
30
0.0
11
663.215
21
847.922
31
0.0
0
LINE
5
1a45
8
0-0
6
CONTINUOUS
62
  7
10
663.215
20
847.922
30
0.0
11
662.756
21
847.431
31
0.0
0
LINE
5
1a46
8
0-0
6
CONTINUOUS
62
  7
10
662.756
20
847.431
30
0.0
11
662.484
21
847.147
31
0.0
0
LINE
5
1a47
8
0-0
6
CONTINUOUS
62
  7
10
662.484
20
847.147
30
0.0
11
662.294
21
846.953
31
0.0
0
LINE
5
1a48
8
0-0
6
CONTINUOUS
62
  7
10
662.294
20
846.953
30
0.0
11
661.958
21
846.621
31
0.0
0
LINE
5
1a49
8
0-0
6
CONTINUOUS
62
  7
10
661.958
20
846.621
30
0.0
11
661.618
21
846.304
31
0.0
0
LINE
5
1a4a
8
0-0
6
CONTINUOUS
62
  7
10
661.618
20
846.304
30
0.0
11
661.269
21
846.001
31
0.0
0
LINE
5
1a4b
8
0-0
6
CONTINUOUS
62
  7
10
661.269
20
846.001
30
0.0
11
661.070
21
845.840
31
0.0
0
LINE
5
1a4c
8
0-0
6
CONTINUOUS
62
  7
10
661.070
20
845.840
30
0.0
11
660.833
21
845.658
31
0.0
0
LINE
5
1a4d
8
0-0
6
CONTINUOUS
62
  7
10
660.833
20
845.658
30
0.0
11
660.390
21
845.336
31
0.0
0
LINE
5
1a4e
8
0-0
6
CONTINUOUS
62
  7
10
660.390
20
845.336
30
0.0
11
659.928
21
845.005
31
0.0
0
LINE
5
1a4f
8
0-0
6
CONTINUOUS
62
  7
10
659.928
20
845.005
30
0.0
11
659.455
21
844.647
31
0.0
0
LINE
5
1a50
8
0-0
6
CONTINUOUS
62
  7
10
659.455
20
844.647
30
0.0
11
659.174
21
844.416
31
0.0
0
LINE
5
1a51
8
0-0
6
CONTINUOUS
62
  7
10
659.174
20
844.416
30
0.0
11
658.960
21
844.226
31
0.0
0
LINE
5
1a52
8
0-0
6
CONTINUOUS
62
  7
10
658.960
20
844.226
30
0.0
11
658.620
21
843.902
31
0.0
0
LINE
5
1a53
8
0-0
6
CONTINUOUS
62
  7
10
658.620
20
843.902
30
0.0
11
658.296
21
843.571
31
0.0
0
LINE
5
1a54
8
0-0
6
CONTINUOUS
62
  7
10
658.296
20
843.571
30
0.0
11
657.989
21
843.246
31
0.0
0
LINE
5
1a55
8
0-0
6
CONTINUOUS
62
  7
10
657.989
20
843.246
30
0.0
11
657.819
21
843.064
31
0.0
0
LINE
5
1a56
8
0-0
6
CONTINUOUS
62
  7
10
657.819
20
843.064
30
0.0
11
657.578
21
842.807
31
0.0
0
LINE
5
1a57
8
0-0
6
CONTINUOUS
62
  7
10
657.578
20
842.807
30
0.0
11
657.168
21
842.361
31
0.0
0
LINE
5
1a58
8
0-0
6
CONTINUOUS
62
  7
10
657.168
20
842.361
30
0.0
11
656.758
21
841.876
31
0.0
0
LINE
5
1a59
8
0-0
6
CONTINUOUS
62
  7
10
656.758
20
841.876
30
0.0
11
656.374
21
841.352
31
0.0
0
LINE
5
1a5a
8
0-0
6
CONTINUOUS
62
  7
10
656.374
20
841.352
30
0.0
11
656.158
21
841.004
31
0.0
0
LINE
5
1a5b
8
0-0
6
CONTINUOUS
62
  7
10
656.158
20
841.004
30
0.0
11
655.908
21
840.519
31
0.0
0
LINE
5
1a5c
8
0-0
6
CONTINUOUS
62
  7
10
655.908
20
840.519
30
0.0
11
655.589
21
839.678
31
0.0
0
LINE
5
1a5d
8
0-0
6
CONTINUOUS
62
  7
10
655.589
20
839.678
30
0.0
11
655.374
21
838.802
31
0.0
0
LINE
5
1a5e
8
0-0
6
CONTINUOUS
62
  7
10
655.374
20
838.802
30
0.0
11
655.252
21
837.932
31
0.0
0
LINE
5
1a5f
8
0-0
6
CONTINUOUS
62
  7
10
655.252
20
837.932
30
0.0
11
655.214
21
837.415
31
0.0
0
LINE
5
1a60
8
0-0
6
CONTINUOUS
62
  7
10
655.214
20
837.415
30
0.0
11
655.198
21
836.868
31
0.0
0
LINE
5
1a61
8
0-0
6
CONTINUOUS
62
  7
10
655.198
20
836.868
30
0.0
11
655.212
21
836.445
31
0.0
0
LINE
5
1a62
8
0-0
6
CONTINUOUS
62
  7
10
636.245
20
810.450
30
0.0
11
659.245
21
1040.450
31
0.0
0
LINE
5
1a63
8
0-0
6
CONTINUOUS
62
  7
10
724.245
20
1040.450
30
0.0
11
659.245
21
1040.450
31
0.0
0
LINE
5
1a64
8
0-0
6
CONTINUOUS
62
  7
10
659.245
20
1227.882
30
0.0
11
724.245
21
1227.882
31
0.0
0
LINE
5
1a65
8
0-0
6
CONTINUOUS
62
  7
10
659.245
20
1098.152
30
0.0
11
659.245
21
1227.882
31
0.0
0
LINE
5
1a66
8
0-0
6
CONTINUOUS
62
  7
10
724.245
20
1098.152
30
0.0
11
724.245
21
1227.882
31
0.0
0
CIRCLE
5
1a67
8
0-0
6
CONTINUOUS
62
  7
10
1002.112
20
1025.450
30
0.0
40
3.000
0
CIRCLE
5
1a68
8
0-0
6
CONTINUOUS
62
  7
10
1072.112
20
1025.450
30
0.0
40
3.000
0
ARC
5
1a69
8
0-0
6
CONTINUOUS
62
  7
10
636.245
20
770.450
30
0.0
40
40.000
50
360.000000
51
450.000000
0
ARC
5
1a6a
8
0-0
6
CONTINUOUS
62
  7
10
1047.612
20
783.690
30
0.0
40
314.118
50
606.052612
51
652.360352
0
ARC
5
1a6b
8
0-0
6
CONTINUOUS
62
  7
10
1041.898
20
691.058
30
0.0
40
269.659
50
602.589355
51
659.077820
0
CIRCLE
5
1a6c
8
ADD_LINE
6
HIDDEN
62
  3
10
956.757
20
462.162
30
0.0
40
3.000
0
ARC
5
1a6d
8
0-0
6
CONTINUOUS
62
  7
10
621.056
20
966.352
30
0.0
40
68.824
50
345.340332
51
359.248779
0
ARC
5
1a6e
8
0-0
6
CONTINUOUS
62
  7
10
623.262
20
974.312
30
0.0
40
67.199
50
338.448792
51
352.421387
0
ARC
5
1a6f
8
0-0
6
CONTINUOUS
62
  7
10
685.706
20
871.974
30
0.0
40
4.610
50
398.613098
51
467.437378
0
ARC
5
1a70
8
0-0
6
CONTINUOUS
62
  7
10
687.291
20
871.630
30
0.0
40
3.800
50
417.948059
51
498.623596
0
ARC
5
1a71
8
0-0
6
CONTINUOUS
62
  7
10
675.156
20
835.778
30
0.0
40
17.973
50
537.153564
51
561.436462
0
ARC
5
1a72
8
0-0
6
CONTINUOUS
62
  7
10
667.527
20
837.585
30
0.0
40
12.368
50
545.291321
51
582.626038
0
TEXT
5
1a73
100
AcDbEntity
8
0-0
62
7
100
AcDbText
10
1038.237
20
1230.382
30
0.0
40
9.750
41
0.800
50
0.000
1
255
100
AcDbText
0
TEXT
5
1a74
100
AcDbEntity
8
0-0
62
7
100
AcDbText
10
1377.700
20
1230.382
30
0.0
40
9.750
41
0.800
50
0.000
1
20
100
AcDbText
0
TEXT
5
1a75
100
AcDbEntity
8
0-0
62
7
100
AcDbText
10
1038.237
20
593.896
30
0.0
40
9.750
41
0.800
50
0.000
1
255
100
AcDbText
0
TEXT
5
1a76
100
AcDbEntity
8
0-0
62
7
100
AcDbText
10
459.288
20
916.075
30
0.0
40
9.750
41
0.800
50
90.000
1
230
100
AcDbText
0
TEXT
5
1a77
100
AcDbEntity
8
0-0
62
7
100
AcDbText
10
459.288
20
766.677
30
0.0
40
9.750
41
0.800
50
90.000
1
75
100
AcDbText
0
TEXT
5
1a78
100
AcDbEntity
8
0-0
62
7
100
AcDbText
10
824.153
20
881.075
30
0.0
40
9.750
41
0.800
50
90.000
1
300
100
AcDbText
0
TEXT
5
1a79
100
AcDbEntity
8
0-0
62
7
100
AcDbText
10
1249.828
20
881.075
30
0.0
40
9.750
41
0.800
50
90.000
1
300
100
AcDbText
0
TEXT
5
1a7a
100
AcDbEntity
8
0-0
62
7
100
AcDbText
10
1035.979
20
245.247
30
0.0
40
9.750
41
0.800
50
0.000
1
255
100
AcDbText
0
TEXT
5
1a7b
100
AcDbEntity
8
0-0
62
7
100
AcDbText
10
921.507
20
285.788
30
0.0
40
9.750
41
0.800
50
0.000
1
20
100
AcDbText
0
TEXT
5
1a7c
100
AcDbEntity
8
0-0
62
7
100
AcDbText
10
941.007
20
285.788
30
0.0
40
9.750
41
0.800
50
0.000
1
19
100
AcDbText
0
TEXT
5
1a7d
100
AcDbEntity
8
0-0
62
7
100
AcDbText
10
807.936
20
441.362
30
0.0
40
9.750
41
0.800
50
90.000
1
98
100
AcDbText
0
TEXT
5
1a7e
100
AcDbEntity
8
0-0
62
7
100
AcDbText
10
836.330
20
467.893
30
0.0
40
9.750
41
0.800
50
90.000
1
45
100
AcDbText
0
TEXT
5
1a7f
100
AcDbEntity
8
0-0
62
7
100
AcDbText
10
836.330
20
418.893
30
0.0
40
9.750
41
0.800
50
90.000
1
53
100
AcDbText
0
TEXT
5
1a80
100
AcDbEntity
8
0-0
62
7
100
AcDbText
10
685.495
20
1230.382
30
0.0
40
9.750
41
0.800
50
0.000
1
65
100
AcDbText
0
POINT
5
1a81
8
0-0
62
  7
10
920.112
20
1227.882
30
0.0
0
POINT
5
1a82
8
0-0
62
  7
10
1175.112
20
1227.882
30
0.0
0
POINT
5
1a83
8
0-0
62
  7
10
1373.950
20
1227.882
30
0.0
0
POINT
5
1a84
8
0-0
62
  7
10
1393.950
20
1227.882
30
0.0
0
POINT
5
1a85
8
0-0
62
  7
10
920.112
20
591.396
30
0.0
0
POINT
5
1a86
8
0-0
62
  7
10
1175.112
20
591.396
30
0.0
0
POINT
5
1a87
8
0-0
62
  7
10
461.788
20
1040.450
30
0.0
0
POINT
5
1a88
8
0-0
62
  7
10
461.788
20
810.450
30
0.0
0
POINT
5
1a89
8
0-0
62
  7
10
461.788
20
735.405
30
0.0
0
POINT
5
1a8a
8
0-0
62
  7
10
826.653
20
1040.450
30
0.0
0
POINT
5
1a8b
8
0-0
62
  7
10
826.653
20
740.450
30
0.0
0
POINT
5
1a8c
8
0-0
62
  7
10
1252.328
20
1040.450
30
0.0
0
POINT
5
1a8d
8
0-0
62
  7
10
1252.328
20
740.450
30
0.0
0
POINT
5
1a8e
8
0-0
62
  7
10
917.757
20
242.747
30
0.0
0
POINT
5
1a8f
8
0-0
62
  7
10
1172.952
20
242.747
30
0.0
0
POINT
5
1a90
8
0-0
62
  7
10
917.757
20
283.288
30
0.0
0
POINT
5
1a91
8
0-0
62
  7
10
937.757
20
283.288
30
0.0
0
POINT
5
1a92
8
0-0
62
  7
10
956.757
20
283.288
30
0.0
0
POINT
5
1a93
8
0-0
62
  7
10
810.436
20
496.612
30
0.0
0
POINT
5
1a94
8
0-0
62
  7
10
810.436
20
398.612
30
0.0
0
POINT
5
1a95
8
0-0
62
  7
10
838.830
20
496.612
30
0.0
0
POINT
5
1a96
8
0-0
62
  7
10
838.830
20
451.674
30
0.0
0
POINT
5
1a97
8
0-0
62
  7
10
838.830
20
398.612
30
0.0
0
POINT
5
1a98
8
0-0
62
  7
10
659.245
20
1227.882
30
0.0
0
POINT
5
1a99
8
0-0
62
  7
10
724.245
20
1227.882
30
0.0
0
ENDSEC
0
EOF
