0
SECTION
2
HEADER
  9
$EXTMIN
10
0
20
0
30
0
  9
$EXTMAX
10
1390.561
20
1224.825
30
0
  9
$LTSCALE
40
5.000
  9
$DIMSCALE
40
5.000
  9
$PDMODE
70
0
  9
$PDSIZE
40
40
0
ENDSEC
0
SECTION
2
TABLES
0
TABLE
2
LTYPE
70
9
0
LTYPE
5
1f4
2
CONTINUOUS
70
0
3
実線
72
65
73
0
40
0.0
0
LTYPE
5
1f5
2
DOT
70
0
3
--  --  --  --  --  --  --  --     
72
65
73
2
40
5.000
49
1.000
49
-4.000
0
LTYPE
5
1f6
2
DASHED
70
0
3
----    ----    ----    ----    
72
65
73
2
40
5.000
49
2.000
49
-3.000
0
LTYPE
5
1f7
2
DASHED2
70
0
3
------  ------  ------  ------ 
72
65
73
2
40
10.000
49
4.000
49
-6.000
0
LTYPE
5
1f8
2
CENTER
70
0
3
----- - ----- - ----- - ----- - 
72
65
73
4
40
9.000
49
6.000
49
-1.000
49
1.000
49
-1.000
0
LTYPE
5
1f9
2
CENTER2
70
0
3
----------  --  ----------  -- 
72
65
73
4
40
18.000
49
12.000
49
-2.000
49
2.000
49
-2.000
0
LTYPE
5
1fa
2
PHANTOM
70
0
3
--- - - --- - - --- - - --- - -
72
65
73
6
40
10.000
49
5.000
49
-1.000
49
1.000
49
-1.000
49
1.000
49
-1.000
0
LTYPE
5
1fb
2
PHANTOM2
70
0
3
--------  -  -  --------  -  -
72
65
73
6
40
16.000
49
6.000
49
-2.000
49
2.000
49
-2.000
49
2.000
49
-2.000
0
LTYPE
5
1fc
2
HIDDEN
70
0
3
-   -   -   -   -   -   -   -   
72
65
73
2
40
2.500
49
0.500
49
-2.000
0
ENDTAB
0
TABLE
2
STYLE
70
1
0
STYLE
5
1fd
100
AcDbSymbolTableRecord
100
AcDbTextStyleTableRecord
2
STANDARD
70
0
40
0.0
41
1.0
50
0.0
71
0
42
0.0
3
txt.shx
4
extfont.shx
0
STYLE
5
1fe
100
AcDbSymbolTableRecord
100
AcDbTextStyleTableRecord
2
TATEGAKI
70
4
40
0.0
41
1.0
50
0.0
71
0
42
0.0
3
txt.shx
4
extfont.shx
0
STYLE
5
1ff
100
AcDbSymbolTableRecord
100
AcDbTextStyleTableRecord
2
MT
70
0
40
0.0
41
1.0
50
0.0
71
0
42
0.0
3
MS Mincho
4

0
STYLE
5
200
100
AcDbSymbolTableRecord
100
AcDbTextStyleTableRecord
2
TMT
70
4
40
0.0
41
1.0
50
0.0
71
0
42
0.0
3
@MS Mincho
4

0
ENDTAB
0
TABLE
2
LAYER
5
26f5
100
AcDbSymbolTable
70
10
0
LAYER
5
26f6
100
AcDbSymbolTableRecord
100
AcDbLayerTableRecord
2
0
70
64
62
  7
  6
CONTINUOUS
0
LAYER
5
26f7
100
AcDbSymbolTableRecord
100
AcDbLayerTableRecord
2
0-0
70
64
62
  7
  6
CONTINUOUS
0
LAYER
5
26f8
100
AcDbSymbolTableRecord
100
AcDbLayerTableRecord
2
ADD_LINE
70
64
62
  -7
  6
CONTINUOUS
0
ENDTAB
0
ENDSEC
0
SECTION
2
ENTITIES
0
LINE
5
26f9
8
0-0
6
CONTINUOUS
62
  7
10
817.149
20
1026.785
30
0.0
11
847.149
21
1026.785
31
0.0
0
LINE
5
26fa
8
0-0
6
CONTINUOUS
62
  7
10
847.149
20
1031.785
30
0.0
11
847.149
21
1026.785
31
0.0
0
LINE
5
26fb
8
0-0
6
CONTINUOUS
62
  7
10
847.149
20
1031.785
30
0.0
11
1077.149
21
1031.785
31
0.0
0
LINE
5
26fc
8
0-0
6
CONTINUOUS
62
  7
10
861.149
20
1031.785
30
0.0
11
861.149
21
1023.785
31
0.0
0
LINE
5
26fd
8
0-0
6
CONTINUOUS
62
  7
10
817.149
20
296.136
30
0.0
11
834.149
21
296.136
31
0.0
0
LINE
5
26fe
8
0-0
6
CONTINUOUS
62
  7
10
817.149
20
383.136
30
0.0
11
817.149
21
296.136
31
0.0
0
LINE
5
26ff
8
0-0
6
CONTINUOUS
62
  7
10
817.149
20
316.136
30
0.0
11
834.149
21
316.136
31
0.0
0
LINE
5
2700
8
0-0
6
CONTINUOUS
62
  7
10
817.149
20
1026.785
30
0.0
11
817.149
21
740.139
31
0.0
0
LINE
5
2701
8
0-0
6
CONTINUOUS
62
  7
10
817.149
20
740.139
30
0.0
11
817.149
21
736.785
31
0.0
0
LINE
5
2702
8
0-0
6
CONTINUOUS
62
  7
10
553.635
20
1026.785
30
0.0
11
488.635
21
1026.785
31
0.0
0
LINE
5
2703
8
0-0
6
CONTINUOUS
62
  7
10
553.635
20
736.785
30
0.0
11
508.635
21
736.785
31
0.0
0
LINE
5
2704
8
0-0
6
CONTINUOUS
62
  7
10
463.635
20
803.178
30
0.0
11
488.635
21
1026.785
31
0.0
0
LINE
5
2705
8
0-0
6
CONTINUOUS
62
  7
10
533.635
20
813.178
30
0.0
11
533.635
21
746.785
31
0.0
0
LINE
5
2706
8
0-0
6
CONTINUOUS
62
  7
10
464.753
20
813.178
30
0.0
11
533.635
21
813.178
31
0.0
0
LINE
5
2707
8
0-0
6
CONTINUOUS
62
  7
10
553.635
20
1026.785
30
0.0
11
553.635
21
736.785
31
0.0
0
LINE
5
2708
8
0-0
6
CONTINUOUS
62
  7
10
534.635
20
746.785
30
0.0
11
533.635
21
746.785
31
0.0
0
LINE
5
2709
8
0-0
6
CONTINUOUS
62
  7
10
464.753
20
814.178
30
0.0
11
534.635
21
814.178
31
0.0
0
LINE
5
270a
8
0-0
6
CONTINUOUS
62
  7
10
534.635
20
814.178
30
0.0
11
534.635
21
746.785
31
0.0
0
LINE
5
270b
8
0-0
6
CONTINUOUS
62
  7
10
1388.785
20
732.055
30
0.0
11
1390.561
21
748.962
31
0.0
0
LINE
5
270c
8
0-0
6
CONTINUOUS
62
  7
10
1343.784
20
736.785
30
0.0
11
1388.785
21
732.055
31
0.0
0
LINE
5
270d
8
0-0
6
CONTINUOUS
62
  7
10
1361.784
20
751.986
30
0.0
11
1390.561
21
748.962
31
0.0
0
LINE
5
270e
8
0-0
6
CONTINUOUS
62
  7
10
1361.784
20
1031.785
30
0.0
11
1361.784
21
751.986
31
0.0
0
LINE
5
270f
8
0-0
6
CONTINUOUS
62
  7
10
1341.784
20
1031.785
30
0.0
11
1341.784
21
1023.785
31
0.0
0
LINE
5
2710
8
0-0
6
CONTINUOUS
62
  7
10
1341.784
20
1023.785
30
0.0
11
1343.784
21
1023.785
31
0.0
0
LINE
5
2711
8
0-0
6
CONTINUOUS
62
  7
10
1343.784
20
1023.785
30
0.0
11
1343.784
21
736.785
31
0.0
0
LINE
5
2712
8
0-0
6
CONTINUOUS
62
  7
10
1343.784
20
736.785
30
0.0
11
1313.785
21
739.938
31
0.0
0
LINE
5
2713
8
0-0
6
CONTINUOUS
62
  7
10
1341.784
20
1023.785
30
0.0
11
1315.719
21
1023.785
31
0.0
0
LINE
5
2714
8
0-0
6
CONTINUOUS
62
  7
10
1315.719
20
1023.785
30
0.0
11
1315.719
21
1031.785
31
0.0
0
LINE
5
2715
8
0-0
6
CONTINUOUS
62
  7
10
1313.785
20
1026.785
30
0.0
11
1313.785
21
739.938
31
0.0
0
LINE
5
2716
8
0-0
6
CONTINUOUS
62
  7
10
1313.785
20
1026.785
30
0.0
11
1315.618
21
1026.785
31
0.0
0
LINE
5
2717
8
0-0
6
CONTINUOUS
62
  7
10
1315.719
20
1031.785
30
0.0
11
1361.784
21
1031.785
31
0.0
0
LINE
5
2718
8
0-0
6
CONTINUOUS
62
  7
10
488.635
20
1222.325
30
0.0
11
553.635
21
1222.325
31
0.0
0
LINE
5
2719
8
0-0
6
CONTINUOUS
62
  7
10
488.635
20
1072.325
30
0.0
11
488.635
21
1222.325
31
0.0
0
LINE
5
271a
8
0-0
6
CONTINUOUS
62
  7
10
553.635
20
1072.325
30
0.0
11
553.635
21
1222.325
31
0.0
0
LINE
5
271b
8
0-0
6
CONTINUOUS
62
  7
10
817.149
20
1222.325
30
0.0
11
1077.149
21
1222.325
31
0.0
0
LINE
5
271c
8
0-0
6
CONTINUOUS
62
  7
10
817.149
20
1072.325
30
0.0
11
817.149
21
1222.325
31
0.0
0
LINE
5
271d
8
0-0
6
CONTINUOUS
62
  7
10
1077.149
20
1072.325
30
0.0
11
1077.149
21
1222.325
31
0.0
0
LINE
5
271e
8
0-0
6
CONTINUOUS
62
  7
10
1343.784
20
1222.325
30
0.0
11
1361.784
21
1222.325
31
0.0
0
LINE
5
271f
8
0-0
6
CONTINUOUS
62
  7
10
1343.784
20
1072.325
30
0.0
11
1343.784
21
1222.325
31
0.0
0
LINE
5
2720
8
0-0
6
CONTINUOUS
62
  7
10
1361.784
20
1072.325
30
0.0
11
1361.784
21
1222.325
31
0.0
0
LINE
5
2721
8
0-0
6
CONTINUOUS
62
  7
10
1082.149
20
383.136
30
0.0
11
1082.149
21
347.136
31
0.0
0
LINE
5
2722
8
0-0
6
CONTINUOUS
62
  7
10
817.149
20
736.785
30
0.0
11
1082.149
21
736.785
31
0.0
0
LINE
5
2723
8
0-0
6
CONTINUOUS
62
  7
10
1077.149
20
1031.785
30
0.0
11
1082.149
21
736.785
31
0.0
0
LINE
5
2724
8
0-0
6
CONTINUOUS
62
  7
10
861.149
20
1023.785
30
0.0
11
1069.283
21
1023.785
31
0.0
0
LINE
5
2725
8
0-0
6
CONTINUOUS
62
  7
10
1069.283
20
1023.785
30
0.0
11
1073.487
21
775.785
31
0.0
0
LINE
5
2726
8
0-0
6
CONTINUOUS
62
  7
10
1073.487
20
775.785
30
0.0
11
1081.488
21
775.785
31
0.0
0
LINE
5
2727
8
0-0
6
CONTINUOUS
62
  7
10
1081.810
20
756.785
30
0.0
11
1061.810
21
736.785
31
0.0
0
LINE
5
2728
8
0-0
6
CONTINUOUS
62
  7
10
463.635
20
585.839
30
0.0
11
553.635
21
585.839
31
0.0
0
LINE
5
2729
8
0-0
6
CONTINUOUS
62
  7
10
463.635
20
683.136
30
0.0
11
463.635
21
585.839
31
0.0
0
LINE
5
272a
8
0-0
6
CONTINUOUS
62
  7
10
553.635
20
683.136
30
0.0
11
553.635
21
585.839
31
0.0
0
LINE
5
272b
8
0-0
6
CONTINUOUS
62
  7
10
817.149
20
585.839
30
0.0
11
1082.149
21
585.839
31
0.0
0
LINE
5
272c
8
0-0
6
CONTINUOUS
62
  7
10
817.149
20
683.136
30
0.0
11
817.149
21
585.839
31
0.0
0
LINE
5
272d
8
0-0
6
CONTINUOUS
62
  7
10
1082.149
20
683.136
30
0.0
11
1082.149
21
585.839
31
0.0
0
LINE
5
272e
8
0-0
6
CONTINUOUS
62
  7
10
1343.784
20
585.839
30
0.0
11
1388.785
21
585.839
31
0.0
0
LINE
5
272f
8
0-0
6
CONTINUOUS
62
  7
10
1343.784
20
683.136
30
0.0
11
1343.784
21
585.839
31
0.0
0
LINE
5
2730
8
0-0
6
CONTINUOUS
62
  7
10
1388.785
20
683.136
30
0.0
11
1388.785
21
585.839
31
0.0
0
LINE
5
2731
8
0-0
6
CONTINUOUS
62
  7
10
654.987
20
1026.785
30
0.0
11
654.987
21
736.785
31
0.0
0
LINE
5
2732
8
0-0
6
CONTINUOUS
62
  7
10
594.176
20
1026.785
30
0.0
11
654.987
21
1026.785
31
0.0
0
LINE
5
2733
8
0-0
6
CONTINUOUS
62
  7
10
594.176
20
736.785
30
0.0
11
654.987
21
736.785
31
0.0
0
LINE
5
2734
8
0-0
6
CONTINUOUS
62
  7
10
707.689
20
1031.785
30
0.0
11
707.689
21
736.785
31
0.0
0
LINE
5
2735
8
0-0
6
CONTINUOUS
62
  7
10
792.824
20
1031.785
30
0.0
11
707.689
21
1031.785
31
0.0
0
LINE
5
2736
8
0-0
6
CONTINUOUS
62
  7
10
792.824
20
736.785
30
0.0
11
707.689
21
736.785
31
0.0
0
LINE
5
2737
8
0-0
6
CONTINUOUS
62
  7
10
739.863
20
1031.785
30
0.0
11
739.863
21
1026.785
31
0.0
0
LINE
5
2738
8
0-0
6
CONTINUOUS
62
  7
10
792.824
20
1031.785
30
0.0
11
739.863
21
1031.785
31
0.0
0
LINE
5
2739
8
0-0
6
CONTINUOUS
62
  7
10
792.824
20
1026.785
30
0.0
11
739.863
21
1026.785
31
0.0
0
LINE
5
273a
8
0-0
6
CONTINUOUS
62
  7
10
715.797
20
383.136
30
0.0
11
715.797
21
296.136
31
0.0
0
LINE
5
273b
8
0-0
6
CONTINUOUS
62
  7
10
792.824
20
383.136
30
0.0
11
715.797
21
383.136
31
0.0
0
LINE
5
273c
8
0-0
6
CONTINUOUS
62
  7
10
792.824
20
296.136
30
0.0
11
715.797
21
296.136
31
0.0
0
LINE
5
273d
8
0-0
6
CONTINUOUS
62
  7
10
739.863
20
383.136
30
0.0
11
739.863
21
338.136
31
0.0
0
LINE
5
273e
8
0-0
6
CONTINUOUS
62
  7
10
792.824
20
383.136
30
0.0
11
739.863
21
383.136
31
0.0
0
LINE
5
273f
8
0-0
6
CONTINUOUS
62
  7
10
792.824
20
338.136
30
0.0
11
739.863
21
338.136
31
0.0
0
LINE
5
2740
8
0-0
6
CONTINUOUS
62
  7
10
1155.169
20
383.136
30
0.0
11
1155.169
21
347.136
31
0.0
0
LINE
5
2741
8
0-0
6
CONTINUOUS
62
  7
10
1106.568
20
383.136
30
0.0
11
1155.169
21
383.136
31
0.0
0
LINE
5
2742
8
0-0
6
CONTINUOUS
62
  7
10
1106.568
20
347.136
30
0.0
11
1155.169
21
347.136
31
0.0
0
LINE
5
2743
8
0-0
6
CONTINUOUS
62
  7
10
1062.149
20
374.450
30
0.0
11
1082.149
21
368.136
31
0.0
0
LINE
5
2744
8
ADD_LINE
6
HIDDEN
62
  3
10
1042.149
20
383.136
30
0.0
11
1042.149
21
296.136
31
0.0
0
LINE
5
2745
8
0-0
6
CONTINUOUS
62
  7
10
817.149
20
500.011
30
0.0
11
1082.149
21
500.011
31
0.0
0
LINE
5
2746
8
0-0
6
CONTINUOUS
62
  7
10
817.149
20
409.147
30
0.0
11
817.149
21
500.011
31
0.0
0
LINE
5
2747
8
0-0
6
CONTINUOUS
62
  7
10
1082.149
20
409.147
30
0.0
11
1082.149
21
500.011
31
0.0
0
LINE
5
2748
8
0-0
6
CONTINUOUS
62
  7
10
817.148
20
462.190
30
0.0
11
1042.149
21
462.190
31
0.0
0
LINE
5
2749
8
0-0
6
CONTINUOUS
62
  7
10
817.148
20
409.147
30
0.0
11
817.148
21
462.190
31
0.0
0
LINE
5
274a
8
0-0
6
CONTINUOUS
62
  7
10
1042.149
20
409.147
30
0.0
11
1042.149
21
462.190
31
0.0
0
LINE
5
274b
8
0-0
6
CONTINUOUS
62
  7
10
889.149
20
349.979
30
0.0
11
889.149
21
323.271
31
0.0
0
LINE
5
274c
8
0-0
6
CONTINUOUS
62
  7
10
890.149
20
348.768
30
0.0
11
890.149
21
324.089
31
0.0
0
LINE
5
274d
8
0-0
6
CONTINUOUS
62
  7
10
1007.149
20
348.393
30
0.0
11
1007.149
21
327.338
31
0.0
0
LINE
5
274e
8
0-0
6
CONTINUOUS
62
  7
10
1008.149
20
349.596
30
0.0
11
1008.149
21
326.565
31
0.0
0
LINE
5
274f
8
0-0
6
CONTINUOUS
62
  7
10
1011.149
20
350.380
30
0.0
11
1011.149
21
326.423
31
0.0
0
LINE
5
2750
8
0-0
6
CONTINUOUS
62
  7
10
886.149
20
352.370
30
0.0
11
886.149
21
321.993
31
0.0
0
LINE
5
2751
8
0-0
6
CONTINUOUS
62
  7
10
834.149
20
330.124
30
0.0
11
834.149
21
296.136
31
0.0
0
LINE
5
2752
8
ADD_LINE
6
HIDDEN
62
  3
10
948.649
20
375.744
30
0.0
11
948.649
21
307.780
31
0.0
0
LINE
5
2753
8
ADD_LINE
6
HIDDEN
62
  3
10
948.649
20
307.780
30
0.0
11
948.649
21
272.193
31
0.0
0
LINE
5
2754
8
ADD_LINE
6
HIDDEN
62
  3
10
948.649
20
307.780
30
0.0
11
965.830
21
307.780
31
0.0
0
LINE
5
2755
8
ADD_LINE
6
HIDDEN
62
  3
10
948.649
20
308.108
30
0.0
11
940.355
21
308.108
31
0.0
0
CIRCLE
5
2756
8
0-0
6
CONTINUOUS
62
  7
10
907.149
20
1011.785
30
0.0
40
3.000
0
CIRCLE
5
2757
8
0-0
6
CONTINUOUS
62
  7
10
1010.149
20
1011.785
30
0.0
40
3.000
0
ARC
5
2758
8
0-0
6
CONTINUOUS
62
  7
10
455.496
20
768.927
30
0.0
40
35.204
50
356.510437
51
76.632751
0
ARC
5
2759
8
0-0
6
CONTINUOUS
62
  7
10
476.036
20
737.625
30
0.0
40
32.610
50
358.523438
51
63.404175
0
ARC
5
275a
8
0-0
6
CONTINUOUS
62
  7
10
949.649
20
660.848
30
0.0
40
307.702
50
244.493607
51
295.506409
0
ARC
5
275b
8
0-0
6
CONTINUOUS
62
  7
10
941.583
20
580.118
30
0.0
40
272.102
50
242.786392
51
301.103882
0
ARC
5
275c
8
0-0
6
CONTINUOUS
62
  7
10
948.374
20
321.748
30
0.0
40
0.308
50
191.168747
51
348.831238
0
ARC
5
275d
8
0-0
6
CONTINUOUS
62
  7
10
966.660
20
325.789
30
0.0
40
19.035
50
163.874359
51
192.462479
0
ARC
5
275e
8
0-0
6
CONTINUOUS
62
  7
10
930.088
20
325.789
30
0.0
40
19.035
50
347.537537
51
376.125641
0
ARC
5
275f
8
0-0
6
CONTINUOUS
62
  7
10
957.122
20
317.318
30
0.0
40
9.657
50
57.056473
51
149.776825
0
ARC
5
2760
8
0-0
6
CONTINUOUS
62
  7
10
956.311
20
319.791
30
0.0
40
8.275
50
42.885696
51
151.999634
0
ARC
5
2761
8
0-0
6
CONTINUOUS
62
  7
10
953.736
20
324.636
30
0.0
40
5.672
50
99.829773
51
146.282639
0
ARC
5
2762
8
0-0
6
CONTINUOUS
62
  7
10
948.049
20
333.373
30
0.0
40
5.672
50
279.829407
51
326.282288
0
ARC
5
2763
8
0-0
6
CONTINUOUS
62
  7
10
939.626
20
317.318
30
0.0
40
9.657
50
390.223175
51
482.943542
0
ARC
5
2764
8
0-0
6
CONTINUOUS
62
  7
10
940.437
20
319.791
30
0.0
40
8.275
50
388.000366
51
497.114319
0
ARC
5
2765
8
0-0
6
CONTINUOUS
62
  7
10
943.012
20
324.636
30
0.0
40
5.672
50
393.717346
51
440.170227
0
ARC
5
2766
8
0-0
6
CONTINUOUS
62
  7
10
948.698
20
333.373
30
0.0
40
5.672
50
213.717712
51
260.170593
0
CIRCLE
5
2767
8
0-0
6
CONTINUOUS
62
  7
10
958.374
20
321.259
30
0.0
40
0.940
0
ARC
5
2768
8
0-0
6
CONTINUOUS
62
  7
10
974.231
20
331.385
30
0.0
40
3.898
50
328.636292
51
71.074326
0
ARC
5
2769
8
0-0
6
CONTINUOUS
62
  7
10
974.129
20
331.088
30
0.0
40
4.211
50
71.074631
51
136.999283
0
ARC
5
276a
8
0-0
6
CONTINUOUS
62
  7
10
989.852
20
328.355
30
0.0
40
3.803
50
206.521713
51
79.828934
0
ARC
5
276b
8
0-0
6
CONTINUOUS
62
  7
10
973.237
20
331.674
30
0.0
40
3.164
50
22.679138
51
133.741043
0
ARC
5
276c
8
0-0
6
CONTINUOUS
62
  7
10
971.275
20
330.854
30
0.0
40
5.291
50
334.384155
51
22.679184
0
ARC
5
276d
8
0-0
6
CONTINUOUS
62
  7
10
989.902
20
309.736
30
0.0
40
22.126
50
109.266510
51
135.068024
0
ARC
5
276e
8
0-0
6
CONTINUOUS
62
  7
10
987.101
20
316.793
30
0.0
40
15.510
50
108.049957
51
130.113876
0
ARC
5
276f
8
0-0
6
CONTINUOUS
62
  7
10
987.372
20
317.674
30
0.0
40
14.765
50
77.672256
51
110.109558
0
ARC
5
2770
8
0-0
6
CONTINUOUS
62
  7
10
986.932
20
318.233
30
0.0
40
13.125
50
82.786819
51
109.266510
0
ARC
5
2771
8
0-0
6
CONTINUOUS
62
  7
10
988.522
20
328.147
30
0.0
40
3.107
50
344.536133
51
88.931183
0
ARC
5
2772
8
0-0
6
CONTINUOUS
62
  7
10
988.843
20
328.058
30
0.0
40
2.774
50
210.336823
51
344.535950
0
ARC
5
2773
8
0-0
6
CONTINUOUS
62
  7
10
989.941
20
341.326
30
0.0
40
9.392
50
276.288391
51
336.024231
0
ARC
5
2774
8
0-0
6
CONTINUOUS
62
  7
10
992.581
20
337.082
30
0.0
40
5.956
50
268.797913
51
4.116562
0
ARC
5
2775
8
0-0
6
CONTINUOUS
62
  7
10
997.426
20
333.271
30
0.0
40
4.379
50
31.617386
51
75.505051
0
ARC
5
2776
8
0-0
6
CONTINUOUS
62
  7
10
999.678
20
336.321
30
0.0
40
1.658
50
332.936035
51
134.186981
0
ARC
5
2777
8
0-0
6
CONTINUOUS
62
  7
10
997.389
20
334.678
30
0.0
40
3.050
50
68.178955
51
124.099670
0
ARC
5
2778
8
0-0
6
CONTINUOUS
62
  7
10
997.132
20
337.060
30
0.0
40
1.461
50
17.941299
51
174.337448
0
ARC
5
2779
8
0-0
6
CONTINUOUS
62
  7
10
962.343
20
338.631
30
0.0
40
17.819
50
260.152771
51
328.635925
0
ARC
5
277a
8
0-0
6
CONTINUOUS
62
  7
10
961.210
20
339.423
30
0.0
40
18.384
50
264.056396
51
323.807129
0
CIRCLE
5
277b
8
0-0
6
CONTINUOUS
62
  7
10
938.368
20
321.281
30
0.0
40
0.940
0
ARC
5
277c
8
0-0
6
CONTINUOUS
62
  7
10
923.257
20
332.488
30
0.0
40
3.898
50
464.925659
51
207.363693
0
ARC
5
277d
8
0-0
6
CONTINUOUS
62
  7
10
923.337
20
332.185
30
0.0
40
4.211
50
399.000732
51
464.925354
0
ARC
5
277e
8
0-0
6
CONTINUOUS
62
  7
10
907.461
20
330.555
30
0.0
40
3.803
50
456.171082
51
329.478271
0
ARC
5
277f
8
0-0
6
CONTINUOUS
62
  7
10
924.268
20
332.707
30
0.0
40
3.164
50
402.258972
51
513.320862
0
ARC
5
2780
8
0-0
6
CONTINUOUS
62
  7
10
926.167
20
331.752
30
0.0
40
5.291
50
513.320801
51
201.615860
0
ARC
5
2781
8
0-0
6
CONTINUOUS
62
  7
10
906.113
20
311.984
30
0.0
40
22.126
50
400.931976
51
426.733490
0
ARC
5
2782
8
0-0
6
CONTINUOUS
62
  7
10
909.400
20
318.829
30
0.0
40
15.510
50
405.886108
51
427.950043
0
ARC
5
2783
8
0-0
6
CONTINUOUS
62
  7
10
909.191
20
319.727
30
0.0
40
14.765
50
425.890442
51
458.327759
0
ARC
5
2784
8
0-0
6
CONTINUOUS
62
  7
10
909.669
20
320.254
30
0.0
40
13.125
50
426.733490
51
453.213196
0
ARC
5
2785
8
0-0
6
CONTINUOUS
62
  7
10
908.774
20
330.255
30
0.0
40
3.107
50
447.068817
51
191.463852
0
ARC
5
2786
8
0-0
6
CONTINUOUS
62
  7
10
908.447
20
330.188
30
0.0
40
2.774
50
191.464066
51
325.663177
0
ARC
5
2787
8
0-0
6
CONTINUOUS
62
  7
10
908.278
20
343.501
30
0.0
40
9.392
50
199.975769
51
259.711609
0
ARC
5
2788
8
0-0
6
CONTINUOUS
62
  7
10
905.348
20
339.451
30
0.0
40
5.956
50
531.883423
51
267.202087
0
ARC
5
2789
8
0-0
6
CONTINUOUS
62
  7
10
900.249
20
335.987
30
0.0
40
4.379
50
460.494934
51
504.382629
0
ARC
5
278a
8
0-0
6
CONTINUOUS
62
  7
10
898.215
20
339.187
30
0.0
40
1.658
50
401.813019
51
203.063965
0
ARC
5
278b
8
0-0
6
CONTINUOUS
62
  7
10
900.385
20
337.388
30
0.0
40
3.050
50
411.900330
51
467.821045
0
ARC
5
278c
8
0-0
6
CONTINUOUS
62
  7
10
900.806
20
339.747
30
0.0
40
1.461
50
361.662537
51
518.058716
0
ARC
5
278d
8
0-0
6
CONTINUOUS
62
  7
10
935.620
20
338.887
30
0.0
40
17.819
50
207.364059
51
275.847229
0
ARC
5
278e
8
0-0
6
CONTINUOUS
62
  7
10
936.806
20
339.598
30
0.0
40
18.384
50
212.192886
51
271.943604
0
ARC
5
278f
8
0-0
6
CONTINUOUS
62
  7
10
949.649
20
660.848
30
0.0
40
316.702
50
258.987000
51
280.644592
0
ARC
5
2790
8
0-0
6
CONTINUOUS
62
  7
10
949.649
20
660.848
30
0.0
40
317.702
50
259.205750
51
280.427246
0
ARC
5
2791
8
0-0
6
CONTINUOUS
62
  7
10
941.583
20
580.118
30
0.0
40
261.145
50
258.640869
51
284.540771
0
ARC
5
2792
8
0-0
6
CONTINUOUS
62
  7
10
941.583
20
580.118
30
0.0
40
262.145
50
258.461792
51
284.709961
0
ARC
5
2793
8
0-0
6
CONTINUOUS
62
  7
10
888.111
20
322.486
30
0.0
40
2.024
50
194.090622
51
256.091614
0
ARC
5
2794
8
0-0
6
CONTINUOUS
62
  7
10
887.345
20
352.157
30
0.0
40
1.215
50
76.652710
51
169.900162
0
ARC
5
2795
8
0-0
6
CONTINUOUS
62
  7
10
1007.147
20
327.474
30
0.0
40
4.138
50
281.618225
51
345.277496
0
ARC
5
2796
8
0-0
6
CONTINUOUS
62
  7
10
1008.642
20
350.192
30
0.0
40
2.514
50
355.700226
51
105.254807
0
ARC
5
2797
8
0-0
6
CONTINUOUS
62
  7
10
949.649
20
660.848
30
0.0
40
313.702
50
258.589111
51
280.786926
0
ARC
5
2798
8
0-0
6
CONTINUOUS
62
  7
10
941.583
20
580.118
30
0.0
40
265.145
50
258.255890
51
284.591614
0
CIRCLE
5
2799
8
ADD_LINE
6
HIDDEN
62
  3
10
948.649
20
308.108
30
0.0
40
3.000
0
TEXT
5
279a
100
AcDbEntity
8
0-0
62
7
100
AcDbText
10
514.885
20
1224.825
30
0.0
40
9.750
41
0.800
50
0.000
1
65
100
AcDbText
0
TEXT
5
279b
100
AcDbEntity
8
0-0
62
7
100
AcDbText
10
937.774
20
1224.825
30
0.0
40
9.750
41
0.800
50
0.000
1
260
100
AcDbText
0
TEXT
5
279c
100
AcDbEntity
8
0-0
62
7
100
AcDbText
10
1346.534
20
1224.825
30
0.0
40
9.750
41
0.800
50
0.000
1
18
100
AcDbText
0
TEXT
5
279d
100
AcDbEntity
8
0-0
62
7
100
AcDbText
10
502.385
20
588.339
30
0.0
40
9.750
41
0.800
50
0.000
1
90
100
AcDbText
0
TEXT
5
279e
100
AcDbEntity
8
0-0
62
7
100
AcDbText
10
940.274
20
588.339
30
0.0
40
9.750
41
0.800
50
0.000
1
265
100
AcDbText
0
TEXT
5
279f
100
AcDbEntity
8
0-0
62
7
100
AcDbText
10
1360.035
20
588.339
30
0.0
40
9.750
41
0.800
50
0.000
1
45
100
AcDbText
0
TEXT
5
27a0
100
AcDbEntity
8
0-0
62
7
100
AcDbText
10
652.487
20
872.410
30
0.0
40
9.750
41
0.800
50
90.000
1
290
100
AcDbText
0
TEXT
5
27a1
100
AcDbEntity
8
0-0
62
7
100
AcDbText
10
705.189
20
874.910
30
0.0
40
9.750
41
0.800
50
90.000
1
295
100
AcDbText
0
TEXT
5
27a2
100
AcDbEntity
8
0-0
62
7
100
AcDbText
10
737.363
20
1026.160
30
0.0
40
9.750
41
0.800
50
90.000
1
5
100
AcDbText
0
TEXT
5
27a3
100
AcDbEntity
8
0-0
62
7
100
AcDbText
10
713.297
20
333.386
30
0.0
40
9.750
41
0.800
50
90.000
1
87
100
AcDbText
0
TEXT
5
27a4
100
AcDbEntity
8
0-0
62
7
100
AcDbText
10
737.363
20
354.386
30
0.0
40
9.750
41
0.800
50
90.000
1
45
100
AcDbText
0
TEXT
5
27a5
100
AcDbEntity
8
0-0
62
7
100
AcDbText
10
1152.669
20
358.886
30
0.0
40
9.750
41
0.800
50
90.000
1
36
100
AcDbText
0
TEXT
5
27a6
100
AcDbEntity
8
0-0
62
7
100
AcDbText
10
940.274
20
502.511
30
0.0
40
9.750
41
0.800
50
0.000
1
265
100
AcDbText
0
TEXT
5
27a7
100
AcDbEntity
8
0-0
62
7
100
AcDbText
10
920.274
20
464.690
30
0.0
40
9.750
41
0.800
50
0.000
1
225
100
AcDbText
0
POINT
5
27a8
8
0-0
62
  7
10
488.635
20
1222.325
30
0.0
0
POINT
5
27a9
8
0-0
62
  7
10
553.635
20
1222.325
30
0.0
0
POINT
5
27aa
8
0-0
62
  7
10
817.149
20
1222.325
30
0.0
0
POINT
5
27ab
8
0-0
62
  7
10
1077.149
20
1222.325
30
0.0
0
POINT
5
27ac
8
0-0
62
  7
10
1343.784
20
1222.325
30
0.0
0
POINT
5
27ad
8
0-0
62
  7
10
1361.784
20
1222.325
30
0.0
0
POINT
5
27ae
8
0-0
62
  7
10
463.635
20
585.839
30
0.0
0
POINT
5
27af
8
0-0
62
  7
10
553.635
20
585.839
30
0.0
0
POINT
5
27b0
8
0-0
62
  7
10
817.149
20
585.839
30
0.0
0
POINT
5
27b1
8
0-0
62
  7
10
1082.149
20
585.839
30
0.0
0
POINT
5
27b2
8
0-0
62
  7
10
1343.784
20
585.839
30
0.0
0
POINT
5
27b3
8
0-0
62
  7
10
1388.785
20
585.839
30
0.0
0
POINT
5
27b4
8
0-0
62
  7
10
654.987
20
1026.785
30
0.0
0
POINT
5
27b5
8
0-0
62
  7
10
654.987
20
736.785
30
0.0
0
POINT
5
27b6
8
0-0
62
  7
10
707.689
20
1031.785
30
0.0
0
POINT
5
27b7
8
0-0
62
  7
10
707.689
20
736.785
30
0.0
0
POINT
5
27b8
8
0-0
62
  7
10
739.863
20
1031.785
30
0.0
0
POINT
5
27b9
8
0-0
62
  7
10
739.863
20
1026.785
30
0.0
0
POINT
5
27ba
8
0-0
62
  7
10
715.797
20
383.136
30
0.0
0
POINT
5
27bb
8
0-0
62
  7
10
715.797
20
296.136
30
0.0
0
POINT
5
27bc
8
0-0
62
  7
10
739.863
20
383.136
30
0.0
0
POINT
5
27bd
8
0-0
62
  7
10
739.863
20
338.136
30
0.0
0
POINT
5
27be
8
0-0
62
  7
10
1155.169
20
383.136
30
0.0
0
POINT
5
27bf
8
0-0
62
  7
10
1155.169
20
347.136
30
0.0
0
POINT
5
27c0
8
0-0
62
  7
10
817.149
20
500.011
30
0.0
0
POINT
5
27c1
8
0-0
62
  7
10
1082.149
20
500.011
30
0.0
0
POINT
5
27c2
8
0-0
62
  7
10
817.148
20
462.190
30
0.0
0
POINT
5
27c3
8
0-0
62
  7
10
1042.149
20
462.190
30
0.0
0
ENDSEC
0
EOF
