0
SECTION
2
HEADER
  9
$EXTMIN
10
0
20
0
30
0
  9
$EXTMAX
10
1447.165
20
1342.340
30
0
  9
$LTSCALE
40
5.000
  9
$DIMSCALE
40
5.000
  9
$PDMODE
70
0
  9
$PDSIZE
40
40
0
ENDSEC
0
SECTION
2
TABLES
0
TABLE
2
LTYPE
70
9
0
LTYPE
5
1f4
2
CONTINUOUS
70
0
3
実線
72
65
73
0
40
0.0
0
LTYPE
5
1f5
2
DOT
70
0
3
--  --  --  --  --  --  --  --     
72
65
73
2
40
5.000
49
1.000
49
-4.000
0
LTYPE
5
1f6
2
DASHED
70
0
3
----    ----    ----    ----    
72
65
73
2
40
5.000
49
2.000
49
-3.000
0
LTYPE
5
1f7
2
DASHED2
70
0
3
------  ------  ------  ------ 
72
65
73
2
40
10.000
49
4.000
49
-6.000
0
LTYPE
5
1f8
2
CENTER
70
0
3
----- - ----- - ----- - ----- - 
72
65
73
4
40
9.000
49
6.000
49
-1.000
49
1.000
49
-1.000
0
LTYPE
5
1f9
2
CENTER2
70
0
3
----------  --  ----------  -- 
72
65
73
4
40
18.000
49
12.000
49
-2.000
49
2.000
49
-2.000
0
LTYPE
5
1fa
2
PHANTOM
70
0
3
--- - - --- - - --- - - --- - -
72
65
73
6
40
10.000
49
5.000
49
-1.000
49
1.000
49
-1.000
49
1.000
49
-1.000
0
LTYPE
5
1fb
2
PHANTOM2
70
0
3
--------  -  -  --------  -  -
72
65
73
6
40
16.000
49
6.000
49
-2.000
49
2.000
49
-2.000
49
2.000
49
-2.000
0
LTYPE
5
1fc
2
HIDDEN
70
0
3
-   -   -   -   -   -   -   -   
72
65
73
2
40
2.500
49
0.500
49
-2.000
0
ENDTAB
0
TABLE
2
STYLE
70
1
0
STYLE
5
1fd
100
AcDbSymbolTableRecord
100
AcDbTextStyleTableRecord
2
STANDARD
70
0
40
0.0
41
1.0
50
0.0
71
0
42
0.0
3
txt.shx
4
extfont.shx
0
STYLE
5
1fe
100
AcDbSymbolTableRecord
100
AcDbTextStyleTableRecord
2
TATEGAKI
70
4
40
0.0
41
1.0
50
0.0
71
0
42
0.0
3
txt.shx
4
extfont.shx
0
STYLE
5
1ff
100
AcDbSymbolTableRecord
100
AcDbTextStyleTableRecord
2
MT
70
0
40
0.0
41
1.0
50
0.0
71
0
42
0.0
3
MS Mincho
4

0
STYLE
5
200
100
AcDbSymbolTableRecord
100
AcDbTextStyleTableRecord
2
TMT
70
4
40
0.0
41
1.0
50
0.0
71
0
42
0.0
3
@MS Mincho
4

0
ENDTAB
0
TABLE
2
LAYER
5
289a
100
AcDbSymbolTable
70
10
0
LAYER
5
289b
100
AcDbSymbolTableRecord
100
AcDbLayerTableRecord
2
0
70
64
62
  7
  6
CONTINUOUS
0
LAYER
5
289c
100
AcDbSymbolTableRecord
100
AcDbLayerTableRecord
2
0-0
70
64
62
  7
  6
CONTINUOUS
0
LAYER
5
289d
100
AcDbSymbolTableRecord
100
AcDbLayerTableRecord
2
ADD_LINE
70
64
62
  -7
  6
CONTINUOUS
0
ENDTAB
0
ENDSEC
0
SECTION
2
ENTITIES
0
LINE
5
289e
8
0-0
6
CONTINUOUS
62
  7
10
913.786
20
805.651
30
0.0
11
1186.786
21
805.651
31
0.0
0
LINE
5
289f
8
0-0
6
CONTINUOUS
62
  7
10
1176.786
20
1100.651
30
0.0
11
1176.786
21
838.651
31
0.0
0
LINE
5
28a0
8
0-0
6
CONTINUOUS
62
  7
10
913.786
20
1095.651
30
0.0
11
913.786
21
805.651
31
0.0
0
LINE
5
28a1
8
0-0
6
CONTINUOUS
62
  7
10
913.786
20
1095.651
30
0.0
11
943.786
21
1095.651
31
0.0
0
LINE
5
28a2
8
0-0
6
CONTINUOUS
62
  7
10
943.786
20
1100.651
30
0.0
11
943.786
21
1095.651
31
0.0
0
LINE
5
28a3
8
0-0
6
CONTINUOUS
62
  7
10
943.786
20
1100.651
30
0.0
11
1176.786
21
1100.651
31
0.0
0
LINE
5
28a4
8
0-0
6
CONTINUOUS
62
  7
10
968.786
20
1092.651
30
0.0
11
1143.786
21
1092.651
31
0.0
0
LINE
5
28a5
8
0-0
6
CONTINUOUS
62
  7
10
968.786
20
1100.651
30
0.0
11
968.786
21
1092.651
31
0.0
0
LINE
5
28a6
8
0-0
6
CONTINUOUS
62
  7
10
1143.786
20
1100.651
30
0.0
11
1143.786
21
1092.651
31
0.0
0
LINE
5
28a7
8
0-0
6
CONTINUOUS
62
  7
10
913.786
20
324.421
30
0.0
11
930.786
21
324.421
31
0.0
0
LINE
5
28a8
8
0-0
6
CONTINUOUS
62
  7
10
913.786
20
414.421
30
0.0
11
913.786
21
324.421
31
0.0
0
LINE
5
28a9
8
0-0
6
CONTINUOUS
62
  7
10
930.786
20
357.730
30
0.0
11
930.786
21
324.421
31
0.0
0
LINE
5
28aa
8
0-0
6
CONTINUOUS
62
  7
10
1186.786
20
405.256
30
0.0
11
1186.786
21
373.158
31
0.0
0
LINE
5
28ab
8
0-0
6
CONTINUOUS
62
  7
10
654.327
20
1095.651
30
0.0
11
589.327
21
1095.651
31
0.0
0
LINE
5
28ac
8
0-0
6
CONTINUOUS
62
  7
10
589.327
20
1095.651
30
0.0
11
569.327
21
853.651
31
0.0
0
LINE
5
28ad
8
0-0
6
CONTINUOUS
62
  7
10
654.327
20
1095.651
30
0.0
11
654.327
21
805.651
31
0.0
0
LINE
5
28ae
8
0-0
6
CONTINUOUS
62
  7
10
654.339
20
805.539
30
0.0
11
614.327
21
801.333
31
0.0
0
LINE
5
28af
8
0-0
6
CONTINUOUS
62
  7
10
614.327
20
823.651
30
0.0
11
614.327
21
801.333
31
0.0
0
LINE
5
28b0
8
0-0
6
CONTINUOUS
62
  7
10
570.153
20
863.651
30
0.0
11
634.327
21
863.651
31
0.0
0
LINE
5
28b1
8
0-0
6
CONTINUOUS
62
  7
10
634.327
20
803.436
30
0.0
11
634.327
21
863.651
31
0.0
0
LINE
5
28b2
8
0-0
6
CONTINUOUS
62
  7
10
570.153
20
864.651
30
0.0
11
635.327
21
864.651
31
0.0
0
LINE
5
28b3
8
0-0
6
CONTINUOUS
62
  7
10
635.327
20
803.436
30
0.0
11
635.327
21
864.651
31
0.0
0
LINE
5
28b4
8
0-0
6
CONTINUOUS
62
  7
10
1392.165
20
1100.651
30
0.0
11
1409.165
21
1100.651
31
0.0
0
LINE
5
28b5
8
0-0
6
CONTINUOUS
62
  7
10
1390.165
20
1100.802
30
0.0
11
1390.165
21
1092.651
31
0.0
0
LINE
5
28b6
8
0-0
6
CONTINUOUS
62
  7
10
1392.165
20
1092.651
30
0.0
11
1390.165
21
1092.651
31
0.0
0
LINE
5
28b7
8
0-0
6
CONTINUOUS
62
  7
10
1392.165
20
1092.651
30
0.0
11
1392.165
21
805.651
31
0.0
0
LINE
5
28b8
8
0-0
6
CONTINUOUS
62
  7
10
1409.165
20
1100.651
30
0.0
11
1409.165
21
823.974
31
0.0
0
LINE
5
28b9
8
0-0
6
CONTINUOUS
62
  7
10
1392.165
20
805.651
30
0.0
11
1447.165
21
799.870
31
0.0
0
LINE
5
28ba
8
0-0
6
CONTINUOUS
62
  7
10
1447.165
20
799.870
30
0.0
11
1447.165
21
819.980
31
0.0
0
LINE
5
28bb
8
0-0
6
CONTINUOUS
62
  7
10
1409.165
20
823.974
30
0.0
11
1447.165
21
819.980
31
0.0
0
LINE
5
28bc
8
0-0
6
CONTINUOUS
62
  7
10
1392.165
20
805.651
30
0.0
11
1362.165
21
808.804
31
0.0
0
LINE
5
28bd
8
0-0
6
CONTINUOUS
62
  7
10
1390.165
20
1092.651
30
0.0
11
1364.945
21
1092.651
31
0.0
0
LINE
5
28be
8
0-0
6
CONTINUOUS
62
  7
10
1364.945
20
1100.651
30
0.0
11
1364.945
21
1095.651
31
0.0
0
LINE
5
28bf
8
0-0
6
CONTINUOUS
62
  7
10
1384.433
20
1100.651
30
0.0
11
1364.945
21
1100.651
31
0.0
0
LINE
5
28c0
8
0-0
6
CONTINUOUS
62
  7
10
1362.165
20
1095.651
30
0.0
11
1364.945
21
1095.651
31
0.0
0
LINE
5
28c1
8
0-0
6
CONTINUOUS
62
  7
10
1362.165
20
1095.651
30
0.0
11
1362.165
21
808.804
31
0.0
0
LINE
5
28c2
8
0-0
6
CONTINUOUS
62
  7
10
1364.945
20
1095.651
30
0.0
11
1364.945
21
1092.651
31
0.0
0
LINE
5
28c3
8
ADD_LINE
6
HIDDEN
62
  3
10
1124.715
20
385.614
30
0.0
11
1156.653
21
385.614
31
0.0
0
LINE
5
28c4
8
ADD_LINE
6
HIDDEN
62
  3
10
1138.786
20
375.704
30
0.0
11
1138.786
21
399.658
31
0.0
0
LINE
5
28c5
8
0-0
6
CONTINUOUS
62
  7
10
589.327
20
1339.840
30
0.0
11
654.327
21
1339.840
31
0.0
0
LINE
5
28c6
8
0-0
6
CONTINUOUS
62
  7
10
589.327
20
1153.354
30
0.0
11
589.327
21
1339.840
31
0.0
0
LINE
5
28c7
8
0-0
6
CONTINUOUS
62
  7
10
654.327
20
1153.354
30
0.0
11
654.327
21
1339.840
31
0.0
0
LINE
5
28c8
8
0-0
6
CONTINUOUS
62
  7
10
913.786
20
1339.840
30
0.0
11
1176.786
21
1339.840
31
0.0
0
LINE
5
28c9
8
0-0
6
CONTINUOUS
62
  7
10
913.786
20
1153.354
30
0.0
11
913.786
21
1339.840
31
0.0
0
LINE
5
28ca
8
0-0
6
CONTINUOUS
62
  7
10
1176.786
20
1153.354
30
0.0
11
1176.786
21
1339.840
31
0.0
0
LINE
5
28cb
8
0-0
6
CONTINUOUS
62
  7
10
1392.165
20
1339.840
30
0.0
11
1409.165
21
1339.840
31
0.0
0
LINE
5
28cc
8
0-0
6
CONTINUOUS
62
  7
10
1392.165
20
1153.354
30
0.0
11
1392.165
21
1339.840
31
0.0
0
LINE
5
28cd
8
0-0
6
CONTINUOUS
62
  7
10
1409.165
20
1153.354
30
0.0
11
1409.165
21
1339.840
31
0.0
0
LINE
5
28ce
8
0-0
6
CONTINUOUS
62
  7
10
569.327
20
687.137
30
0.0
11
654.339
21
687.137
31
0.0
0
LINE
5
28cf
8
0-0
6
CONTINUOUS
62
  7
10
569.327
20
764.164
30
0.0
11
569.327
21
687.137
31
0.0
0
LINE
5
28d0
8
0-0
6
CONTINUOUS
62
  7
10
654.339
20
764.164
30
0.0
11
654.339
21
687.137
31
0.0
0
LINE
5
28d1
8
0-0
6
CONTINUOUS
62
  7
10
913.786
20
687.137
30
0.0
11
1186.786
21
687.137
31
0.0
0
LINE
5
28d2
8
0-0
6
CONTINUOUS
62
  7
10
913.786
20
764.164
30
0.0
11
913.786
21
687.137
31
0.0
0
LINE
5
28d3
8
0-0
6
CONTINUOUS
62
  7
10
1186.786
20
764.164
30
0.0
11
1186.786
21
687.137
31
0.0
0
LINE
5
28d4
8
0-0
6
CONTINUOUS
62
  7
10
1392.165
20
687.137
30
0.0
11
1447.165
21
687.137
31
0.0
0
LINE
5
28d5
8
0-0
6
CONTINUOUS
62
  7
10
1392.165
20
764.164
30
0.0
11
1392.165
21
687.137
31
0.0
0
LINE
5
28d6
8
0-0
6
CONTINUOUS
62
  7
10
1447.165
20
764.164
30
0.0
11
1447.165
21
687.137
31
0.0
0
LINE
5
28d7
8
0-0
6
CONTINUOUS
62
  7
10
913.786
20
585.786
30
0.0
11
1186.786
21
585.786
31
0.0
0
LINE
5
28d8
8
0-0
6
CONTINUOUS
62
  7
10
913.786
20
464.164
30
0.0
11
913.786
21
585.786
31
0.0
0
LINE
5
28d9
8
0-0
6
CONTINUOUS
62
  7
10
1186.786
20
464.164
30
0.0
11
1186.786
21
585.786
31
0.0
0
LINE
5
28da
8
0-0
6
CONTINUOUS
62
  7
10
913.786
20
533.083
30
0.0
11
1138.786
21
533.083
31
0.0
0
LINE
5
28db
8
0-0
6
CONTINUOUS
62
  7
10
913.786
20
464.164
30
0.0
11
913.786
21
533.083
31
0.0
0
LINE
5
28dc
8
0-0
6
CONTINUOUS
62
  7
10
1138.786
20
464.164
30
0.0
11
1138.786
21
533.083
31
0.0
0
LINE
5
28dd
8
0-0
6
CONTINUOUS
62
  7
10
1138.786
20
533.083
30
0.0
11
1186.786
21
533.083
31
0.0
0
LINE
5
28de
8
0-0
6
CONTINUOUS
62
  7
10
1186.786
20
464.164
30
0.0
11
1186.786
21
533.083
31
0.0
0
LINE
5
28df
8
0-0
6
CONTINUOUS
62
  7
10
727.300
20
1095.651
30
0.0
11
727.300
21
805.651
31
0.0
0
LINE
5
28e0
8
0-0
6
CONTINUOUS
62
  7
10
690.813
20
1095.651
30
0.0
11
727.300
21
1095.651
31
0.0
0
LINE
5
28e1
8
0-0
6
CONTINUOUS
62
  7
10
690.813
20
805.651
30
0.0
11
727.300
21
805.651
31
0.0
0
LINE
5
28e2
8
0-0
6
CONTINUOUS
62
  7
10
800.273
20
1100.651
30
0.0
11
800.273
21
1095.651
31
0.0
0
LINE
5
28e3
8
0-0
6
CONTINUOUS
62
  7
10
881.354
20
1100.651
30
0.0
11
800.273
21
1100.651
31
0.0
0
LINE
5
28e4
8
0-0
6
CONTINUOUS
62
  7
10
881.354
20
1095.651
30
0.0
11
800.273
21
1095.651
31
0.0
0
LINE
5
28e5
8
0-0
6
CONTINUOUS
62
  7
10
800.273
20
1095.651
30
0.0
11
800.273
21
805.651
31
0.0
0
LINE
5
28e6
8
0-0
6
CONTINUOUS
62
  7
10
881.354
20
805.651
30
0.0
11
800.273
21
805.651
31
0.0
0
LINE
5
28e7
8
0-0
6
CONTINUOUS
62
  7
10
800.273
20
414.421
30
0.0
11
800.273
21
324.421
31
0.0
0
LINE
5
28e8
8
0-0
6
CONTINUOUS
62
  7
10
881.354
20
414.421
30
0.0
11
800.273
21
414.421
31
0.0
0
LINE
5
28e9
8
0-0
6
CONTINUOUS
62
  7
10
881.354
20
324.421
30
0.0
11
800.273
21
324.421
31
0.0
0
LINE
5
28ea
8
0-0
6
CONTINUOUS
62
  7
10
831.359
20
414.422
30
0.0
11
831.359
21
369.421
31
0.0
0
LINE
5
28eb
8
0-0
6
CONTINUOUS
62
  7
10
881.354
20
414.422
30
0.0
11
831.359
21
414.422
31
0.0
0
LINE
5
28ec
8
0-0
6
CONTINUOUS
62
  7
10
881.354
20
369.421
30
0.0
11
831.359
21
369.421
31
0.0
0
LINE
5
28ed
8
0-0
6
CONTINUOUS
62
  7
10
1186.786
20
720.642
30
0.0
11
1176.786
21
720.642
31
0.0
0
LINE
5
28ee
8
0-0
6
CONTINUOUS
62
  7
10
1186.786
20
764.164
30
0.0
11
1186.786
21
720.642
31
0.0
0
LINE
5
28ef
8
0-0
6
CONTINUOUS
62
  7
10
1176.786
20
764.164
30
0.0
11
1176.786
21
720.642
31
0.0
0
LINE
5
28f0
8
ADD_LINE
6
HIDDEN
62
  3
10
1050.000
20
324.324
30
0.0
11
1045.784
21
324.324
31
0.0
0
LINE
5
28f1
8
ADD_LINE
6
HIDDEN
62
  3
10
1019.458
20
324.324
30
0.0
11
1071.582
21
324.324
31
0.0
0
LINE
5
28f2
8
ADD_LINE
6
HIDDEN
62
  3
10
1050.000
20
306.886
30
0.0
11
1050.000
21
337.174
31
0.0
0
LINE
5
28f3
8
ADD_LINE
6
HIDDEN
62
  3
10
1116.924
20
385.614
30
0.0
11
1180.200
21
385.614
31
0.0
0
LINE
5
28f4
8
0-0
6
CONTINUOUS
62
  7
10
1174.341
20
399.042
30
0.0
11
1174.341
21
359.030
31
0.0
0
LINE
5
28f5
8
0-0
6
CONTINUOUS
62
  7
10
1174.341
20
399.041
30
0.0
11
1174.341
21
359.030
31
0.0
0
LINE
5
28f6
8
0-0
6
CONTINUOUS
62
  4
10
1184.025
20
403.803
30
0.0
11
1174.341
21
394.120
31
0.0
0
LINE
5
28f7
8
0-0
6
CONTINUOUS
62
  4
10
1186.786
20
402.322
30
0.0
11
1174.341
21
389.877
31
0.0
0
LINE
5
28f8
8
0-0
6
CONTINUOUS
62
  4
10
1186.786
20
398.080
30
0.0
11
1174.341
21
385.634
31
0.0
0
LINE
5
28f9
8
0-0
6
CONTINUOUS
62
  4
10
1186.786
20
389.594
30
0.0
11
1174.341
21
377.149
31
0.0
0
LINE
5
28fa
8
0-0
6
CONTINUOUS
62
  4
10
1186.786
20
393.837
30
0.0
11
1174.341
21
381.392
31
0.0
0
LINE
5
28fb
8
0-0
6
CONTINUOUS
62
  4
10
1186.786
20
381.109
30
0.0
11
1174.341
21
368.664
31
0.0
0
LINE
5
28fc
8
0-0
6
CONTINUOUS
62
  4
10
1186.786
20
376.867
30
0.0
11
1174.341
21
364.421
31
0.0
0
LINE
5
28fd
8
0-0
6
CONTINUOUS
62
  4
10
1174.341
20
360.554
30
0.0
11
1186.786
21
372.999
31
0.0
0
LINE
5
28fe
8
0-0
6
CONTINUOUS
62
  4
10
1174.341
20
372.906
30
0.0
11
1186.786
21
385.352
31
0.0
0
LINE
5
28ff
8
0-0
6
CONTINUOUS
62
  7
10
1186.786
20
373.158
30
0.0
11
1186.786
21
367.255
31
0.0
0
LINE
5
2900
8
0-0
6
CONTINUOUS
62
  4
10
1175.620
20
399.641
30
0.0
11
1174.341
21
398.362
31
0.0
0
LINE
5
2901
8
0-0
6
CONTINUOUS
62
  7
10
119.192
20
324.421
30
0.0
11
136.192
21
324.421
31
0.0
0
LINE
5
2902
8
0-0
6
CONTINUOUS
62
  7
10
119.192
20
414.421
30
0.0
11
119.192
21
324.421
31
0.0
0
LINE
5
2903
8
0-0
6
CONTINUOUS
62
  7
10
136.192
20
357.730
30
0.0
11
136.192
21
324.421
31
0.0
0
LINE
5
2904
8
ADD_LINE
6
HIDDEN
62
  3
10
330.120
20
385.614
30
0.0
11
362.059
21
385.614
31
0.0
0
LINE
5
2905
8
ADD_LINE
6
HIDDEN
62
  3
10
344.192
20
375.704
30
0.0
11
344.192
21
399.658
31
0.0
0
LINE
5
2906
8
ADD_LINE
6
HIDDEN
62
  3
10
255.405
20
324.324
30
0.0
11
251.189
21
324.324
31
0.0
0
LINE
5
2907
8
ADD_LINE
6
HIDDEN
62
  3
10
224.863
20
324.324
30
0.0
11
276.987
21
324.324
31
0.0
0
LINE
5
2908
8
ADD_LINE
6
HIDDEN
62
  3
10
255.405
20
306.886
30
0.0
11
255.405
21
337.174
31
0.0
0
LINE
5
2909
8
0-0
6
CONTINUOUS
62
  7
10
379.746
20
399.042
30
0.0
11
379.746
21
359.030
31
0.0
0
LINE
5
290a
8
0-0
6
CONTINUOUS
62
  7
10
379.746
20
399.041
30
0.0
11
379.746
21
359.030
31
0.0
0
LINE
5
290b
8
0-0
6
CONTINUOUS
62
  7
10
1205.188
20
454.495
30
0.0
11
1219.425
21
454.495
31
0.0
0
LINE
5
290c
8
ADD_LINE
6
HIDDEN
62
  3
10
344.192
20
302.322
30
0.0
11
344.192
21
472.780
31
0.0
0
LINE
5
290d
8
ADD_LINE
6
HIDDEN
62
  3
10
609.191
20
302.322
30
0.0
11
609.191
21
472.780
31
0.0
0
LINE
5
290e
8
0-0
6
CONTINUOUS
62
  7
10
344.897
20
392.490
30
0.0
11
344.192
21
385.614
31
0.0
0
LINE
5
290f
8
0-0
6
CONTINUOUS
62
  7
10
344.897
20
392.490
30
0.0
11
344.192
21
385.614
31
0.0
0
LINE
5
2910
8
0-0
6
CONTINUOUS
62
  7
10
346.537
20
408.494
30
0.0
11
344.897
21
392.490
31
0.0
0
LINE
5
2911
8
0-0
6
CONTINUOUS
62
  7
10
374.896
20
424.619
30
0.0
11
346.537
21
408.494
31
0.0
0
LINE
5
2912
8
ADD_LINE
6
HIDDEN
62
  3
10
322.330
20
385.614
30
0.0
11
385.606
21
385.614
31
0.0
0
LINE
5
2913
8
ADD_LINE
6
HIDDEN
62
  3
10
609.192
20
302.322
30
0.0
11
609.192
21
472.780
31
0.0
0
LINE
5
2914
8
0-0
6
CONTINUOUS
62
  7
10
379.747
20
399.042
30
0.0
11
379.747
21
359.030
31
0.0
0
LINE
5
2915
8
ADD_LINE
6
HIDDEN
62
  3
10
587.330
20
385.614
30
0.0
11
650.606
21
385.614
31
0.0
0
LINE
5
2916
8
0-0
6
CONTINUOUS
62
  7
10
644.747
20
399.005
30
0.0
11
644.747
21
359.030
31
0.0
0
LINE
5
2917
8
0-0
6
CONTINUOUS
62
  4
10
650.191
20
386.094
30
0.0
11
644.747
21
380.649
31
0.0
0
LINE
5
2918
8
0-0
6
CONTINUOUS
62
  4
10
650.191
20
394.579
30
0.0
11
644.747
21
389.134
31
0.0
0
LINE
5
2919
8
0-0
6
CONTINUOUS
62
  4
10
650.191
20
377.608
30
0.0
11
644.747
21
372.164
31
0.0
0
LINE
5
291a
8
0-0
6
CONTINUOUS
62
  4
10
650.191
20
369.123
30
0.0
11
644.747
21
363.678
31
0.0
0
LINE
5
291b
8
0-0
6
CONTINUOUS
62
  7
10
650.191
20
401.640
30
0.0
11
650.191
21
362.762
31
0.0
0
LINE
5
291c
8
0-0
6
CONTINUOUS
62
  4
10
647.391
20
400.264
30
0.0
11
644.747
21
397.619
31
0.0
0
LINE
5
291d
8
0-0
6
CONTINUOUS
62
  7
10
1185.099
20
379.520
30
0.0
11
1205.188
21
454.495
31
0.0
0
LINE
5
291e
8
0-0
6
CONTINUOUS
62
  7
10
119.192
20
533.083
30
0.0
11
344.192
21
533.083
31
0.0
0
LINE
5
291f
8
0-0
6
CONTINUOUS
62
  7
10
119.192
20
464.164
30
0.0
11
119.192
21
533.083
31
0.0
0
LINE
5
2920
8
0-0
6
CONTINUOUS
62
  7
10
344.192
20
464.164
30
0.0
11
344.192
21
533.083
31
0.0
0
LINE
5
2921
8
0-0
6
CONTINUOUS
62
  7
10
344.192
20
533.083
30
0.0
11
609.192
21
533.083
31
0.0
0
LINE
5
2922
8
0-0
6
CONTINUOUS
62
  7
10
609.192
20
464.164
30
0.0
11
609.192
21
533.083
31
0.0
0
LINE
5
2923
8
0-0
6
CONTINUOUS
62
  7
10
1392.165
20
1100.651
30
0.0
11
1364.945
21
1100.651
31
0.0
0
ARC
5
2924
8
0-0
6
CONTINUOUS
62
  7
10
1255.384
20
844.453
30
0.0
40
78.811
50
184.222122
51
209.494812
0
CIRCLE
5
2925
8
0-0
6
CONTINUOUS
62
  7
10
996.786
20
1080.651
30
0.0
40
3.000
0
CIRCLE
5
2926
8
0-0
6
CONTINUOUS
62
  7
10
1111.786
20
1080.651
30
0.0
40
3.000
0
CIRCLE
5
2927
8
ADD_LINE
6
HIDDEN
62
  3
10
1138.786
20
385.614
30
0.0
40
3.000
0
ARC
5
2928
8
0-0
6
CONTINUOUS
62
  7
10
1069.345
20
736.332
30
0.0
40
357.526
50
244.208420
51
281.199524
0
ARC
5
2929
8
0-0
6
CONTINUOUS
62
  7
10
1066.900
20
629.755
30
0.0
40
254.504
50
646.406982
51
658.103149
0
ARC
5
292a
8
0-0
6
CONTINUOUS
62
  7
10
574.431
20
812.558
30
0.0
40
41.409
50
15.539032
51
97.080826
0
CIRCLE
5
292b
8
ADD_LINE
6
HIDDEN
62
  3
10
1050.000
20
324.324
30
0.0
40
3.000
0
CIRCLE
5
292c
8
ADD_LINE
6
HIDDEN
62
  3
10
1138.786
20
385.614
30
0.0
40
3.000
0
CIRCLE
5
292d
8
ADD_LINE
6
HIDDEN
62
  3
10
1138.786
20
385.614
30
0.0
40
3.000
0
ARC
5
292e
8
0-0
6
CONTINUOUS
62
  7
10
1066.899
20
629.755
30
0.0
40
254.504
50
646.406982
51
654.971069
0
ARC
5
292f
8
0-0
6
CONTINUOUS
62
  7
10
1051.791
20
557.997
30
0.0
40
233.679
50
233.802246
51
305.288452
0
CIRCLE
5
2930
8
ADD_LINE
6
HIDDEN
62
  3
10
344.192
20
385.614
30
0.0
40
3.000
0
ARC
5
2931
8
0-0
6
CONTINUOUS
62
  7
10
274.751
20
736.332
30
0.0
40
357.526
50
244.208420
51
281.199524
0
CIRCLE
5
2932
8
ADD_LINE
6
HIDDEN
62
  3
10
255.405
20
324.324
30
0.0
40
3.000
0
CIRCLE
5
2933
8
ADD_LINE
6
HIDDEN
62
  3
10
344.192
20
385.614
30
0.0
40
3.000
0
CIRCLE
5
2934
8
ADD_LINE
6
HIDDEN
62
  3
10
344.192
20
385.614
30
0.0
40
3.000
0
ARC
5
2935
8
0-0
6
CONTINUOUS
62
  7
10
272.305
20
629.755
30
0.0
40
254.504
50
646.406982
51
654.971069
0
ARC
5
2936
8
0-0
6
CONTINUOUS
62
  7
10
558.567
20
668.054
30
0.0
40
294.246
50
235.860168
51
241.571106
0
ARC
5
2937
8
0-0
6
CONTINUOUS
62
  7
10
384.095
20
412.377
30
0.0
40
15.314
50
52.433243
51
126.920761
0
CIRCLE
5
2938
8
ADD_LINE
6
HIDDEN
62
  3
10
344.192
20
385.614
30
0.0
40
3.000
0
ARC
5
2939
8
0-0
6
CONTINUOUS
62
  7
10
272.305
20
629.755
30
0.0
40
254.504
50
646.406982
51
654.971069
0
CIRCLE
5
293a
8
ADD_LINE
6
HIDDEN
62
  3
10
609.192
20
385.614
30
0.0
40
3.000
0
ARC
5
293b
8
0-0
6
CONTINUOUS
62
  7
10
541.407
20
619.495
30
0.0
40
243.505
50
239.682083
51
296.535065
0
ARC
5
293c
8
0-0
6
CONTINUOUS
62
  7
10
512.247
20
558.191
30
0.0
40
239.210
50
236.364563
51
305.216553
0
ARC
5
293d
8
0-0
6
CONTINUOUS
62
  7
10
257.197
20
557.997
30
0.0
40
233.679
50
233.802246
51
301.630188
0
ARC
5
293e
8
0-0
6
CONTINUOUS
62
  7
10
272.305
20
629.755
30
0.0
40
254.504
50
646.406982
51
654.971069
0
TEXT
5
293f
100
AcDbEntity
8
0-0
62
7
100
AcDbText
10
615.577
20
1342.340
30
0.0
40
9.750
41
0.800
50
0.000
1
65
100
AcDbText
0
TEXT
5
2940
100
AcDbEntity
8
0-0
62
7
100
AcDbText
10
1035.911
20
1342.340
30
0.0
40
9.750
41
0.800
50
0.000
1
263
100
AcDbText
0
TEXT
5
2941
100
AcDbEntity
8
0-0
62
7
100
AcDbText
10
1394.415
20
1342.340
30
0.0
40
9.750
41
0.800
50
0.000
1
17
100
AcDbText
0
TEXT
5
2942
100
AcDbEntity
8
0-0
62
7
100
AcDbText
10
605.583
20
689.637
30
0.0
40
9.750
41
0.800
50
0.000
1
85
100
AcDbText
0
TEXT
5
2943
100
AcDbEntity
8
0-0
62
7
100
AcDbText
10
1040.911
20
689.637
30
0.0
40
9.750
41
0.800
50
0.000
1
273
100
AcDbText
0
TEXT
5
2944
100
AcDbEntity
8
0-0
62
7
100
AcDbText
10
1413.415
20
689.637
30
0.0
40
9.750
41
0.800
50
0.000
1
55
100
AcDbText
0
TEXT
5
2945
100
AcDbEntity
8
0-0
62
7
100
AcDbText
10
1040.911
20
588.286
30
0.0
40
9.750
41
0.800
50
0.000
1
273
100
AcDbText
0
TEXT
5
2946
100
AcDbEntity
8
0-0
62
7
100
AcDbText
10
1016.911
20
535.583
30
0.0
40
9.750
41
0.800
50
0.000
1
225
100
AcDbText
0
TEXT
5
2947
100
AcDbEntity
8
0-0
62
7
100
AcDbText
10
1156.536
20
535.583
30
0.0
40
9.750
41
0.800
50
0.000
1
48
100
AcDbText
0
TEXT
5
2948
100
AcDbEntity
8
0-0
62
7
100
AcDbText
10
724.800
20
941.276
30
0.0
40
9.750
41
0.800
50
90.000
1
290
100
AcDbText
0
TEXT
5
2949
100
AcDbEntity
8
0-0
62
7
100
AcDbText
10
797.773
20
1095.026
30
0.0
40
9.750
41
0.800
50
90.000
1
5
100
AcDbText
0
TEXT
5
294a
100
AcDbEntity
8
0-0
62
7
100
AcDbText
10
797.773
20
941.276
30
0.0
40
9.750
41
0.800
50
90.000
1
290
100
AcDbText
0
TEXT
5
294b
100
AcDbEntity
8
0-0
62
7
100
AcDbText
10
797.773
20
363.171
30
0.0
40
9.750
41
0.800
50
90.000
1
90
100
AcDbText
0
TEXT
5
294c
100
AcDbEntity
8
0-0
62
7
100
AcDbText
10
828.859
20
385.671
30
0.0
40
9.750
41
0.800
50
90.000
1
45
100
AcDbText
0
TEXT
5
294d
100
AcDbEntity
8
0-0
62
7
100
AcDbText
10
1175.536
20
723.142
30
0.0
40
9.750
41
0.800
50
360.000
1
10
100
AcDbText
0
TEXT
5
294e
100
AcDbEntity
8
0-0
62
7
100
AcDbText
10
1228.512
20
450.192
30
0.0
40
9.750
41
1.000
50
0.000
1
すり合せ部分
100
AcDbText
0
TEXT
5
294f
100
AcDbEntity
8
0-0
62
7
100
AcDbText
10
222.317
20
535.583
30
0.0
40
9.750
41
0.800
50
0.000
1
225
100
AcDbText
0
TEXT
5
2950
100
AcDbEntity
8
0-0
62
7
100
AcDbText
10
467.317
20
535.583
30
0.0
40
9.750
41
0.800
50
0.000
1
265
100
AcDbText
0
POINT
5
2951
8
0-0
62
  7
10
589.327
20
1339.840
30
0.0
0
POINT
5
2952
8
0-0
62
  7
10
654.327
20
1339.840
30
0.0
0
POINT
5
2953
8
0-0
62
  7
10
913.786
20
1339.840
30
0.0
0
POINT
5
2954
8
0-0
62
  7
10
1176.786
20
1339.840
30
0.0
0
POINT
5
2955
8
0-0
62
  7
10
1392.165
20
1339.840
30
0.0
0
POINT
5
2956
8
0-0
62
  7
10
1409.165
20
1339.840
30
0.0
0
POINT
5
2957
8
0-0
62
  7
10
569.327
20
687.137
30
0.0
0
POINT
5
2958
8
0-0
62
  7
10
654.339
20
687.137
30
0.0
0
POINT
5
2959
8
0-0
62
  7
10
913.786
20
687.137
30
0.0
0
POINT
5
295a
8
0-0
62
  7
10
1186.786
20
687.137
30
0.0
0
POINT
5
295b
8
0-0
62
  7
10
1392.165
20
687.137
30
0.0
0
POINT
5
295c
8
0-0
62
  7
10
1447.165
20
687.137
30
0.0
0
POINT
5
295d
8
0-0
62
  7
10
913.786
20
585.786
30
0.0
0
POINT
5
295e
8
0-0
62
  7
10
1186.786
20
585.786
30
0.0
0
POINT
5
295f
8
0-0
62
  7
10
913.786
20
533.083
30
0.0
0
POINT
5
2960
8
0-0
62
  7
10
1138.786
20
533.083
30
0.0
0
POINT
5
2961
8
0-0
62
  7
10
1186.786
20
533.083
30
0.0
0
POINT
5
2962
8
0-0
62
  7
10
727.300
20
1095.651
30
0.0
0
POINT
5
2963
8
0-0
62
  7
10
727.300
20
805.651
30
0.0
0
POINT
5
2964
8
0-0
62
  7
10
800.273
20
1100.651
30
0.0
0
POINT
5
2965
8
0-0
62
  7
10
800.273
20
1095.651
30
0.0
0
POINT
5
2966
8
0-0
62
  7
10
800.273
20
805.651
30
0.0
0
POINT
5
2967
8
0-0
62
  7
10
800.273
20
414.421
30
0.0
0
POINT
5
2968
8
0-0
62
  7
10
800.273
20
324.421
30
0.0
0
POINT
5
2969
8
0-0
62
  7
10
831.359
20
414.422
30
0.0
0
POINT
5
296a
8
0-0
62
  7
10
831.359
20
369.421
30
0.0
0
POINT
5
296b
8
0-0
62
  7
10
1186.786
20
720.642
30
0.0
0
POINT
5
296c
8
0-0
62
  7
10
1176.786
20
720.642
30
0.0
0
POINT
5
296d
8
0-0
62
  7
10
119.192
20
533.083
30
0.0
0
POINT
5
296e
8
0-0
62
  7
10
344.192
20
533.083
30
0.0
0
POINT
5
296f
8
0-0
62
  7
10
609.192
20
533.083
30
0.0
0
ENDSEC
0
EOF
