0
SECTION
2
HEADER
  9
$EXTMIN
10
0
20
0
30
0
  9
$EXTMAX
10
1589.580
20
1222.770
30
0
  9
$LTSCALE
40
5.000
  9
$DIMSCALE
40
5.000
  9
$PDMODE
70
0
  9
$PDSIZE
40
40
0
ENDSEC
0
SECTION
2
TABLES
0
TABLE
2
LTYPE
70
9
0
LTYPE
5
1f4
2
CONTINUOUS
70
0
3
実線
72
65
73
0
40
0.0
0
LTYPE
5
1f5
2
DOT
70
0
3
--  --  --  --  --  --  --  --     
72
65
73
2
40
5.000
49
1.000
49
-4.000
0
LTYPE
5
1f6
2
DASHED
70
0
3
----    ----    ----    ----    
72
65
73
2
40
5.000
49
2.000
49
-3.000
0
LTYPE
5
1f7
2
DASHED2
70
0
3
------  ------  ------  ------ 
72
65
73
2
40
10.000
49
4.000
49
-6.000
0
LTYPE
5
1f8
2
CENTER
70
0
3
----- - ----- - ----- - ----- - 
72
65
73
4
40
9.000
49
6.000
49
-1.000
49
1.000
49
-1.000
0
LTYPE
5
1f9
2
CENTER2
70
0
3
----------  --  ----------  -- 
72
65
73
4
40
18.000
49
12.000
49
-2.000
49
2.000
49
-2.000
0
LTYPE
5
1fa
2
PHANTOM
70
0
3
--- - - --- - - --- - - --- - -
72
65
73
6
40
10.000
49
5.000
49
-1.000
49
1.000
49
-1.000
49
1.000
49
-1.000
0
LTYPE
5
1fb
2
PHANTOM2
70
0
3
--------  -  -  --------  -  -
72
65
73
6
40
16.000
49
6.000
49
-2.000
49
2.000
49
-2.000
49
2.000
49
-2.000
0
LTYPE
5
1fc
2
HIDDEN
70
0
3
-   -   -   -   -   -   -   -   
72
65
73
2
40
2.500
49
0.500
49
-2.000
0
ENDTAB
0
TABLE
2
STYLE
70
1
0
STYLE
5
1fd
100
AcDbSymbolTableRecord
100
AcDbTextStyleTableRecord
2
STANDARD
70
0
40
0.0
41
1.0
50
0.0
71
0
42
0.0
3
txt.shx
4
extfont.shx
0
STYLE
5
1fe
100
AcDbSymbolTableRecord
100
AcDbTextStyleTableRecord
2
TATEGAKI
70
4
40
0.0
41
1.0
50
0.0
71
0
42
0.0
3
txt.shx
4
extfont.shx
0
STYLE
5
1ff
100
AcDbSymbolTableRecord
100
AcDbTextStyleTableRecord
2
MT
70
0
40
0.0
41
1.0
50
0.0
71
0
42
0.0
3
MS Mincho
4

0
STYLE
5
200
100
AcDbSymbolTableRecord
100
AcDbTextStyleTableRecord
2
TMT
70
4
40
0.0
41
1.0
50
0.0
71
0
42
0.0
3
@MS Mincho
4

0
ENDTAB
0
TABLE
2
LAYER
5
537
100
AcDbSymbolTable
70
10
0
LAYER
5
538
100
AcDbSymbolTableRecord
100
AcDbLayerTableRecord
2
0
70
64
62
  7
  6
CONTINUOUS
0
LAYER
5
539
100
AcDbSymbolTableRecord
100
AcDbLayerTableRecord
2
0-0
70
64
62
  7
  6
CONTINUOUS
0
LAYER
5
53a
100
AcDbSymbolTableRecord
100
AcDbLayerTableRecord
2
ADD_LINE
70
64
62
  -7
  6
CONTINUOUS
0
ENDTAB
0
ENDSEC
0
SECTION
2
ENTITIES
0
LINE
5
53b
8
0-0
6
CONTINUOUS
62
  7
10
786.487
20
754.068
30
0.0
11
786.487
21
981.068
31
0.0
0
LINE
5
53c
8
0-0
6
CONTINUOUS
62
  7
10
786.487
20
981.068
30
0.0
11
1051.486
21
981.068
31
0.0
0
LINE
5
53d
8
0-0
6
CONTINUOUS
62
  7
10
1051.486
20
981.068
30
0.0
11
1051.486
21
754.068
31
0.0
0
LINE
5
53e
8
0-0
6
CONTINUOUS
62
  7
10
1051.486
20
754.068
30
0.0
11
786.487
21
754.068
31
0.0
0
LINE
5
53f
8
0-0
6
CONTINUOUS
62
  7
10
1051.486
20
935.068
30
0.0
11
1081.487
21
927.568
31
0.0
0
LINE
5
540
8
0-0
6
CONTINUOUS
62
  7
10
1081.487
20
927.568
30
0.0
11
1081.487
21
807.568
31
0.0
0
LINE
5
541
8
0-0
6
CONTINUOUS
62
  7
10
1051.486
20
800.068
30
0.0
11
1081.487
21
807.568
31
0.0
0
LINE
5
542
8
0-0
6
CONTINUOUS
62
  7
10
1063.986
20
920.068
30
0.0
11
1068.986
21
920.068
31
0.0
0
LINE
5
543
8
0-0
6
CONTINUOUS
62
  7
10
1063.986
20
920.068
30
0.0
11
1063.986
21
815.068
31
0.0
0
LINE
5
544
8
0-0
6
CONTINUOUS
62
  7
10
1063.986
20
815.068
30
0.0
11
1068.986
21
815.068
31
0.0
0
LINE
5
545
8
0-0
6
CONTINUOUS
62
  7
10
1068.986
20
920.068
30
0.0
11
1068.986
21
815.068
31
0.0
0
LINE
5
546
8
0-0
6
CONTINUOUS
62
  7
10
786.487
20
477.405
30
0.0
11
786.487
21
405.405
31
0.0
0
LINE
5
547
8
0-0
6
CONTINUOUS
62
  7
10
786.487
20
477.405
30
0.0
11
1051.486
21
477.405
31
0.0
0
LINE
5
548
8
0-0
6
CONTINUOUS
62
  7
10
786.487
20
405.405
30
0.0
11
1051.486
21
405.405
31
0.0
0
LINE
5
549
8
0-0
6
CONTINUOUS
62
  7
10
1051.486
20
477.405
30
0.0
11
1051.486
21
405.405
31
0.0
0
LINE
5
54a
8
0-0
6
CONTINUOUS
62
  7
10
786.487
20
431.405
30
0.0
11
1051.486
21
431.405
31
0.0
0
LINE
5
54b
8
0-0
6
CONTINUOUS
62
  7
10
1051.486
20
430.405
30
0.0
11
1081.487
21
430.405
31
0.0
0
LINE
5
54c
8
0-0
6
CONTINUOUS
62
  7
10
1051.486
20
421.405
30
0.0
11
1081.487
21
421.405
31
0.0
0
LINE
5
54d
8
0-0
6
CONTINUOUS
62
  7
10
1081.487
20
455.405
30
0.0
11
1081.487
21
421.405
31
0.0
0
LINE
5
54e
8
0-0
6
CONTINUOUS
62
  7
10
1063.986
20
436.930
30
0.0
11
1068.986
21
436.930
31
0.0
0
LINE
5
54f
8
0-0
6
CONTINUOUS
62
  7
10
1063.986
20
458.905
30
0.0
11
1063.986
21
436.930
31
0.0
0
LINE
5
550
8
0-0
6
CONTINUOUS
62
  7
10
1068.986
20
457.905
30
0.0
11
1068.986
21
436.930
31
0.0
0
LINE
5
551
8
0-0
6
CONTINUOUS
62
  7
10
1063.986
20
456.003
30
0.0
11
1068.986
21
455.003
31
0.0
0
LINE
5
552
8
0-0
6
CONTINUOUS
62
  7
10
1051.486
20
461.405
30
0.0
11
1063.986
21
458.905
31
0.0
0
LINE
5
553
8
0-0
6
CONTINUOUS
62
  7
10
1068.986
20
457.905
30
0.0
11
1081.487
21
455.405
31
0.0
0
LINE
5
554
8
0-0
6
CONTINUOUS
62
  7
10
490.932
20
981.068
30
0.0
11
464.932
21
981.068
31
0.0
0
LINE
5
555
8
0-0
6
CONTINUOUS
62
  7
10
490.932
20
754.068
30
0.0
11
464.932
21
754.068
31
0.0
0
LINE
5
556
8
0-0
6
CONTINUOUS
62
  7
10
472.932
20
961.068
30
0.0
11
483.584
21
955.043
31
0.0
0
LINE
5
557
8
0-0
6
CONTINUOUS
62
  7
10
483.584
20
955.043
30
0.0
11
509.862
21
921.844
31
0.0
0
LINE
5
558
8
0-0
6
CONTINUOUS
62
  7
10
464.932
20
981.068
30
0.0
11
464.932
21
973.068
31
0.0
0
LINE
5
559
8
0-0
6
CONTINUOUS
62
  7
10
472.932
20
965.181
30
0.0
11
472.932
21
961.068
31
0.0
0
LINE
5
55a
8
0-0
6
CONTINUOUS
62
  7
10
490.932
20
754.068
30
0.0
11
464.932
21
754.068
31
0.0
0
LINE
5
55b
8
0-0
6
CONTINUOUS
62
  7
10
472.932
20
774.068
30
0.0
11
483.584
21
780.093
31
0.0
0
LINE
5
55c
8
0-0
6
CONTINUOUS
62
  7
10
483.584
20
780.093
30
0.0
11
509.862
21
813.292
31
0.0
0
LINE
5
55d
8
0-0
6
CONTINUOUS
62
  7
10
464.932
20
754.068
30
0.0
11
464.932
21
762.068
31
0.0
0
LINE
5
55e
8
0-0
6
CONTINUOUS
62
  7
10
472.932
20
769.954
30
0.0
11
472.932
21
774.068
31
0.0
0
LINE
5
55f
8
0-0
6
CONTINUOUS
62
  7
10
464.932
20
762.068
30
0.0
11
464.932
21
754.068
31
0.0
0
LINE
5
560
8
0-0
6
CONTINUOUS
62
  7
10
472.932
20
774.068
30
0.0
11
472.932
21
769.954
31
0.0
0
LINE
5
561
8
0-0
6
CONTINUOUS
62
  7
10
1411.906
20
981.068
30
0.0
11
1437.906
21
981.068
31
0.0
0
LINE
5
562
8
0-0
6
CONTINUOUS
62
  7
10
1411.906
20
754.068
30
0.0
11
1437.906
21
754.068
31
0.0
0
LINE
5
563
8
0-0
6
CONTINUOUS
62
  7
10
1411.906
20
754.068
30
0.0
11
1437.906
21
754.068
31
0.0
0
LINE
5
564
8
0-0
6
CONTINUOUS
62
  7
10
1437.906
20
754.068
30
0.0
11
1437.906
21
762.068
31
0.0
0
LINE
5
565
8
0-0
6
CONTINUOUS
62
  7
10
1437.906
20
762.068
30
0.0
11
1437.906
21
754.068
31
0.0
0
LINE
5
566
8
0-0
6
CONTINUOUS
62
  7
10
1412.906
20
935.068
30
0.0
11
1421.906
21
935.068
31
0.0
0
LINE
5
567
8
0-0
6
CONTINUOUS
62
  7
10
1412.906
20
800.068
30
0.0
11
1421.906
21
800.068
31
0.0
0
LINE
5
568
8
0-0
6
CONTINUOUS
62
  7
10
1437.906
20
981.068
30
0.0
11
1437.906
21
973.068
31
0.0
0
LINE
5
569
8
0-0
6
CONTINUOUS
62
  7
10
1421.906
20
927.568
30
0.0
11
1421.906
21
935.068
31
0.0
0
LINE
5
56a
8
0-0
6
CONTINUOUS
62
  7
10
1421.906
20
800.068
30
0.0
11
1421.906
21
807.568
31
0.0
0
LINE
5
56b
8
0-0
6
CONTINUOUS
62
  7
10
1411.906
20
754.068
30
0.0
11
1437.906
21
754.068
31
0.0
0
LINE
5
56c
8
0-0
6
CONTINUOUS
62
  7
10
1412.906
20
800.068
30
0.0
11
1421.906
21
800.068
31
0.0
0
LINE
5
56d
8
0-0
6
CONTINUOUS
62
  7
10
1437.906
20
754.068
30
0.0
11
1437.906
21
762.068
31
0.0
0
LINE
5
56e
8
0-0
6
CONTINUOUS
62
  7
10
1421.906
20
807.568
30
0.0
11
1421.906
21
800.068
31
0.0
0
LINE
5
56f
8
0-0
6
CONTINUOUS
62
  7
10
1412.906
20
935.068
30
0.0
11
1414.135
21
927.568
31
0.0
0
LINE
5
570
8
0-0
6
CONTINUOUS
62
  7
10
1414.135
20
927.568
30
0.0
11
1421.906
21
927.568
31
0.0
0
LINE
5
571
8
0-0
6
CONTINUOUS
62
  7
10
1412.906
20
800.068
30
0.0
11
1414.135
21
807.568
31
0.0
0
LINE
5
572
8
0-0
6
CONTINUOUS
62
  7
10
1414.135
20
807.568
30
0.0
11
1421.906
21
807.568
31
0.0
0
LINE
5
573
8
0-0
6
CONTINUOUS
62
  7
10
1414.135
20
807.568
30
0.0
11
1421.906
21
807.568
31
0.0
0
LINE
5
574
8
0-0
6
CONTINUOUS
62
  7
10
464.932
20
1220.270
30
0.0
11
490.932
21
1220.270
31
0.0
0
LINE
5
575
8
0-0
6
CONTINUOUS
62
  7
10
464.932
20
1054.054
30
0.0
11
464.932
21
1220.270
31
0.0
0
LINE
5
576
8
0-0
6
CONTINUOUS
62
  7
10
490.932
20
1054.054
30
0.0
11
490.932
21
1220.270
31
0.0
0
LINE
5
577
8
0-0
6
CONTINUOUS
62
  7
10
786.487
20
1220.270
30
0.0
11
1051.486
21
1220.270
31
0.0
0
LINE
5
578
8
0-0
6
CONTINUOUS
62
  7
10
786.487
20
1054.054
30
0.0
11
786.487
21
1220.270
31
0.0
0
LINE
5
579
8
0-0
6
CONTINUOUS
62
  7
10
1051.486
20
1054.054
30
0.0
11
1051.486
21
1220.270
31
0.0
0
LINE
5
57a
8
0-0
6
CONTINUOUS
62
  7
10
1051.486
20
1220.270
30
0.0
11
1081.487
21
1220.270
31
0.0
0
LINE
5
57b
8
0-0
6
CONTINUOUS
62
  7
10
1081.487
20
1054.054
30
0.0
11
1081.487
21
1220.270
31
0.0
0
LINE
5
57c
8
0-0
6
CONTINUOUS
62
  7
10
1411.906
20
1220.270
30
0.0
11
1437.906
21
1220.270
31
0.0
0
LINE
5
57d
8
0-0
6
CONTINUOUS
62
  7
10
1411.906
20
1054.054
30
0.0
11
1411.906
21
1220.270
31
0.0
0
LINE
5
57e
8
0-0
6
CONTINUOUS
62
  7
10
1437.906
20
1054.054
30
0.0
11
1437.906
21
1220.270
31
0.0
0
LINE
5
57f
8
0-0
6
CONTINUOUS
62
  7
10
786.487
20
259.459
30
0.0
11
1051.486
21
259.459
31
0.0
0
LINE
5
580
8
0-0
6
CONTINUOUS
62
  7
10
786.487
20
360.811
30
0.0
11
786.487
21
259.459
31
0.0
0
LINE
5
581
8
0-0
6
CONTINUOUS
62
  7
10
1051.486
20
360.811
30
0.0
11
1051.486
21
259.459
31
0.0
0
LINE
5
582
8
0-0
6
CONTINUOUS
62
  7
10
1051.486
20
259.459
30
0.0
11
1081.487
21
259.459
31
0.0
0
LINE
5
583
8
0-0
6
CONTINUOUS
62
  7
10
1081.487
20
360.811
30
0.0
11
1081.487
21
259.459
31
0.0
0
LINE
5
584
8
0-0
6
CONTINUOUS
62
  7
10
318.987
20
754.068
30
0.0
11
318.987
21
981.068
31
0.0
0
LINE
5
585
8
0-0
6
CONTINUOUS
62
  7
10
424.392
20
754.068
30
0.0
11
318.987
21
754.068
31
0.0
0
LINE
5
586
8
0-0
6
CONTINUOUS
62
  7
10
424.392
20
981.068
30
0.0
11
318.987
21
981.068
31
0.0
0
LINE
5
587
8
0-0
6
CONTINUOUS
62
  7
10
1231.149
20
981.068
30
0.0
11
1231.149
21
754.068
31
0.0
0
LINE
5
588
8
0-0
6
CONTINUOUS
62
  7
10
1133.851
20
981.068
30
0.0
11
1231.149
21
981.068
31
0.0
0
LINE
5
589
8
0-0
6
CONTINUOUS
62
  7
10
1133.851
20
754.068
30
0.0
11
1231.149
21
754.068
31
0.0
0
LINE
5
58a
8
0-0
6
CONTINUOUS
62
  7
10
1231.149
20
405.405
30
0.0
11
1231.149
21
477.405
31
0.0
0
LINE
5
58b
8
0-0
6
CONTINUOUS
62
  7
10
1133.851
20
405.405
30
0.0
11
1231.149
21
405.405
31
0.0
0
LINE
5
58c
8
0-0
6
CONTINUOUS
62
  7
10
1133.851
20
477.405
30
0.0
11
1231.149
21
477.405
31
0.0
0
LINE
5
58d
8
0-0
6
CONTINUOUS
62
  7
10
1186.554
20
981.068
30
0.0
11
1186.554
21
927.568
31
0.0
0
LINE
5
58e
8
0-0
6
CONTINUOUS
62
  7
10
1133.851
20
981.068
30
0.0
11
1186.554
21
981.068
31
0.0
0
LINE
5
58f
8
0-0
6
CONTINUOUS
62
  7
10
1133.851
20
927.568
30
0.0
11
1186.554
21
927.568
31
0.0
0
LINE
5
590
8
0-0
6
CONTINUOUS
62
  7
10
1186.554
20
927.568
30
0.0
11
1186.554
21
807.568
31
0.0
0
LINE
5
591
8
0-0
6
CONTINUOUS
62
  7
10
1133.851
20
807.568
30
0.0
11
1186.554
21
807.568
31
0.0
0
LINE
5
592
8
0-0
6
CONTINUOUS
62
  7
10
1186.554
20
807.568
30
0.0
11
1186.554
21
754.068
31
0.0
0
LINE
5
593
8
0-0
6
CONTINUOUS
62
  7
10
1133.851
20
754.068
30
0.0
11
1186.554
21
754.068
31
0.0
0
LINE
5
594
8
ADD_LINE
6
HIDDEN
62
  3
10
728.446
20
867.568
30
0.0
11
833.851
21
867.568
31
0.0
0
CIRCLE
5
595
8
0-0
6
CONTINUOUS
62
  7
10
876.487
20
867.568
30
0.0
40
3.000
0
CIRCLE
5
596
8
0-0
6
CONTINUOUS
62
  7
10
906.487
20
867.568
30
0.0
40
3.000
0
ARC
5
597
8
0-0
6
CONTINUOUS
62
  7
10
432.114
20
867.568
30
0.0
40
104.819
50
325.081055
51
34.918930
0
ARC
5
598
8
0-0
6
CONTINUOUS
62
  7
10
593.429
20
999.413
30
0.0
40
104.125
50
190.147751
51
223.629425
0
ARC
5
599
8
0-0
6
CONTINUOUS
62
  7
10
593.429
20
735.722
30
0.0
40
104.125
50
136.370575
51
169.852249
0
ARC
5
59a
8
0-0
6
CONTINUOUS
62
  7
10
432.114
20
867.568
30
0.0
40
94.819
50
325.081055
51
34.918930
0
ARC
5
59b
8
0-0
6
CONTINUOUS
62
  7
10
464.932
20
965.068
30
0.0
40
8.000
50
0.814102
51
90.000000
0
ARC
5
59c
8
0-0
6
CONTINUOUS
62
  7
10
593.429
20
735.722
30
0.0
40
104.125
50
136.370575
51
169.852249
0
ARC
5
59d
8
0-0
6
CONTINUOUS
62
  7
10
464.932
20
770.068
30
0.0
40
8.000
50
270.000000
51
359.185913
0
ARC
5
59e
8
0-0
6
CONTINUOUS
62
  7
10
1470.724
20
867.568
30
0.0
40
104.819
50
505.081055
51
214.918930
0
ARC
5
59f
8
0-0
6
CONTINUOUS
62
  7
10
1309.409
20
999.413
30
0.0
40
104.125
50
316.370575
51
349.852234
0
ARC
5
5a0
8
0-0
6
CONTINUOUS
62
  7
10
1309.409
20
735.722
30
0.0
40
104.125
50
370.147766
51
403.629425
0
ARC
5
5a1
8
0-0
6
CONTINUOUS
62
  7
10
1309.409
20
735.722
30
0.0
40
104.125
50
370.147766
51
403.629425
0
ARC
5
5a2
8
0-0
6
CONTINUOUS
62
  7
10
1470.893
20
867.568
30
0.0
40
88.988
50
130.665070
51
229.334930
0
ARC
5
5a3
8
0-0
6
CONTINUOUS
62
  7
10
1505.260
20
922.340
30
0.0
40
84.321
50
143.014740
51
171.318115
0
ARC
5
5a4
8
0-0
6
CONTINUOUS
62
  7
10
1474.049
20
867.568
30
0.0
40
79.492
50
130.992599
51
229.007401
0
ARC
5
5a5
8
0-0
6
CONTINUOUS
62
  7
10
1309.409
20
735.722
30
0.0
40
104.125
50
370.147766
51
403.629425
0
ARC
5
5a6
8
0-0
6
CONTINUOUS
62
  7
10
1505.260
20
812.796
30
0.0
40
84.321
50
188.681885
51
216.985260
0
ARC
5
5a7
8
0-0
6
CONTINUOUS
62
  7
10
1469.900
20
867.568
30
0.0
40
81.913
50
132.904770
51
227.095230
0
CIRCLE
5
5a8
8
ADD_LINE
6
HIDDEN
62
  3
10
786.487
20
867.568
30
0.0
40
3.000
0
TEXT
5
5a9
100
AcDbEntity
8
0-0
62
7
100
AcDbText
10
471.682
20
1222.770
30
0.0
40
9.750
41
0.800
50
0.000
1
26
100
AcDbText
0
TEXT
5
5aa
100
AcDbEntity
8
0-0
62
7
100
AcDbText
10
909.612
20
1222.770
30
0.0
40
9.750
41
0.800
50
0.000
1
265
100
AcDbText
0
TEXT
5
5ab
100
AcDbEntity
8
0-0
62
7
100
AcDbText
10
1060.236
20
1222.770
30
0.0
40
9.750
41
0.800
50
0.000
1
30
100
AcDbText
0
TEXT
5
5ac
100
AcDbEntity
8
0-0
62
7
100
AcDbText
10
1418.656
20
1222.770
30
0.0
40
9.750
41
0.800
50
0.000
1
26
100
AcDbText
0
TEXT
5
5ad
100
AcDbEntity
8
0-0
62
7
100
AcDbText
10
909.612
20
261.959
30
0.0
40
9.750
41
0.800
50
0.000
1
265
100
AcDbText
0
TEXT
5
5ae
100
AcDbEntity
8
0-0
62
7
100
AcDbText
10
1060.236
20
261.959
30
0.0
40
9.750
41
0.800
50
0.000
1
30
100
AcDbText
0
TEXT
5
5af
100
AcDbEntity
8
0-0
62
7
100
AcDbText
10
316.487
20
858.193
30
0.0
40
9.750
41
0.800
50
90.000
1
227
100
AcDbText
0
TEXT
5
5b0
100
AcDbEntity
8
0-0
62
7
100
AcDbText
10
1228.649
20
858.193
30
0.0
40
9.750
41
0.800
50
90.000
1
227
100
AcDbText
0
TEXT
5
5b1
100
AcDbEntity
8
0-0
62
7
100
AcDbText
10
1228.649
20
435.155
30
0.0
40
9.750
41
0.800
50
90.000
1
72
100
AcDbText
0
TEXT
5
5b2
100
AcDbEntity
8
0-0
62
7
100
AcDbText
10
1184.054
20
941.818
30
0.0
40
9.750
41
0.800
50
90.000
1
53.5
100
AcDbText
0
TEXT
5
5b3
100
AcDbEntity
8
0-0
62
7
100
AcDbText
10
1184.054
20
858.193
30
0.0
40
9.750
41
0.800
50
90.000
1
120
100
AcDbText
0
TEXT
5
5b4
100
AcDbEntity
8
0-0
62
7
100
AcDbText
10
1184.054
20
768.318
30
0.0
40
9.750
41
0.800
50
90.000
1
53.5
100
AcDbText
0
POINT
5
5b5
8
0-0
62
  7
10
464.932
20
1220.270
30
0.0
0
POINT
5
5b6
8
0-0
62
  7
10
490.932
20
1220.270
30
0.0
0
POINT
5
5b7
8
0-0
62
  7
10
786.487
20
1220.270
30
0.0
0
POINT
5
5b8
8
0-0
62
  7
10
1051.486
20
1220.270
30
0.0
0
POINT
5
5b9
8
0-0
62
  7
10
1081.487
20
1220.270
30
0.0
0
POINT
5
5ba
8
0-0
62
  7
10
1411.906
20
1220.270
30
0.0
0
POINT
5
5bb
8
0-0
62
  7
10
1437.906
20
1220.270
30
0.0
0
POINT
5
5bc
8
0-0
62
  7
10
786.487
20
259.459
30
0.0
0
POINT
5
5bd
8
0-0
62
  7
10
1051.486
20
259.459
30
0.0
0
POINT
5
5be
8
0-0
62
  7
10
1081.487
20
259.459
30
0.0
0
POINT
5
5bf
8
0-0
62
  7
10
318.987
20
754.068
30
0.0
0
POINT
5
5c0
8
0-0
62
  7
10
318.987
20
981.068
30
0.0
0
POINT
5
5c1
8
0-0
62
  7
10
1231.149
20
981.068
30
0.0
0
POINT
5
5c2
8
0-0
62
  7
10
1231.149
20
754.068
30
0.0
0
POINT
5
5c3
8
0-0
62
  7
10
1231.149
20
405.405
30
0.0
0
POINT
5
5c4
8
0-0
62
  7
10
1231.149
20
477.405
30
0.0
0
POINT
5
5c5
8
0-0
62
  7
10
1186.554
20
981.068
30
0.0
0
POINT
5
5c6
8
0-0
62
  7
10
1186.554
20
927.568
30
0.0
0
POINT
5
5c7
8
0-0
62
  7
10
1186.554
20
807.568
30
0.0
0
POINT
5
5c8
8
0-0
62
  7
10
1186.554
20
754.068
30
0.0
0
ENDSEC
0
EOF
