0
SECTION
2
HEADER
  9
$EXTMIN
10
0
20
0
30
0
  9
$EXTMAX
10
1504.054
20
1331.987
30
0
  9
$LTSCALE
40
5.000
  9
$DIMSCALE
40
5.000
  9
$PDMODE
70
0
  9
$PDSIZE
40
40
0
ENDSEC
0
SECTION
2
TABLES
0
TABLE
2
LTYPE
70
9
0
LTYPE
5
1f4
2
CONTINUOUS
70
0
3
実線
72
65
73
0
40
0.0
0
LTYPE
5
1f5
2
DOT
70
0
3
--  --  --  --  --  --  --  --     
72
65
73
2
40
5.000
49
1.000
49
-4.000
0
LTYPE
5
1f6
2
DASHED
70
0
3
----    ----    ----    ----    
72
65
73
2
40
5.000
49
2.000
49
-3.000
0
LTYPE
5
1f7
2
DASHED2
70
0
3
------  ------  ------  ------ 
72
65
73
2
40
10.000
49
4.000
49
-6.000
0
LTYPE
5
1f8
2
CENTER
70
0
3
----- - ----- - ----- - ----- - 
72
65
73
4
40
9.000
49
6.000
49
-1.000
49
1.000
49
-1.000
0
LTYPE
5
1f9
2
CENTER2
70
0
3
----------  --  ----------  -- 
72
65
73
4
40
18.000
49
12.000
49
-2.000
49
2.000
49
-2.000
0
LTYPE
5
1fa
2
PHANTOM
70
0
3
--- - - --- - - --- - - --- - -
72
65
73
6
40
10.000
49
5.000
49
-1.000
49
1.000
49
-1.000
49
1.000
49
-1.000
0
LTYPE
5
1fb
2
PHANTOM2
70
0
3
--------  -  -  --------  -  -
72
65
73
6
40
16.000
49
6.000
49
-2.000
49
2.000
49
-2.000
49
2.000
49
-2.000
0
LTYPE
5
1fc
2
HIDDEN
70
0
3
-   -   -   -   -   -   -   -   
72
65
73
2
40
2.500
49
0.500
49
-2.000
0
ENDTAB
0
TABLE
2
STYLE
70
1
0
STYLE
5
1fd
100
AcDbSymbolTableRecord
100
AcDbTextStyleTableRecord
2
STANDARD
70
0
40
0.0
41
1.0
50
0.0
71
0
42
0.0
3
txt.shx
4
extfont.shx
0
STYLE
5
1fe
100
AcDbSymbolTableRecord
100
AcDbTextStyleTableRecord
2
TATEGAKI
70
4
40
0.0
41
1.0
50
0.0
71
0
42
0.0
3
txt.shx
4
extfont.shx
0
STYLE
5
1ff
100
AcDbSymbolTableRecord
100
AcDbTextStyleTableRecord
2
MT
70
0
40
0.0
41
1.0
50
0.0
71
0
42
0.0
3
MS Mincho
4

0
STYLE
5
200
100
AcDbSymbolTableRecord
100
AcDbTextStyleTableRecord
2
TMT
70
4
40
0.0
41
1.0
50
0.0
71
0
42
0.0
3
@MS Mincho
4

0
ENDTAB
0
TABLE
2
LAYER
5
1193
100
AcDbSymbolTable
70
10
0
LAYER
5
1194
100
AcDbSymbolTableRecord
100
AcDbLayerTableRecord
2
0
70
64
62
  7
  6
CONTINUOUS
0
LAYER
5
1195
100
AcDbSymbolTableRecord
100
AcDbLayerTableRecord
2
0-0
70
64
62
  7
  6
CONTINUOUS
0
LAYER
5
1196
100
AcDbSymbolTableRecord
100
AcDbLayerTableRecord
2
0-1
70
64
62
  7
  6
CONTINUOUS
0
LAYER
5
1197
100
AcDbSymbolTableRecord
100
AcDbLayerTableRecord
2
0-2
70
64
62
  7
  6
CONTINUOUS
0
LAYER
5
1198
100
AcDbSymbolTableRecord
100
AcDbLayerTableRecord
2
ADD_LINE
70
64
62
  -7
  6
CONTINUOUS
0
ENDTAB
0
ENDSEC
0
SECTION
2
ENTITIES
0
LINE
5
1199
8
0-0
6
CONTINUOUS
62
  7
10
820.946
20
365.332
30
0.0
11
842.198
21
378.332
31
0.0
0
LINE
5
119a
8
0-0
6
CONTINUOUS
62
  7
10
965.042
20
315.332
30
0.0
11
982.489
21
315.332
31
0.0
0
LINE
5
119b
8
0-0
6
CONTINUOUS
62
  7
10
970.946
20
365.332
30
0.0
11
982.489
21
315.332
31
0.0
0
LINE
5
119c
8
0-0
6
CONTINUOUS
62
  7
10
954.210
20
362.251
30
0.0
11
965.042
21
315.332
31
0.0
0
LINE
5
119d
8
0-0
6
CONTINUOUS
62
  7
10
820.946
20
689.189
30
0.0
11
982.489
21
689.189
31
0.0
0
LINE
5
119e
8
0-0
6
CONTINUOUS
62
  7
10
840.946
20
1271.487
30
0.0
11
862.331
21
1258.487
31
0.0
0
LINE
5
119f
8
0-0
6
CONTINUOUS
62
  7
10
960.873
20
999.189
30
0.0
11
982.489
21
689.189
31
0.0
0
LINE
5
11a0
8
0-0
6
CONTINUOUS
62
  7
10
853.946
20
969.189
30
0.0
11
883.946
21
969.189
31
0.0
0
LINE
5
11a1
8
0-0
6
CONTINUOUS
62
  7
10
853.946
20
969.189
30
0.0
11
853.946
21
949.189
31
0.0
0
LINE
5
11a2
8
0-0
6
CONTINUOUS
62
  7
10
837.720
20
949.189
30
0.0
11
853.946
21
949.189
31
0.0
0
LINE
5
11a3
8
0-0
6
CONTINUOUS
62
  7
10
837.720
20
949.189
30
0.0
11
820.946
21
689.189
31
0.0
0
LINE
5
11a4
8
0-0
6
CONTINUOUS
62
  7
10
883.946
20
999.189
30
0.0
11
883.946
21
969.189
31
0.0
0
LINE
5
11a5
8
0-0
6
CONTINUOUS
62
  7
10
883.946
20
999.189
30
0.0
11
960.873
21
999.189
31
0.0
0
LINE
5
11a6
8
0-0
6
CONTINUOUS
62
  7
10
960.873
20
1314.487
30
0.0
11
950.378
21
1267.262
31
0.0
0
LINE
5
11a7
8
0-0
6
CONTINUOUS
62
  7
10
943.458
20
1314.487
30
0.0
11
933.783
21
1270.951
31
0.0
0
LINE
5
11a8
8
0-0
6
CONTINUOUS
62
  7
10
943.458
20
1314.487
30
0.0
11
960.873
21
1314.487
31
0.0
0
LINE
5
11a9
8
0-0
6
CONTINUOUS
62
  7
10
1200.000
20
999.189
30
0.0
11
1200.000
21
689.189
31
0.0
0
LINE
5
11aa
8
0-0
6
CONTINUOUS
62
  7
10
1200.000
20
999.189
30
0.0
11
1293.000
21
999.189
31
0.0
0
LINE
5
11ab
8
0-0
6
CONTINUOUS
62
  7
10
1200.000
20
689.189
30
0.0
11
1315.000
21
689.189
31
0.0
0
LINE
5
11ac
8
0-0
6
CONTINUOUS
62
  7
10
1293.000
20
999.189
30
0.0
11
1315.000
21
689.189
31
0.0
0
LINE
5
11ad
8
0-0
6
CONTINUOUS
62
  7
10
591.892
20
999.189
30
0.0
11
591.892
21
689.189
31
0.0
0
LINE
5
11ae
8
0-0
6
CONTINUOUS
62
  7
10
591.892
20
999.189
30
0.0
11
498.892
21
999.189
31
0.0
0
LINE
5
11af
8
0-0
6
CONTINUOUS
62
  7
10
591.892
20
689.189
30
0.0
11
476.892
21
689.189
31
0.0
0
LINE
5
11b0
8
0-0
6
CONTINUOUS
62
  7
10
498.892
20
999.189
30
0.0
11
476.892
21
689.189
31
0.0
0
LINE
5
11b1
8
0-0
6
CONTINUOUS
62
  7
10
572.892
20
999.189
30
0.0
11
572.892
21
969.189
31
0.0
0
LINE
5
11b2
8
0-0
6
CONTINUOUS
62
  7
10
539.473
20
949.189
30
0.0
11
526.892
21
689.189
31
0.0
0
LINE
5
11b3
8
0-0
6
CONTINUOUS
62
  7
10
569.508
20
949.189
30
0.0
11
539.473
21
949.189
31
0.0
0
LINE
5
11b4
8
0-0
6
CONTINUOUS
62
  7
10
570.475
20
969.189
30
0.0
11
569.508
21
949.189
31
0.0
0
LINE
5
11b5
8
0-0
6
CONTINUOUS
62
  7
10
590.892
20
969.189
30
0.0
11
570.475
21
969.189
31
0.0
0
LINE
5
11b6
8
0-0
6
CONTINUOUS
62
  7
10
590.892
20
999.189
30
0.0
11
590.892
21
969.189
31
0.0
0
LINE
5
11b7
8
ADD_LINE
6
HIDDEN
62
  3
10
895.946
20
595.946
30
0.0
11
895.946
21
1313.514
31
0.0
0
LINE
5
11b8
8
ADD_LINE
6
HIDDEN
62
  3
10
895.946
20
595.946
30
0.0
11
895.946
21
340.541
31
0.0
0
LINE
5
11b9
8
ADD_LINE
6
HIDDEN
62
  3
10
741.892
20
365.332
30
0.0
11
1090.541
21
365.332
31
0.0
0
LINE
5
11ba
8
0-0
6
CONTINUOUS
62
  7
10
853.946
20
1240.840
30
0.0
11
882.736
21
1240.840
31
0.0
0
LINE
5
11bb
8
0-0
6
CONTINUOUS
62
  7
10
883.946
20
1222.806
30
0.0
11
883.946
21
1240.418
31
0.0
0
LINE
5
11bc
8
0-2
6
CONTINUOUS
62
  7
10
498.892
20
1118.919
30
0.0
11
591.892
21
1118.919
31
0.0
0
LINE
5
11bd
8
0-2
6
CONTINUOUS
62
  7
10
498.892
20
1041.892
30
0.0
11
498.892
21
1118.919
31
0.0
0
LINE
5
11be
8
0-2
6
CONTINUOUS
62
  7
10
591.892
20
1041.892
30
0.0
11
591.892
21
1118.919
31
0.0
0
LINE
5
11bf
8
0-2
6
CONTINUOUS
62
  7
10
837.720
20
1118.919
30
0.0
11
960.873
21
1118.919
31
0.0
0
LINE
5
11c0
8
0-2
6
CONTINUOUS
62
  7
10
837.720
20
1041.892
30
0.0
11
837.720
21
1118.919
31
0.0
0
LINE
5
11c1
8
0-2
6
CONTINUOUS
62
  7
10
960.873
20
1041.892
30
0.0
11
960.873
21
1118.919
31
0.0
0
LINE
5
11c2
8
0-2
6
CONTINUOUS
62
  7
10
1200.000
20
1118.919
30
0.0
11
1293.000
21
1118.919
31
0.0
0
LINE
5
11c3
8
0-2
6
CONTINUOUS
62
  7
10
1200.000
20
1041.892
30
0.0
11
1200.000
21
1118.919
31
0.0
0
LINE
5
11c4
8
0-2
6
CONTINUOUS
62
  7
10
1293.000
20
1041.892
30
0.0
11
1293.000
21
1118.919
31
0.0
0
LINE
5
11c5
8
0-2
6
CONTINUOUS
62
  7
10
526.892
20
583.784
30
0.0
11
591.892
21
583.784
31
0.0
0
LINE
5
11c6
8
0-2
6
CONTINUOUS
62
  7
10
526.892
20
656.757
30
0.0
11
526.892
21
583.784
31
0.0
0
LINE
5
11c7
8
0-2
6
CONTINUOUS
62
  7
10
591.892
20
656.757
30
0.0
11
591.892
21
583.784
31
0.0
0
LINE
5
11c8
8
0-2
6
CONTINUOUS
62
  7
10
820.946
20
583.784
30
0.0
11
982.489
21
583.784
31
0.0
0
LINE
5
11c9
8
0-2
6
CONTINUOUS
62
  7
10
820.946
20
656.757
30
0.0
11
820.946
21
583.784
31
0.0
0
LINE
5
11ca
8
0-2
6
CONTINUOUS
62
  7
10
982.489
20
656.757
30
0.0
11
982.489
21
583.784
31
0.0
0
LINE
5
11cb
8
0-2
6
CONTINUOUS
62
  7
10
1200.000
20
583.784
30
0.0
11
1315.000
21
583.784
31
0.0
0
LINE
5
11cc
8
0-2
6
CONTINUOUS
62
  7
10
1200.000
20
656.757
30
0.0
11
1200.000
21
583.784
31
0.0
0
LINE
5
11cd
8
0-2
6
CONTINUOUS
62
  7
10
1315.000
20
656.757
30
0.0
11
1315.000
21
583.784
31
0.0
0
LINE
5
11ce
8
0-2
6
CONTINUOUS
62
  7
10
820.946
20
513.264
30
0.0
11
970.946
21
513.264
31
0.0
0
LINE
5
11cf
8
0-2
6
CONTINUOUS
62
  7
10
820.946
20
448.760
30
0.0
11
820.946
21
513.264
31
0.0
0
LINE
5
11d0
8
0-2
6
CONTINUOUS
62
  7
10
970.946
20
448.760
30
0.0
11
970.946
21
513.264
31
0.0
0
LINE
5
11d1
8
0-2
6
CONTINUOUS
62
  7
10
820.946
20
200.664
30
0.0
11
982.489
21
200.664
31
0.0
0
LINE
5
11d2
8
0-2
6
CONTINUOUS
62
  7
10
820.946
20
292.459
30
0.0
11
820.946
21
200.664
31
0.0
0
LINE
5
11d3
8
0-2
6
CONTINUOUS
62
  7
10
982.489
20
292.459
30
0.0
11
982.489
21
200.664
31
0.0
0
LINE
5
11d4
8
0-2
6
CONTINUOUS
62
  7
10
965.042
20
247.802
30
0.0
11
982.489
21
247.802
31
0.0
0
LINE
5
11d5
8
0-2
6
CONTINUOUS
62
  7
10
965.042
20
292.459
30
0.0
11
965.042
21
247.802
31
0.0
0
LINE
5
11d6
8
0-2
6
CONTINUOUS
62
  7
10
982.489
20
292.459
30
0.0
11
982.489
21
247.802
31
0.0
0
LINE
5
11d7
8
0-2
6
CONTINUOUS
62
  7
10
681.979
20
999.189
30
0.0
11
681.979
21
689.189
31
0.0
0
LINE
5
11d8
8
0-2
6
CONTINUOUS
62
  7
10
781.643
20
999.189
30
0.0
11
681.979
21
999.189
31
0.0
0
LINE
5
11d9
8
0-2
6
CONTINUOUS
62
  7
10
781.643
20
689.189
30
0.0
11
681.979
21
689.189
31
0.0
0
LINE
5
11da
8
0-2
6
CONTINUOUS
62
  7
10
681.979
20
430.332
30
0.0
11
681.979
21
365.332
31
0.0
0
LINE
5
11db
8
0-2
6
CONTINUOUS
62
  7
10
781.643
20
430.332
30
0.0
11
681.979
21
430.332
31
0.0
0
LINE
5
11dc
8
0-2
6
CONTINUOUS
62
  7
10
781.643
20
365.332
30
0.0
11
681.979
21
365.332
31
0.0
0
LINE
5
11dd
8
0-2
6
CONTINUOUS
62
  7
10
1118.919
20
430.332
30
0.0
11
1118.919
21
315.332
31
0.0
0
LINE
5
11de
8
0-2
6
CONTINUOUS
62
  7
10
1025.676
20
430.332
30
0.0
11
1118.919
21
430.332
31
0.0
0
LINE
5
11df
8
0-2
6
CONTINUOUS
62
  7
10
1025.676
20
315.332
30
0.0
11
1118.919
21
315.332
31
0.0
0
LINE
5
11e0
8
0-2
6
CONTINUOUS
62
  7
10
1118.919
20
1314.487
30
0.0
11
1118.919
21
1221.487
31
0.0
0
LINE
5
11e1
8
0-2
6
CONTINUOUS
62
  7
10
1025.676
20
1314.487
30
0.0
11
1118.919
21
1314.487
31
0.0
0
LINE
5
11e2
8
0-2
6
CONTINUOUS
62
  7
10
1025.676
20
1221.487
30
0.0
11
1118.919
21
1221.487
31
0.0
0
LINE
5
11e3
8
ADD_LINE
6
HIDDEN
62
  3
10
970.946
20
422.830
30
0.0
11
970.946
21
338.490
31
0.0
0
LINE
5
11e4
8
0-2
6
CONTINUOUS
62
  7
10
1504.054
20
999.189
30
0.0
11
1504.054
21
689.189
31
0.0
0
LINE
5
11e5
8
0-2
6
CONTINUOUS
62
  7
10
1398.649
20
999.189
30
0.0
11
1504.054
21
999.189
31
0.0
0
LINE
5
11e6
8
0-2
6
CONTINUOUS
62
  7
10
1398.649
20
689.189
30
0.0
11
1504.054
21
689.189
31
0.0
0
ARC
5
11e7
8
0-0
6
CONTINUOUS
62
  7
10
895.946
20
354.563
30
0.0
40
75.769
50
8.171249
51
171.828751
0
ARC
5
11e8
8
0-0
6
CONTINUOUS
62
  7
10
895.946
20
354.563
30
0.0
40
58.769
50
7.517105
51
156.143311
0
ARC
5
11e9
8
0-0
6
CONTINUOUS
62
  7
10
895.946
20
1276.737
30
0.0
40
55.250
50
185.452545
51
350.126038
0
ARC
5
11ea
8
0-0
6
CONTINUOUS
62
  7
10
895.946
20
1276.737
30
0.0
40
38.250
50
208.497620
51
351.305603
0
CIRCLE
5
11eb
8
0-0
6
CONTINUOUS
62
  7
10
895.946
20
974.189
30
0.0
40
3.000
0
CIRCLE
5
11ec
8
0-0
6
CONTINUOUS
62
  7
10
895.946
20
789.189
30
0.0
40
3.000
0
CIRCLE
5
11ed
8
0-0
6
CONTINUOUS
62
  7
10
1273.260
20
924.189
30
0.0
40
3.000
0
CIRCLE
5
11ee
8
0-0
6
CONTINUOUS
62
  7
10
1283.550
20
779.189
30
0.0
40
3.000
0
CIRCLE
5
11ef
8
0-0
6
CONTINUOUS
62
  7
10
518.632
20
924.189
30
0.0
40
3.000
0
CIRCLE
5
11f0
8
0-0
6
CONTINUOUS
62
  7
10
508.342
20
779.189
30
0.0
40
3.000
0
CIRCLE
5
11f1
8
ADD_LINE
6
HIDDEN
62
  3
10
895.946
20
365.332
30
0.0
40
3.000
0
CIRCLE
5
11f2
8
ADD_LINE
6
HIDDEN
62
  3
10
895.946
20
689.189
30
0.0
40
3.000
0
TEXT
5
11f3
100
AcDbEntity
8
0-2
62
7
100
AcDbText
10
539.142
20
1121.419
30
0.0
40
9.750
41
0.800
50
0.000
1
93
100
AcDbText
0
TEXT
5
11f4
100
AcDbEntity
8
0-2
62
7
100
AcDbText
10
889.922
20
1121.419
30
0.0
40
9.750
41
0.800
50
0.000
1
123
100
AcDbText
0
TEXT
5
11f5
100
AcDbEntity
8
0-2
62
7
100
AcDbText
10
1240.250
20
1121.419
30
0.0
40
9.750
41
0.800
50
0.000
1
93
100
AcDbText
0
TEXT
5
11f6
100
AcDbEntity
8
0-2
62
7
100
AcDbText
10
553.142
20
586.284
30
0.0
40
9.750
41
0.800
50
0.000
1
65
100
AcDbText
0
TEXT
5
11f7
100
AcDbEntity
8
0-2
62
7
100
AcDbText
10
892.343
20
586.284
30
0.0
40
9.750
41
0.800
50
0.000
1
162
100
AcDbText
0
TEXT
5
11f8
100
AcDbEntity
8
0-2
62
7
100
AcDbText
10
1248.125
20
586.284
30
0.0
40
9.750
41
0.800
50
0.000
1
115
100
AcDbText
0
TEXT
5
11f9
100
AcDbEntity
8
0-2
62
7
100
AcDbText
10
886.571
20
515.764
30
0.0
40
9.750
41
0.800
50
0.000
1
150
100
AcDbText
0
TEXT
5
11fa
100
AcDbEntity
8
0-2
62
7
100
AcDbText
10
892.343
20
203.164
30
0.0
40
9.750
41
0.800
50
0.000
1
162
100
AcDbText
0
TEXT
5
11fb
100
AcDbEntity
8
0-2
62
7
100
AcDbText
10
967.516
20
250.302
30
0.0
40
9.750
41
0.800
50
0.000
1
17
100
AcDbText
0
TEXT
5
11fc
100
AcDbEntity
8
0-2
62
7
100
AcDbText
10
679.479
20
834.814
30
0.0
40
9.750
41
0.800
50
90.000
1
310
100
AcDbText
0
TEXT
5
11fd
100
AcDbEntity
8
0-2
62
7
100
AcDbText
10
679.479
20
391.582
30
0.0
40
9.750
41
0.800
50
90.000
1
65
100
AcDbText
0
TEXT
5
11fe
100
AcDbEntity
8
0-2
62
7
100
AcDbText
10
1116.419
20
363.457
30
0.0
40
9.750
41
0.800
50
90.000
1
115
100
AcDbText
0
TEXT
5
11ff
100
AcDbEntity
8
0-2
62
7
100
AcDbText
10
1116.419
20
1261.737
30
0.0
40
9.750
41
0.800
50
90.000
1
93
100
AcDbText
0
TEXT
5
1200
100
AcDbEntity
8
0-2
62
7
100
AcDbText
10
1501.554
20
834.814
30
0.0
40
9.750
41
0.800
50
90.000
1
310
100
AcDbText
0
POINT
5
1201
8
0-2
62
  7
10
498.892
20
1118.919
30
0.0
0
POINT
5
1202
8
0-2
62
  7
10
591.892
20
1118.919
30
0.0
0
POINT
5
1203
8
0-2
62
  7
10
837.720
20
1118.919
30
0.0
0
POINT
5
1204
8
0-2
62
  7
10
960.873
20
1118.919
30
0.0
0
POINT
5
1205
8
0-2
62
  7
10
1200.000
20
1118.919
30
0.0
0
POINT
5
1206
8
0-2
62
  7
10
1293.000
20
1118.919
30
0.0
0
POINT
5
1207
8
0-2
62
  7
10
526.892
20
583.784
30
0.0
0
POINT
5
1208
8
0-2
62
  7
10
591.892
20
583.784
30
0.0
0
POINT
5
1209
8
0-2
62
  7
10
820.946
20
583.784
30
0.0
0
POINT
5
120a
8
0-2
62
  7
10
982.489
20
583.784
30
0.0
0
POINT
5
120b
8
0-2
62
  7
10
1200.000
20
583.784
30
0.0
0
POINT
5
120c
8
0-2
62
  7
10
1315.000
20
583.784
30
0.0
0
POINT
5
120d
8
0-2
62
  7
10
820.946
20
513.264
30
0.0
0
POINT
5
120e
8
0-2
62
  7
10
970.946
20
513.264
30
0.0
0
POINT
5
120f
8
0-2
62
  7
10
820.946
20
200.664
30
0.0
0
POINT
5
1210
8
0-2
62
  7
10
982.489
20
200.664
30
0.0
0
POINT
5
1211
8
0-2
62
  7
10
965.042
20
247.802
30
0.0
0
POINT
5
1212
8
0-2
62
  7
10
982.489
20
247.802
30
0.0
0
POINT
5
1213
8
0-2
62
  7
10
681.979
20
999.189
30
0.0
0
POINT
5
1214
8
0-2
62
  7
10
681.979
20
689.189
30
0.0
0
POINT
5
1215
8
0-2
62
  7
10
681.979
20
430.332
30
0.0
0
POINT
5
1216
8
0-2
62
  7
10
681.979
20
365.332
30
0.0
0
POINT
5
1217
8
0-2
62
  7
10
1118.919
20
430.332
30
0.0
0
POINT
5
1218
8
0-2
62
  7
10
1118.919
20
315.332
30
0.0
0
POINT
5
1219
8
0-2
62
  7
10
1118.919
20
1314.487
30
0.0
0
POINT
5
121a
8
0-2
62
  7
10
1118.919
20
1221.487
30
0.0
0
POINT
5
121b
8
0-2
62
  7
10
1504.054
20
999.189
30
0.0
0
POINT
5
121c
8
0-2
62
  7
10
1504.054
20
689.189
30
0.0
0
ENDSEC
0
EOF
