  0
SECTION
  2
HEADER
  9
$ACADVER
  1
AC1009
  9
$INSBASE
 10
0
 20
0
 30
0
  9
$EXTMIN
 10
0
 20
0
  9
$EXTMAX
 10
420
 20
297
  9
$LIMMIN
 10
0
 20
0
  9
$LIMMAX
 10
420
 20
297
  9
$LTSCALE
 40
1
  0
ENDSEC
  0
SECTION
  2
TABLES
  0
TABLE
  2
LTYPE
 70
     9
  0
LTYPE
  2
CONTINUOUS
 70
    64
  3
実線
 72
    65
 73
     0
 40
0.0
  0
LTYPE
  2
DASHED1
 70
    64
  3
--  --  --  --  --  --  --  --  
 72
    65
 73
     2
 40
2.5
 49
1.25
 49
-1.25
  0
LTYPE
  2
DASHED2
 70
    64
  3
----    ----    ----    ----    
 72
    65
 73
     2
 40
5.0
 49
2.5
 49
-2.5
  0
LTYPE
  2
DASHED3
 70
    64
  3
------  ------  ------  ------  
 72
    65
 73
     2
 40
5.0
 49
3.75
 49
-1.25
  0
LTYPE
  2
CENTER1
 70
    64
  3
----- - ----- - ----- - ----- - 
 72
    65
 73
     4
 40
10.0
 49
6.25
 49
-1.25
 49
1.25
 49
-1.25
  0
LTYPE
  2
CENTER2
 70
    64
  3
----------  --  ----------  --  
 72
    65
 73
     4
 40
20.0
 49
12.5
 49
-2.5
 49
2.5
 49
-2.5
  0
LTYPE
  2
PHANTOM1
 70
    64
  3
--- - - --- - - --- - - --- - - 
 72
    65
 73
     6
 40
10.0
 49
3.25
 49
-1.25
 49
1.25
 49
-1.25
 49
1.25
 49
-1.25
  0
LTYPE
  2
PHANTOM2
 70
    64
  3
--------  -  -  --------  -  -  
 72
    65
 73
     6
 40
20.0
 49
10.0
 49
-2.5
 49
1.25
 49
-2.5
 49
1.25
 49
-2.5
  0
LTYPE
  2
DOT
 70
    64
  3
-   -   -   -   -   -   -   -   
 72
    65
 73
     2
 40
2.5
 49
0.625
 49
-1.875
  0
LTYPE
  2
DUMMY
 70
    64
  3
ダミー
 72
    65
 73
     0
 40
0.0
  0
LTYPE
  2
RAND1
 70
    64
  3
ランダム線1
 72
    65
 73
     4
 40
10.0
 49
1.0
 49
-2.0
 49
3.0
 49
-4.0
  0
LTYPE
  2
RAND2
 70
    64
  3
ランダム線2
 72
    65
 73
     4
 40
14.0
 49
2.0
 49
-3.0
 49
4.0
 49
-5.0
  0
LTYPE
  2
RAND3
 70
    64
  3
ランダム線3
 72
    65
 73
     4
 40
18.0
 49
3.0
 49
-4.0
 49
5.0
 49
-6.0
  0
LTYPE
  2
RAND4
 70
    64
  3
ランダム線4
 72
    65
 73
     4
 40
22.0
 49
4.0
 49
-5.0
 49
6.0
 49
-7.0
  0
LTYPE
  2
RAND5
 70
    64
  3
ランダム線5
 72
    65
 73
     4
 40
26.0
 49
5.0
 49
-6.0
 49
7.0
 49
-8.0
  0
LTYPE
  2
LONG1
 70
    64
  3
----------  --  ----------  --  
 72
    65
 73
     4
 40
40.0
 49
32.5
 49
-2.5
 49
2.5
 49
-2.5
  0
LTYPE
  2
LONG2
 70
    64
  3
--------  -  -  --------  -  -  
 72
    65
 73
     6
 40
40.0
 49
30.0
 49
-2.5
 49
1.25
 49
-2.5
 49
1.25
 49
-2.5
  0
LTYPE
  2
LONG3
 70
    64
  3
+++++++++++++++..+++++++++++++++
 72
    65
 73
     2
 40
40.0
 49
37.5
 49
-2.5
  0
LTYPE
  2
LONG4
 70
    64
  3
+++++++++++++++..+++++++++++++++
 72
    65
 73
     2
 40
80.0
 49
75.0
 49
-5.0
  0
LTYPE
  2
LONG5
 70
    64
  3
----------  --  ----------  --  
 72
    65
 73
     4
 40
60.0
 49
37.5
 49
-7.5
 49
7.5
 49
-7.5
  0
LTYPE
  2
dashed
 70
   64
  3
-------   -------------   ------
 72
   65
 73
    2
 40
7.5
 49
6
 49
-1.5
  0
LTYPE
  2
dashed_spaced
 70
   64
  3
----        --------        ----
 72
   65
 73
    2
 40
12
 49
6
 49
-6
  0
LTYPE
  2
long_dashed_dotted
 70
   64
  3
------------- --- --------------
 72
   65
 73
    4
 40
15.25
 49
12
 49
-1.5
 49
0.25
 49
-1.5
  0
LTYPE
  2
long_dashed_double-dotted
 70
   64
  3
----------- --- --- ------------
 72
   65
 73
    6
 40
17
 49
12
 49
-1.5
 49
0.25
 49
-1.5
 49
0.25
 49
-1.5
  0
LTYPE
  2
long_dashed_triplicate-dotted
 70
   64
  3
--------- --- --- --- ----------
 72
   65
 73
    8
 40
18.75
 49
12
 49
-1.5
 49
0.25
 49
-1.5
 49
0.25
 49
-1.5
 49
0.25
 49
-1.5
  0
LTYPE
  2
dotted
 70
   64
  3
   -       -       -       -    
 72
   65
 73
    2
 40
1.75
 49
0.25
 49
-1.5
  0
LTYPE
  2
chain
 70
   64
  3
-------------- -- --------------
 72
   65
 73
    4
 40
18.5
 49
12
 49
-1.5
 49
3.5
 49
-1.5
  0
LTYPE
  2
chain_double_dash
 70
   64
  3
------------ -- -- -------------
 72
   65
 73
    6
 40
23.5
 49
12
 49
-1.5
 49
3.5
 49
-1.5
 49
3.5
 49
-1.5
  0
LTYPE
  2
dashed_dotted
 70
   64
  3
-----------     -     ----------
 72
   65
 73
    4
 40
9.25
 49
6
 49
-1.5
 49
0.25
 49
-1.5
  0
LTYPE
  2
double-dashed_dotted
 70
   64
  3
------   -----------   -   -----
 72
   65
 73
    6
 40
16.75
 49
6
 49
-1.5
 49
6
 49
-1.5
 49
0.25
 49
-1.5
  0
LTYPE
  2
dashed_double-dotted
 70
   64
  3
---------    -    -    ---------
 72
   65
 73
    6
 40
11
 49
6
 49
-1.5
 49
0.25
 49
-1.5
 49
0.25
 49
-1.5
  0
LTYPE
  2
double-dashed_double-dotted
 70
   64
  3
-----   ---------   -   -   ----
 72
   65
 73
    8
 40
18.5
 49
6
 49
-1.5
 49
6
 49
-1.5
 49
0.25
 49
-1.5
 49
0.25
 49
-1.5
  0
LTYPE
  2
dashed_triplicate-dotted
 70
   64
  3
-------    -    -    -    ------
 72
   65
 73
    8
 40
12.75
 49
6
 49
-1.5
 49
0.25
 49
-1.5
 49
0.25
 49
-1.5
 49
0.25
 49
-1.5
  0
LTYPE
  2
double-dashed_triplicate-dotted
 70
   64
  3
-----  ---------  -  -  -  -----
 72
   65
 73
   10
 40
20.25
 49
6
 49
-1.5
 49
6
 49
-1.5
 49
0.25
 49
-1.5
 49
0.25
 49
-1.5
 49
0.25
 49
-1.5
  0
LTYPE
  2
undefined
 70
   64
  3
--------------------------------
 72
   65
 73
    0
 40
0
  0
ENDTAB
  0
TABLE
  2
STYLE
  5
3
100
AcDbSymbolTable
 70
     1
  0
STYLE
  5
10
100
AcDbSymbolTableRecord
100
AcDbTextStyleTableRecord
  2
STANDARD
 70
     0
 40
0.0
 41
1.0
 50
0.0
 71
     0
 42
0.2
  3
txt
  4
bigfont.shx
  0
STYLE
  5
26
100
AcDbSymbolTableRecord
100
AcDbTextStyleTableRecord
  2
TATEGAKI
 70
    68
 40
0.0
 41
1.0
 50
0.0
 71
     0
 42
1.0
  3
txt
  4
bigfont.shx
  0
ENDTAB
  0
TABLE
  2
LAYER
 70
    8
  0
LAYER
  2
_0-0_
 70
   64
 62
    7
  6
CONTINUOUS
  0
LAYER
  2
_1-0_
 70
   64
 62
    7
  6
CONTINUOUS
  0
LAYER
  2
_1-1_
 70
   64
 62
    7
  6
CONTINUOUS
  0
LAYER
  2
_1-2_
 70
   64
 62
    7
  6
CONTINUOUS
  0
LAYER
  2
_1-3_
 70
   64
 62
    7
  6
CONTINUOUS
  0
LAYER
  2
_1-4_
 70
   64
 62
    7
  6
CONTINUOUS
  0
LAYER
  2
_1-5_
 70
   64
 62
    7
  6
CONTINUOUS
  0
LAYER
  2
ADD_LINE
 70
   64
 62
    7
  6
CONTINUOUS
  0
ENDTAB
  0
ENDSEC
  0
SECTION
  2
BLOCKS
  0
ENDSEC
  0
SECTION
  2
ENTITIES
  0
LINE
  8
_1-3_
  6
CONTINUOUS
 62
    3
 10
270.54233860325172
 20
192.87684260187925
 11
270.54233860325172
 21
173.09813628325591
  0
LINE
  8
_0-0_
  6
CONTINUOUS
 62
    5
 10
6.7567526327597136
 20
280.13513513513516
 11
406.75677325274495
 21
280.13513513513516
  0
LINE
  8
_0-0_
  6
CONTINUOUS
 62
    5
 10
406.75677325274495
 20
10.13513513513513
 11
6.7567526327597136
 21
10.13513513513513
  0
LINE
  8
_0-0_
  6
CONTINUOUS
 62
    5
 10
406.75677325274495
 20
30.135133073136615
 11
6.7567402607685949
 21
30.135133073136615
  0
LINE
  8
_0-0_
  6
CONTINUOUS
 62
    5
 10
371.75678150073907
 20
10.13513513513513
 11
371.75678150073907
 21
30.135133073136615
  0
LINE
  8
_0-0_
  6
CONTINUOUS
 62
    5
 10
137.02703939901818
 20
30.135133073136615
 11
137.02703939901818
 21
10.13513513513513
  0
LINE
  8
_0-0_
  6
CONTINUOUS
 62
    5
 10
214.86486486486487
 20
30.135133073136615
 11
214.86486486486487
 21
10.13513513513513
  0
LINE
  8
_0-0_
  6
CONTINUOUS
 62
    5
 10
137.02703939901818
 20
20.135134104135886
 11
214.86486486486487
 21
20.135134104135886
  0
LINE
  8
_0-0_
  6
CONTINUOUS
 62
    5
 10
396.48648648648651
 20
25.945945945945951
 11
383.91891891891896
 21
13.378379924877265
  0
LINE
  8
ADD_LINE
  6
DOT
 62
    7
 10
8.5792551813898967
 20
32.076335597682643
 11
8.5792551813898967
 21
17.492696401235207
  0
LINE
  8
_1-0_
  6
CONTINUOUS
 62
    7
 10
103.72069900100296
 20
108.83425325960727
 11
102.24338428394215
 21
112.11717347841005
  0
LINE
  8
_1-0_
  6
CONTINUOUS
 62
    7
 10
102.24338428394215
 20
112.11717347841005
 11
106.62060711834883
 21
114.08691818649704
  0
LINE
  8
_1-0_
  6
CONTINUOUS
 62
    7
 10
106.62060711834883
 20
114.08691818649704
 11
108.09792183540964
 21
110.80399796769426
  0
LINE
  8
_1-0_
  6
CONTINUOUS
 62
    7
 10
108.09792183540964
 20
110.80399796769426
 11
103.72069900100296
 21
108.83425325960727
  0
LINE
  8
_1-0_
  6
CONTINUOUS
 62
    7
 10
102.24338428394215
 20
112.11717347841005
 11
108.09792183540964
 21
110.80399796769426
  0
LINE
  8
_1-0_
  6
CONTINUOUS
 62
    7
 10
154.04051909575591
 20
135.42588105072846
 11
155.51783381281672
 21
132.14296083192568
  0
LINE
  8
_1-0_
  6
CONTINUOUS
 62
    7
 10
155.51783381281672
 20
132.14296083192568
 11
151.14059860641893
 21
130.1732161238387
  0
LINE
  8
_1-0_
  6
CONTINUOUS
 62
    7
 10
201.46043107316302
 20
156.7648439149599
 11
202.93774579022383
 21
153.48192369615711
  0
LINE
  8
_1-0_
  6
CONTINUOUS
 62
    7
 10
202.93774579022383
 20
153.48192369615711
 11
198.56051058382602
 21
151.5121789880701
  0
LINE
  8
_1-2_
  6
CONTINUOUS
 62
    3
 10
107.71916569890203
 20
111.84570724899704
 11
109.53871443464951
 21
112.45752695444469
  0
LINE
  8
ADD_LINE
  6
DOT
 62
    7
 10
106.05889397698481
 20
117.08997159390837
 11
105.88620572476775
 21
117.66489802180111
  0
LINE
  8
_1-2_
  6
CONTINUOUS
 62
    3
 10
105.88620572476775
 20
117.66489802180111
 11
106.05889397698481
 21
117.08997159390837
  0
LINE
  8
_1-2_
  6
CONTINUOUS
 62
    3
 10
106.9224094700169
 20
114.21526522249789
 11
107.72173907305744
 21
111.8380489864865
  0
LINE
  8
_1-2_
  6
CONTINUOUS
 62
    3
 10
105.88620572476775
 20
117.66489802180111
 11
107.78290619721284
 21
118.30267416464316
  0
LINE
  8
_1-2_
  6
CONTINUOUS
 62
    3
 10
109.53871443464951
 20
112.45752695444469
 11
107.78290619721284
 21
118.30267416464316
  0
LINE
  8
_1-0_
  6
CONTINUOUS
 62
    7
 10
154.04051909575591
 20
135.42586867873734
 11
155.51783381281672
 21
132.14294845993456
  0
LINE
  8
_1-0_
  6
CONTINUOUS
 62
    7
 10
155.51783381281672
 20
132.14294845993456
 11
151.14059860641893
 21
130.17320375184755
  0
LINE
  8
_1-2_
  6
CONTINUOUS
 62
    3
 10
155.12999663481841
 20
133.18132967562289
 11
156.94415118243245
 21
133.80899790171031
  0
LINE
  8
ADD_LINE
  6
DOT
 62
    7
 10
153.42404752164273
 20
138.41090846706081
 11
153.24631149704393
 21
138.98430076805323
  0
LINE
  8
_1-2_
  6
CONTINUOUS
 62
    3
 10
153.24631149704393
 20
138.98430076805323
 11
153.42404752164273
 21
138.41090846706081
  0
LINE
  8
_1-2_
  6
CONTINUOUS
 62
    3
 10
154.31260392472552
 20
135.54383561417865
 11
155.13264424092063
 21
133.17368378510346
  0
LINE
  8
_1-2_
  6
CONTINUOUS
 62
    3
 10
98.669078930004233
 20
115.44298739046664
 11
99.425465351826446
 21
115.70470449086783
  0
LINE
  8
_1-2_
  6
CONTINUOUS
 62
    3
 10
100.58776443069046
 20
116.95557465424409
 11
154.31260392472552
 21
135.54383561417865
  0
LINE
  8
_1-2_
  6
CONTINUOUS
 62
    3
 10
99.562980033255911
 20
115.2610696328653
 11
99.425465351826446
 21
115.70470449086783
  0
LINE
  8
_1-2_
  6
CONTINUOUS
 62
    3
 10
98.810428928684544
 20
114.98689393739443
 11
98.669078930004233
 21
115.44298739046664
  0
LINE
  8
_1-2_
  6
CONTINUOUS
 62
    3
 10
100.29217281857053
 20
115.29483279666385
 11
99.819426665434975
 21
115.13125032991977
  0
LINE
  8
_1-2_
  6
CONTINUOUS
 62
    3
 10
100.41781038851352
 20
115.54303968274917
 11
100.21082697687923
 21
116.21092925200593
  0
LINE
  8
_1-2_
  6
CONTINUOUS
 62
    3
 10
98.212008089632604
 20
114.57510458456504
 11
98.68477898675043
 21
114.73868705130913
  0
LINE
  8
_1-2_
  6
CONTINUOUS
 62
    3
 10
153.42404752164273
 20
138.41090846706081
 11
96.691948143211576
 21
118.7821506809544
  0
LINE
  8
_1-2_
  6
CONTINUOUS
 62
    3
 10
97.955573829444688
 20
114.70491151551943
 11
96.691948143211576
 21
118.7821506809544
  0
LINE
  8
_1-2_
  6
CONTINUOUS
 62
    3
 10
156.94415118243245
 20
133.80899790171031
 11
155.13739508551521
 21
139.63860589104729
  0
LINE
  8
_1-2_
  6
CONTINUOUS
 62
    7
 10
96.691948143211576
 20
118.7821506809544
 11
91.983539478198907
 21
132.3906233504012
  0
LINE
  8
_1-0_
  6
CONTINUOUS
 62
    7
 10
151.14059860641893
 20
130.1732161238387
 11
149.68043146906672
 21
133.41806772592906
  0
LINE
  8
_1-0_
  6
CONTINUOUS
 62
    7
 10
151.14059860641893
 20
130.17320375184755
 11
149.68040672508448
 21
133.41805535393792
  0
LINE
  8
_1-0_
  6
CONTINUOUS
 62
    7
 10
149.68043146906672
 20
133.41806772592906
 11
155.51783381281672
 21
132.14296083192568
  0
LINE
  8
_1-2_
  6
CONTINUOUS
 62
    7
 10
107.78290619721284
 20
118.30267416464316
 11
107.43884112383869
 21
119.3259739231419
  0
LINE
  8
_1-0_
  6
CONTINUOUS
 62
    7
 10
201.46043107316302
 20
156.7648439149599
 11
202.93774579022383
 21
153.48192369615711
  0
LINE
  8
_1-0_
  6
CONTINUOUS
 62
    7
 10
202.93774579022383
 20
153.48192369615711
 11
198.56051058382602
 21
151.5121789880701
  0
LINE
  8
_1-0_
  6
CONTINUOUS
 62
    7
 10
201.46043107316302
 20
156.76483154296875
 11
202.93774579022383
 21
153.48191132416596
  0
LINE
  8
_1-0_
  6
CONTINUOUS
 62
    7
 10
202.93774579022383
 20
153.48191132416596
 11
198.56051058382602
 21
151.51216661607899
  0
LINE
  8
_1-2_
  6
CONTINUOUS
 62
    3
 10
202.54990861222552
 20
154.52029253985432
 11
204.36406315983953
 21
155.14796076594172
  0
LINE
  8
ADD_LINE
  6
DOT
 62
    7
 10
200.84395949904984
 20
159.74987133129224
 11
200.66622347445102
 21
160.32326363228464
  0
LINE
  8
_1-2_
  6
CONTINUOUS
 62
    3
 10
200.66622347445102
 20
160.32326363228464
 11
200.84395949904984
 21
159.74987133129224
  0
LINE
  8
_1-2_
  6
CONTINUOUS
 62
    3
 10
201.7325159021326
 20
156.88279847841005
 11
202.55255621832771
 21
154.5126466493349
  0
LINE
  8
_1-2_
  6
CONTINUOUS
 62
    3
 10
146.08899090741133
 20
136.78195025469807
 11
146.84538970122466
 21
137.04366735509925
  0
LINE
  8
_1-2_
  6
CONTINUOUS
 62
    3
 10
148.00766403610643
 20
138.29453751847552
 11
201.7325159021326
 21
156.88279847841005
  0
LINE
  8
_1-2_
  6
CONTINUOUS
 62
    3
 10
146.98289201066302
 20
136.60003249709672
 11
146.84538970122466
 21
137.04366735509925
  0
LINE
  8
_1-2_
  6
CONTINUOUS
 62
    3
 10
146.23035327808279
 20
136.32585680162586
 11
146.08899090741133
 21
136.78195025469807
  0
LINE
  8
_1-2_
  6
CONTINUOUS
 62
    3
 10
147.71207242398648
 20
136.63379566089529
 11
147.23933864284206
 21
136.4702131941512
  0
LINE
  8
_1-2_
  6
CONTINUOUS
 62
    3
 10
147.83772236592063
 20
136.88200254698057
 11
147.63073895428633
 21
137.54989211623734
  0
LINE
  8
_1-2_
  6
CONTINUOUS
 62
    3
 10
145.63192006703972
 20
135.91406744879646
 11
146.10470333614865
 21
136.07764991554055
  0
LINE
  8
_1-2_
  6
CONTINUOUS
 62
    3
 10
145.37549817884292
 20
136.04387437975086
 11
144.11187249260979
 21
140.12111354518581
  0
LINE
  8
_1-2_
  6
CONTINUOUS
 62
    3
 10
204.36406315983953
 20
155.14796076594172
 11
202.55730706292232
 21
160.97756875527872
  0
LINE
  8
_1-2_
  6
CONTINUOUS
 62
    7
 10
144.11187249260979
 20
140.12111354518581
 11
139.40343908361487
 21
153.7295862146326
  0
LINE
  8
_1-0_
  6
CONTINUOUS
 62
    7
 10
198.56051058382602
 20
151.5121789880701
 11
197.10034344647383
 21
154.75703059016047
  0
LINE
  8
_1-0_
  6
CONTINUOUS
 62
    7
 10
198.56051058382602
 20
151.51216661607899
 11
197.10031870249156
 21
154.75701821816935
  0
LINE
  8
_1-0_
  6
CONTINUOUS
 62
    7
 10
197.10031870249156
 20
154.75701821816935
 11
201.43185177364867
 21
156.75181620829815
  0
LINE
  8
_1-0_
  6
CONTINUOUS
 62
    7
 10
197.10034344647383
 20
154.75703059016047
 11
202.93774579022383
 21
153.48192369615711
  0
LINE
  8
_1-0_
  6
CONTINUOUS
 62
    7
 10
250.35768251161318
 20
174.82088656038852
 11
245.98044730521539
 21
172.85114185230154
  0
LINE
  8
_1-2_
  6
CONTINUOUS
 62
    3
 10
249.96984533361487
 20
175.85924303209461
 11
251.78399988122891
 21
176.48692363017315
  0
LINE
  8
ADD_LINE
  6
DOT
 62
    7
 10
248.26389622043919
 20
181.08883419552365
 11
248.08616019584039
 21
181.66222649651607
  0
LINE
  8
_1-2_
  6
CONTINUOUS
 62
    3
 10
248.08616019584039
 20
181.66222649651607
 11
248.26389622043919
 21
181.08883419552365
  0
LINE
  8
_1-2_
  6
CONTINUOUS
 62
    3
 10
249.15245262352198
 20
178.22174897065034
 11
249.97249293971709
 21
175.85162188555745
  0
LINE
  8
_1-2_
  6
CONTINUOUS
 62
    3
 10
193.50892762880068
 20
158.12091311892948
 11
194.26530167863177
 21
158.38263021933068
  0
LINE
  8
_1-2_
  6
CONTINUOUS
 62
    3
 10
195.42762550147805
 20
159.63350038270693
 11
249.15245262352198
 21
178.22174897065034
  0
LINE
  8
_1-2_
  6
CONTINUOUS
 62
    3
 10
194.40282873205237
 20
157.93899536132812
 11
194.26530167863177
 21
158.38263021933068
  0
LINE
  8
_1-2_
  6
CONTINUOUS
 62
    3
 10
193.65026525548987
 20
157.66481966585727
 11
193.50892762880068
 21
158.12091311892948
  0
LINE
  8
_1-2_
  6
CONTINUOUS
 62
    3
 10
195.13203388935813
 20
157.97275852512669
 11
194.65927536423143
 21
157.8091760583826
  0
LINE
  8
_1-2_
  6
CONTINUOUS
 62
    3
 10
195.25765908730997
 20
158.22096541121201
 11
195.05067567567568
 21
158.88885498046875
  0
LINE
  8
_1-2_
  6
CONTINUOUS
 62
    3
 10
193.05185678842906
 20
157.25303031302789
 11
193.52461531355576
 21
157.41661277977198
  0
LINE
  8
_1-2_
  6
CONTINUOUS
 62
    3
 10
192.79541015625
 20
157.38283724398227
 11
191.5317844700169
 21
161.46007640941724
  0
LINE
  8
_1-2_
  6
CONTINUOUS
 62
    3
 10
248.08616019584039
 20
181.66222649651607
 11
249.97724378431167
 21
182.31653161951016
  0
LINE
  8
_1-2_
  6
CONTINUOUS
 62
    3
 10
251.78399988122891
 20
176.48692363017315
 11
249.97724378431167
 21
182.31653161951016
  0
LINE
  8
_1-2_
  6
CONTINUOUS
 62
    7
 10
191.5317844700169
 20
161.46007640941724
 11
186.82340054898648
 21
175.06854907886404
  0
LINE
  8
_1-2_
  6
CONTINUOUS
 62
    7
 10
245.46500541068414
 20
195.35799593538852
 11
186.82340054898648
 21
175.06854907886404
  0
LINE
  8
_1-2_
  6
CONTINUOUS
 62
    7
 10
249.97724378431167
 20
182.31653161951016
 11
245.46500541068414
 21
195.35799593538852
  0
LINE
  8
_1-0_
  6
CONTINUOUS
 62
    7
 10
245.98044730521539
 20
172.85114185230154
 11
244.52028016786318
 21
176.0959934543919
  0
LINE
  8
_1-2_
  6
CONTINUOUS
 62
    7
 10
140.92747043918919
 20
149.32476146801099
 11
91.983539478198907
 21
132.3906233504012
  0
LINE
  8
_1-2_
  6
CONTINUOUS
 62
    7
 10
155.13739508551521
 20
139.63860589104729
 11
154.79045971019849
 21
140.64130628431167
  0
LINE
  8
_1-2_
  6
CONTINUOUS
 62
    3
 10
153.24631149704393
 20
138.98430076805323
 11
155.13741982949747
 21
139.63860589104729
  0
LINE
  8
ADD_LINE
  6
DOT
 62
    7
 10
156.94415118243245
 20
133.80899790171031
 11
155.13741982949747
 21
139.63860589104729
  0
LINE
  8
_1-2_
  6
CONTINUOUS
 62
    7
 10
153.24631149704393
 20
138.98430076805323
 11
152.93203817831505
 21
139.99832153320312
  0
LINE
  8
ADD_LINE
  6
DOT
 62
    7
 10
204.36406315983953
 20
155.14796076594172
 11
202.55733180690459
 21
160.97756875527872
  0
LINE
  8
_1-2_
  6
CONTINUOUS
 62
    3
 10
200.66622347445102
 20
160.32326363228464
 11
202.55733180690459
 21
160.97756875527872
  0
LINE
  8
_1-2_
  6
CONTINUOUS
 62
    7
 10
188.34740716057857
 20
170.6637243322424
 11
139.40343908361487
 21
153.7295862146326
  0
LINE
  8
_1-2_
  6
CONTINUOUS
 62
    7
 10
202.55730706292232
 20
160.97756875527872
 11
202.21037168760557
 21
161.98026914854307
  0
LINE
  8
_1-0_
  6
CONTINUOUS
 62
    7
 10
244.52025542388094
 20
176.0959934543919
 11
248.8802935626056
 21
178.10391812711148
  0
LINE
  8
_1-0_
  6
CONTINUOUS
 62
    7
 10
250.35765776763094
 20
174.82088656038852
 11
246.00264265730576
 21
172.86113842113599
  0
LINE
  8
_1-0_
  6
CONTINUOUS
 62
    7
 10
246.00264265730576
 20
172.86113842113599
 11
245.98042256123313
 21
172.85114185230154
  0
LINE
  8
_1-0_
  6
CONTINUOUS
 62
    7
 10
149.68040672508448
 20
133.41805535393792
 11
154.04049435177365
 21
135.42599239864865
  0
LINE
  8
_1-3_
  6
CONTINUOUS
 62
    7
 10
130.21810170766472
 20
139.80695157437711
 11
120.07173280458193
 21
167.68383129222974
  0
LINE
  8
_1-3_
  6
CONTINUOUS
 62
    7
 10
120.07173280458193
 20
167.68383129222974
 11
118.79786310969173
 21
167.68383129222974
  0
LINE
  8
_1-0_
  6
CONTINUOUS
 62
    7
 10
82.648290685705234
 20
99.351666424725508
 11
246.00536449535474
 21
172.8623508762669
  0
LINE
  8
_1-2_
  6
CONTINUOUS
 62
    3
 10
82.648290685705234
 20
106.05314100110854
 11
106.9224094700169
 21
114.21526522249789
  0
LINE
  8
_1-2_
  6
CONTINUOUS
 62
    3
 10
106.05889397698481
 20
117.08997159390837
 11
82.648290685705234
 21
109.21820563239021
  0
LINE
  8
_1-2_
  6
CONTINUOUS
 62
    7
 10
93.617644438872475
 20
128.09887860272383
 11
82.648290685705234
 21
124.41045400258658
  0
LINE
  8
_1-0_
  6
CONTINUOUS
 62
    7
 10
82.648290685705234
 20
97.59713250237543
 11
253.4926460884713
 21
174.47709367081927
  0
LINE
  8
_1-0_
  6
DASHED1
 62
    3
 10
82.648290685705234
 20
98.095847464896536
 11
253.4926460884713
 21
174.97578388935813
  0
LINE
  8
_1-0_
  6
CONTINUOUS
 62
    7
 10
82.648290685705234
 20
98.693723936338685
 11
253.4926460884713
 21
175.57367273279141
  0
LINE
  8
_1-0_
  6
CONTINUOUS
 62
    7
 10
250.35765776763094
 20
174.82088656038852
 11
250.35768251161318
 21
174.82088656038852
  0
LINE
  8
_1-0_
  6
CONTINUOUS
 62
    7
 10
248.88036779455237
 20
178.10381915118245
 11
250.23455645586995
 21
175.09446840028505
  0
LINE
  8
_1-0_
  6
CONTINUOUS
 62
    7
 10
248.8802935626056
 20
178.10391812711148
 11
250.23455645586995
 21
175.09446840028505
  0
LINE
  8
_1-0_
  6
CONTINUOUS
 62
    7
 10
245.98044730521539
 20
172.85111710831927
 11
245.98042256123313
 21
172.85112948031039
  0
LINE
  8
_1-0_
  6
CONTINUOUS
 62
    7
 10
245.85732124947214
 20
173.12472369219807
 11
244.52025542388094
 21
176.0959934543919
  0
LINE
  8
_1-3_
  6
CONTINUOUS
 62
    7
 10
226.11699284733953
 20
190.5412581160262
 11
233.98404508023651
 21
191.56405062288852
  0
LINE
  8
_1-1_
  6
CONTINUOUS
 62
    7
 10
280.11697305215375
 20
173.53869051546664
 11
272.51698261982688
 21
174.56598642710094
  0
LINE
  8
_1-3_
  6
CONTINUOUS
 62
    7
 10
276.11698459934547
 20
190.5412581160262
 11
276.11698459934547
 21
174.07937127190669
  0
LINE
  8
_1-3_
  6
CONTINUOUS
 62
    7
 10
272.51698261982688
 20
190.5412581160262
 11
272.51698261982688
 21
174.56598642710094
  0
LINE
  8
_1-1_
  6
CONTINUOUS
 62
    7
 10
280.38794440192146
 20
184.33916658968539
 11
280.38794440192146
 21
182.72365673168287
  0
LINE
  8
_1-3_
  6
CONTINUOUS
 62
    7
 10
280.11697305215375
 20
190.5412581160262
 11
280.11697305215375
 21
182.70591529639992
  0
LINE
  8
_1-3_
  6
CONTINUOUS
 62
    7
 10
280.11697305215375
 20
182.70591529639992
 11
280.11697305215375
 21
173.53869051546664
  0
LINE
  8
_1-1_
  6
CONTINUOUS
 62
    7
 10
280.11697305215375
 20
184.33916658968539
 11
280.38794440192146
 21
184.33916658968539
  0
LINE
  8
_1-1_
  6
CONTINUOUS
 62
    7
 10
280.11697305215375
 20
182.72365673168287
 11
280.38794440192146
 21
182.72365673168287
  0
LINE
  8
_1-4_
  6
CONTINUOUS
 62
    7
 10
206.07743546769427
 20
226.10038963524073
 11
222.23609718116555
 21
181.70484800596495
  0
LINE
  8
_1-4_
  6
CONTINUOUS
 62
    7
 10
222.23609718116555
 20
181.70484800596495
 11
243.0428912188556
 21
187.97976107210727
  0
LINE
  8
_1-4_
  6
CONTINUOUS
 62
    7
 10
255.44573809649495
 20
207.09916398331927
 11
269.02916985589104
 21
244.41932472022805
  0
LINE
  8
_1-4_
  6
CONTINUOUS
 62
    7
 10
280.66275106894005
 20
183.55885273701438
 11
289.81027963999156
 21
208.69143924197635
  0
LINE
  8
_1-4_
  6
CONTINUOUS
 62
    7
 10
269.02916985589104
 20
244.41932472022805
 11
276.48648648648651
 21
244.41932472022805
  0
LINE
  8
_1-4_
  6
CONTINUOUS
 62
    7
 10
289.81027963999156
 20
208.69143924197635
 11
299.18918918918922
 21
208.69143924197635
  0
LINE
  8
_1-4_
  6
CONTINUOUS
 62
    7
 10
206.07743546769427
 20
226.10038963524073
 11
200.27027027027029
 21
226.10038963524073
  0
LINE
  8
_1-4_
  6
CONTINUOUS
 62
    7
 10
215.67567567567568
 20
248.10810810810813
 11
226.76533467060813
 21
248.10810810810813
  0
LINE
  8
_1-4_
  6
CONTINUOUS
 62
    7
 10
241.50265255489867
 20
207.61764938766893
 11
226.76533467060813
 21
248.10810810810813
  0
LINE
  8
_1-4_
  6
CONTINUOUS
 62
    7
 10
262.55577293602198
 20
192.11862512536953
 11
275.85865742451438
 21
228.66797369879646
  0
LINE
  8
_1-4_
  6
CONTINUOUS
 62
    7
 10
275.85865742451438
 20
228.66797369879646
 11
279.94195886560391
 21
228.66797369879646
  0
LINE
  8
ADD_LINE
  6
DOT
 62
    7
 10
257.12407292546453
 20
179.55468255120357
 11
257.12407292546453
 21
176.7825647302576
  0
LINE
  8
ADD_LINE
  6
DOT
 62
    7
 10
257.12407292546453
 20
179.55468255120357
 11
257.12407292546453
 21
176.77850671716641
  0
LINE
  8
_1-3_
  6
CONTINUOUS
 62
    7
 10
257.12407292546453
 20
167.8975821830131
 11
272.12407292546453
 21
167.8975821830131
  0
LINE
  8
_1-3_
  6
CONTINUOUS
 62
    7
 10
270.12406632706927
 20
168.49757426493878
 11
270.12406632706927
 21
167.8975821830131
  0
LINE
  8
_1-3_
  6
CONTINUOUS
 62
    7
 10
257.7240897513725
 20
180.89758795660896
 11
257.12407292546453
 21
180.89758795660896
  0
LINE
  8
_1-3_
  6
CONTINUOUS
 62
    7
 10
258.92407391522386
 20
169.09757871885557
 11
269.52407424514359
 21
169.09757871885557
  0
LINE
  8
_1-3_
  6
CONTINUOUS
 62
    7
 10
257.12407292546453
 20
180.89758795660896
 11
257.12407292546453
 21
167.89028270824537
  0
LINE
  8
_1-3_
  6
CONTINUOUS
 62
    7
 10
258.32408183329818
 20
169.6975831727724
 11
258.32408183329818
 21
180.29758350269216
  0
LINE
  8
_1-3_
  6
CONTINUOUS
 62
    7
 10
269.52407424514359
 20
169.09757871885557
 11
270.32407193570526
 21
169.09757871885557
  0
LINE
  8
_1-3_
  6
CONTINUOUS
 62
    7
 10
270.32407193570526
 20
191.89757475981841
 11
270.32407193570526
 21
169.09757871885557
  0
LINE
  8
_1-3_
  6
CONTINUOUS
 62
    7
 10
258.32408183329818
 20
180.29758350269216
 11
258.32408183329818
 21
191.89757475981841
  0
LINE
  8
_1-3_
  6
CONTINUOUS
 62
    7
 10
258.32408183329818
 20
191.89757475981841
 11
270.32407193570526
 21
191.89757475981841
  0
LINE
  8
_1-3_
  6
CONTINUOUS
 62
    7
 10
253.4926460884713
 20
167.85425547006969
 11
253.4926460884713
 21
167.89029508023648
  0
LINE
  8
_1-3_
  6
CONTINUOUS
 62
    7
 10
253.4926460884713
 20
167.85425547006969
 11
257.12407292546453
 21
167.85425547006969
  0
LINE
  8
_1-3_
  6
DASHED1
 62
    7
 10
266.31661080025339
 20
183.85884877797722
 11
265.2443550728463
 21
183.55885273701438
  0
LINE
  8
_1-1_
  6
DASHED1
 62
    7
 10
280.11697305215375
 20
183.85884877797722
 11
266.31661080025339
 21
183.85884877797722
  0
LINE
  8
_1-3_
  6
DASHED1
 62
    7
 10
265.2443550728463
 20
183.55885273701438
 11
266.31661080025339
 21
183.25885669605154
  0
LINE
  8
_1-1_
  6
DASHED1
 62
    7
 10
280.11697305215375
 20
183.25885669605154
 11
266.31661080025339
 21
183.25885669605154
  0
LINE
  8
_1-3_
  6
DASHED1
 62
    7
 10
266.31661080025339
 20
183.85884877797722
 11
266.31661080025339
 21
183.25885669605154
  0
LINE
  8
_1-3_
  6
CONTINUOUS
 62
    7
 10
272.12407292546453
 20
167.8975821830131
 11
272.12407292546453
 21
94.037729211755703
  0
LINE
  8
_1-3_
  6
CONTINUOUS
 62
    3
 10
258.09539794921875
 20
192.87684260187925
 11
270.54233860325172
 21
192.87684260187925
  0
LINE
  8
_1-3_
  6
CONTINUOUS
 62
    3
 10
270.54233860325172
 20
173.09813628325591
 11
274.63449838999156
 21
171.39307795344172
  0
LINE
  8
_1-3_
  6
CONTINUOUS
 62
    3
 10
274.63449838999156
 20
171.39307795344172
 11
274.63449838999156
 21
155.0244882944468
  0
LINE
  8
_1-3_
  6
CONTINUOUS
 62
    7
 10
258.32408183329818
 20
191.89757475981841
 11
270.32407193570526
 21
169.09757871885557
  0
LINE
  8
_1-3_
  6
CONTINUOUS
 62
    7
 10
270.32407193570526
 20
191.89757475981841
 11
258.92407391522386
 21
169.09757871885557
  0
LINE
  8
_1-3_
  6
DASHED1
 62
    7
 10
263.02447344805745
 20
185.36460670264992
 11
258.57859843486068
 21
195.70709640915331
  0
LINE
  8
_1-3_
  6
DASHED1
 62
    7
 10
263.57571988492401
 20
185.60157982078761
 11
259.12984487172719
 21
195.9440447833087
  0
LINE
  8
_1-3_
  6
DASHED1
 62
    7
 10
263.02447344805745
 20
185.36461907464107
 11
263.49505450274495
 21
185.02958555479307
  0
LINE
  8
_1-3_
  6
DASHED1
 62
    7
 10
263.57571988492401
 20
185.60157982078761
 11
263.49505450274495
 21
185.02958555479307
  0
LINE
  8
_1-3_
  6
CONTINUOUS
 62
    7
 10
258.45995103990708
 20
195.48755542652029
 11
258.51824786211995
 21
195.35197077570737
  0
LINE
  8
_1-3_
  6
CONTINUOUS
 62
    7
 10
258.51824786211995
 20
195.35197077570737
 11
259.42818306587839
 21
195.74312364732899
  0
LINE
  8
_1-3_
  6
CONTINUOUS
 62
    7
 10
259.36988624366558
 20
195.8787082981419
 11
259.42818306587839
 21
195.74312364732899
  0
LINE
  8
_1-3_
  6
CONTINUOUS
 62
    7
 10
258.45995103990708
 20
195.48755542652029
 11
259.36988624366558
 21
195.8787082981419
  0
LINE
  8
_1-1_
  6
CONTINUOUS
 62
    3
 10
259.27227123363599
 20
195.836742504223
 11
253.4926460884713
 21
213.53868639146961
  0
LINE
  8
_1-1_
  6
CONTINUOUS
 62
    3
 10
253.4926460884713
 20
213.53868639146961
 11
258.72283110747469
 21
195.60056119351773
  0
LINE
  8
_1-3_
  6
CONTINUOUS
 62
    7
 10
274.16832176414698
 20
162.06746694203972
 11
281.73047864759292
 21
141.29061312288852
  0
LINE
  8
_1-3_
  6
CONTINUOUS
 62
    7
 10
281.73047864759292
 20
141.29061312288852
 11
290.27027027027026
 21
141.29061312288852
  0
LINE
  8
_1-3_
  6
CONTINUOUS
 62
    7
 10
263.97370209565037
 20
171.39881855732688
 11
283.54619206608953
 21
117.62386012721707
  0
LINE
  8
_1-3_
  6
CONTINUOUS
 62
    7
 10
263.97370209565037
 20
171.39881855732688
 11
262.34794822899073
 21
168.50710069811024
  0
LINE
  8
_1-3_
  6
CONTINUOUS
 62
    7
 10
283.54619206608953
 20
117.62386012721707
 11
289.45945945945948
 21
117.62386012721707
  0
LINE
  8
_1-1_
  6
CONTINUOUS
 62
    7
 10
242.7169634844806
 20
121.51753606023016
 11
242.7169634844806
 21
119.05223124736065
  0
LINE
  8
_1-1_
  6
CONTINUOUS
 62
    7
 10
242.7169634844806
 20
119.05223124736065
 11
242.7169634844806
 21
92.194321091110652
  0
LINE
  8
_1-1_
  6
CONTINUOUS
 62
    7
 10
272.12407292546453
 20
122.12407292546453
 11
242.7169634844806
 21
92.716963484480573
  0
LINE
  8
_1-1_
  6
CONTINUOUS
 62
    7
 10
272.12407292546453
 20
124.38681112753379
 11
242.7169634844806
 21
94.979701686549831
  0
LINE
  8
_1-1_
  6
CONTINUOUS
 62
    7
 10
272.12407292546453
 20
126.64954932960305
 11
242.7169634844806
 21
97.242439888619089
  0
LINE
  8
_1-1_
  6
CONTINUOUS
 62
    7
 10
173.43888566300677
 20
131.87338751715583
 11
125.58785928262247
 21
84.02236732276711
  0
LINE
  8
_1-1_
  6
CONTINUOUS
 62
    7
 10
181.66701445708404
 20
135.57603990709461
 11
133.81602519267315
 21
87.725044456688138
  0
LINE
  8
_1-1_
  6
CONTINUOUS
 62
    7
 10
177.55294387404984
 20
133.72471989812078
 11
129.70192986565667
 21
85.873699703732058
  0
LINE
  8
_1-1_
  6
CONTINUOUS
 62
    7
 10
84.289750795106642
 20
61.0518790580131
 11
242.7169634844806
 21
132.34412940772805
  0
LINE
  8
_1-1_
  6
CONTINUOUS
 62
    7
 10
242.7169634844806
 20
132.34412940772805
 11
242.7169634844806
 21
121.51753606023016
  0
LINE
  8
_1-1_
  6
CONTINUOUS
 62
    7
 10
84.289750795106642
 20
87.36993119523332
 11
253.4926460884713
 21
163.51124119114232
  0
LINE
  8
_1-1_
  6
CONTINUOUS
 62
    7
 10
253.4926460884713
 20
167.8975821830131
 11
253.4926460884713
 21
163.51124119114232
  0
LINE
  8
_1-1_
  6
CONTINUOUS
 62
    7
 10
253.4926460884713
 20
174.47709367081927
 11
257.00042724609375
 21
174.47709367081927
  0
LINE
  8
_1-2_
  6
CONTINUOUS
 62
    3
 10
200.84395949904984
 20
159.74987133129224
 11
144.11187249260979
 21
140.12111354518581
  0
LINE
  8
_1-0_
  6
CONTINUOUS
 62
    7
 10
248.88036779455237
 20
178.10379440720018
 11
250.35768251161318
 21
174.82088656038852
  0
LINE
  8
_1-0_
  6
CONTINUOUS
 62
    7
 10
244.52028016786318
 20
176.0959934543919
 11
250.35768251161318
 21
174.82088656038852
  0
LINE
  8
_1-0_
  6
CONTINUOUS
 62
    7
 10
246.00536449535474
 20
172.8623508762669
 11
253.24644346494935
 21
176.12082404059333
  0
LINE
  8
_1-1_
  6
CONTINUOUS
 62
    7
 10
253.4926460884713
 20
175.57367273279141
 11
253.24644346494935
 21
176.12082404059333
  0
LINE
  8
_1-1_
  6
DASHED1
 62
    3
 10
253.4926460884713
 20
174.97578388935813
 11
256.85451198268584
 21
174.97578388935813
  0
LINE
  8
_1-1_
  6
DASHED1
 62
    3
 10
256.85451198268584
 20
174.97578388935813
 11
256.85451198268584
 21
192.30336369694891
  0
LINE
  8
_1-1_
  6
DASHED1
 62
    3
 10
256.85451198268584
 20
192.30336369694891
 11
270.35215635557432
 21
192.30336369694891
  0
LINE
  8
_1-1_
  6
CONTINUOUS
 62
    7
 10
152.40793588999156
 20
132.65191980310388
 11
175.5634287241343
 21
67.793191445840378
  0
LINE
  8
_1-3_
  6
CONTINUOUS
 62
    7
 10
186.44985302074537
 20
55.959734530062292
 11
179.87045288085937
 21
55.959734530062292
  0
LINE
  8
_1-1_
  6
CONTINUOUS
 62
    7
 10
175.5634287241343
 20
67.793191445840378
 11
179.87045288085937
 21
55.959734530062292
  0
LINE
  8
_1-3_
  6
CONTINUOUS
 62
    7
 10
186.44985302074537
 20
75.711871997730157
 11
172.73634214658995
 21
75.711871997730157
  0
LINE
  8
_1-3_
  6
CONTINUOUS
 62
    7
 10
186.44985302074537
 20
68.072915979333828
 11
175.46356201171875
 21
68.072915979333828
  0
LINE
  8
_1-3_
  6
CONTINUOUS
 62
    7
 10
186.44985302074537
 20
62.130599150786537
 11
177.58504919103675
 21
62.130599150786537
  0
LINE
  8
_1-1_
  6
CONTINUOUS
 62
    3
 10
253.49185428103885
 20
213.53868639146961
 11
253.5605930637669
 21
213.60091750686234
  0
LINE
  8
_1-1_
  6
CONTINUOUS
 62
    3
 10
253.5605930637669
 20
213.60091750686234
 11
253.63430538692992
 21
213.6746545740076
  0
LINE
  8
_1-1_
  6
CONTINUOUS
 62
    3
 10
253.63430538692992
 20
213.6746545740076
 11
253.70804245407518
 21
213.69308884079393
  0
LINE
  8
_1-1_
  6
CONTINUOUS
 62
    3
 10
253.70804245407518
 20
213.69308884079393
 11
253.80021378800677
 21
213.71152310758023
  0
LINE
  8
_1-1_
  6
CONTINUOUS
 62
    3
 10
253.80021378800677
 20
213.71152310758023
 11
253.89236037795609
 21
213.72995737436656
  0
LINE
  8
_1-1_
  6
CONTINUOUS
 62
    3
 10
253.89236037795609
 20
213.72995737436656
 11
253.96609744510135
 21
213.72995737436656
  0
LINE
  8
_1-1_
  6
CONTINUOUS
 62
    3
 10
253.96609744510135
 20
213.72995737436656
 11
254.02140024546031
 21
213.63778604043497
  0
LINE
  8
_1-1_
  6
CONTINUOUS
 62
    3
 10
254.02140024546031
 20
213.63778604043497
 11
253.94768792229732
 21
213.61935177364867
  0
LINE
  8
_1-1_
  6
CONTINUOUS
 62
    3
 10
253.94768792229732
 20
213.61935177364867
 11
253.87395085515203
 21
213.61935177364867
  0
LINE
  8
_1-1_
  6
CONTINUOUS
 62
    3
 10
253.87395085515203
 20
213.61935177364867
 11
253.80021378800677
 21
213.61935177364867
  0
LINE
  8
_1-1_
  6
CONTINUOUS
 62
    3
 10
253.80021378800677
 20
213.61935177364867
 11
253.70804245407518
 21
213.61935177364867
  0
LINE
  8
_1-1_
  6
CONTINUOUS
 62
    3
 10
253.70804245407518
 20
213.61935177364867
 11
253.63430538692992
 21
213.58248324007602
  0
LINE
  8
_1-1_
  6
CONTINUOUS
 62
    3
 10
253.63430538692992
 20
213.58248324007602
 11
253.5605930637669
 21
213.58248324007602
  0
LINE
  8
_1-1_
  6
CONTINUOUS
 62
    3
 10
253.5605930637669
 20
213.58248324007602
 11
253.49185428103885
 21
213.53868639146961
  0
LINE
  8
_1-1_
  6
CONTINUOUS
 62
    3
 10
253.4926460884713
 20
213.53868639146961
 11
253.28407906197214
 21
213.63778604043497
  0
LINE
  8
_1-1_
  6
CONTINUOUS
 62
    3
 10
253.28407906197214
 20
213.63778604043497
 11
253.21034199482688
 21
213.6562203072213
  0
LINE
  8
_1-1_
  6
CONTINUOUS
 62
    3
 10
253.21034199482688
 20
213.6562203072213
 11
253.13662967166385
 21
213.6746545740076
  0
LINE
  8
_1-1_
  6
CONTINUOUS
 62
    3
 10
253.13662967166385
 20
213.6746545740076
 11
253.06289260451859
 21
213.71152310758023
  0
LINE
  8
_1-1_
  6
CONTINUOUS
 62
    3
 10
253.06289260451859
 20
213.71152310758023
 11
252.98915553737334
 21
213.74839164115289
  0
LINE
  8
_1-1_
  6
CONTINUOUS
 62
    3
 10
252.98915553737334
 20
213.74839164115289
 11
252.91541847022805
 21
213.76682590793919
  0
LINE
  8
_1-1_
  6
CONTINUOUS
 62
    3
 10
252.91541847022805
 20
213.76682590793919
 11
252.84168140308279
 21
213.76682590793919
  0
LINE
  8
_1-1_
  6
CONTINUOUS
 62
    3
 10
252.84168140308279
 20
213.76682590793919
 11
252.78640334670609
 21
213.6746545740076
  0
LINE
  8
_1-1_
  6
CONTINUOUS
 62
    3
 10
252.78640334670609
 20
213.6746545740076
 11
252.86011566986909
 21
213.6562203072213
  0
LINE
  8
_1-1_
  6
CONTINUOUS
 62
    3
 10
252.86011566986909
 20
213.6562203072213
 11
252.93385273701438
 21
213.63778604043497
  0
LINE
  8
_1-1_
  6
CONTINUOUS
 62
    3
 10
252.93385273701438
 20
213.63778604043497
 11
253.02602407094597
 21
213.61935177364867
  0
LINE
  8
_1-1_
  6
CONTINUOUS
 62
    3
 10
253.02602407094597
 20
213.61935177364867
 11
253.09976113809122
 21
213.61935177364867
  0
LINE
  8
_1-1_
  6
CONTINUOUS
 62
    3
 10
253.09976113809122
 20
213.61935177364867
 11
253.19190772804055
 21
213.60091750686234
  0
LINE
  8
_1-1_
  6
CONTINUOUS
 62
    3
 10
253.19190772804055
 20
213.60091750686234
 11
253.28407906197214
 21
213.58248324007602
  0
LINE
  8
_1-1_
  6
CONTINUOUS
 62
    3
 10
253.28407906197214
 20
213.58248324007602
 11
253.35781612911742
 21
213.56404897328972
  0
LINE
  8
_1-1_
  6
CONTINUOUS
 62
    3
 10
253.35781612911742
 20
213.56404897328972
 11
253.43152845228042
 21
213.56404897328972
  0
LINE
  8
_1-1_
  6
CONTINUOUS
 62
    3
 10
253.43152845228042
 20
213.56404897328972
 11
253.4926460884713
 21
213.53868639146961
  0
ARC
  8
_1-2_
  6
CONTINUOUS
 62
    3
 10
100.7839347220756
 20
116.38855392868454
 40
0.599999959404404
 50
109.08587646484375
 51
197.21983337402344
  0
ARC
  8
_1-2_
  6
CONTINUOUS
 62
    3
 10
99.754040692303633
 20
115.32025723843962
 40
0.1999999904954755
 50
197.21755981445312
 51
289.0885009765625
  0
ARC
  8
_1-2_
  6
CONTINUOUS
 62
    3
 10
98.619368269636823
 20
114.92768158783784
 40
0.1999999904954755
 50
289.08401489257812
 51
17.217575073242223
  0
ARC
  8
_1-2_
  6
CONTINUOUS
 62
    3
 10
100.22676210145693
 20
115.48382733319258
 40
0.1999999904954755
 50
289.0885009765625
 51
17.219955444335916
  0
ARC
  8
_1-2_
  6
CONTINUOUS
 62
    3
 10
98.146609744510144
 20
114.76412386507602
 40
0.1999999904954755
 50
197.216552734375
 51
289.08514404296875
  0
ARC
  8
_1-2_
  6
CONTINUOUS
 62
    3
 10
148.20383432749156
 20
137.72751679291596
 40
0.599999959404404
 50
109.08587646484375
 51
197.21983337402344
  0
ARC
  8
_1-2_
  6
CONTINUOUS
 62
    3
 10
147.17394029771961
 20
136.65922010267104
 40
0.1999999904954755
 50
197.21755981445312
 51
289.0885009765625
  0
ARC
  8
_1-2_
  6
CONTINUOUS
 62
    3
 10
146.03928024704393
 20
136.26664445206927
 40
0.1999999904954755
 50
289.08401489257812
 51
17.217575073242223
  0
ARC
  8
_1-2_
  6
CONTINUOUS
 62
    3
 10
147.64667407886404
 20
136.82279019742398
 40
0.1999999904954755
 50
289.0885009765625
 51
17.219955444335916
  0
ARC
  8
_1-2_
  6
CONTINUOUS
 62
    3
 10
145.56652172191724
 20
136.10308672930745
 40
0.1999999904954755
 50
197.216552734375
 51
289.08514404296875
  0
ARC
  8
_1-2_
  6
CONTINUOUS
 62
    3
 10
195.62379579286318
 20
159.0664796571474
 40
0.599999959404404
 50
109.08587646484375
 51
197.21983337402344
  0
ARC
  8
_1-2_
  6
CONTINUOUS
 62
    3
 10
194.59390176309122
 20
157.99818296690245
 40
0.1999999904954755
 50
197.21755981445312
 51
289.0885009765625
  0
ARC
  8
_1-2_
  6
CONTINUOUS
 62
    3
 10
193.45921696843328
 20
157.60560731630068
 40
0.1999999904954755
 50
289.08401489257812
 51
17.217575073242223
  0
ARC
  8
_1-2_
  6
CONTINUOUS
 62
    3
 10
195.06661080025339
 20
158.16175306165542
 40
0.1999999904954755
 50
289.0885009765625
 51
17.219955444335916
  0
ARC
  8
_1-2_
  6
CONTINUOUS
 62
    3
 10
192.98645844330659
 20
157.44204959353885
 40
0.1999999904954755
 50
197.216552734375
 51
289.08514404296875
  0
ARC
  8
_1-3_
  6
CONTINUOUS
 62
    7
 10
253.11698294974664
 20
186.19344350453972
 40
27.347813168087523
 50
9.1478271484375
 51
170.8521728515625
  0
ARC
  8
_1-3_
  6
CONTINUOUS
 62
    7
 10
253.11698294974664
 20
186.12020131703972
 40
23.421054530788112
 50
10.880661010742188
 51
167.87541198730469
  0
ARC
  8
_1-3_
  6
CONTINUOUS
 62
    7
 10
253.11698294974664
 20
186.02178212758659
 40
19.919481019716006
 50
13.113861083984375
 51
163.84519958496094
  0
ARC
  8
_1-1_
  6
CONTINUOUS
 62
    7
 10
280.08530075485646
 20
183.55280283335094
 40
0.5774933744121242
 50
301.60540771484375
 51
60.439651489257834
  0
ARC
  8
_1-3_
  6
CONTINUOUS
 62
    7
 10
269.52407424514359
 20
168.49757426493878
 40
0.599999959404404
 50
0
 51
90
  0
ARC
  8
_1-3_
  6
CONTINUOUS
 62
    7
 10
257.7240897513725
 20
180.29758350269216
 40
0.599999959404404
 50
0
 51
90
  0
ARC
  8
_1-3_
  6
CONTINUOUS
 62
    7
 10
258.92407391522386
 20
169.6975831727724
 40
0.599999959404404
 50
180
 51
270
  0
CIRCLE
  8
_1-1_
  6
CONTINUOUS
 62
    7
 10
83.760829616237331
 20
94.331891858899922
 40
0.059781551763818
  0
CIRCLE
  8
_1-1_
  6
CONTINUOUS
 62
    7
 10
84.122537148965378
 20
95.537573324667449
 40
0.059781551763818
  0
CIRCLE
  8
_1-1_
  6
CONTINUOUS
 62
    7
 10
84.574665378879857
 20
95.83899214461043
 40
0.059781551763818
  0
CIRCLE
  8
_1-1_
  6
CONTINUOUS
 62
    7
 10
84.393811612515847
 20
94.964873855178425
 40
0.059781551763818
  0
CIRCLE
  8
_1-1_
  6
CONTINUOUS
 62
    7
 10
83.670402733055326
 20
93.940046155774922
 40
0.059781551763818
  0
CIRCLE
  8
_1-1_
  6
CONTINUOUS
 62
    7
 10
83.037420736776824
 20
93.457773569467918
 40
0.059781551763818
  0
CIRCLE
  8
_1-1_
  6
CONTINUOUS
 62
    7
 10
83.941683382601354
 20
93.09606603673987
 40
0.059781551763818
  0
CIRCLE
  8
_1-1_
  6
CONTINUOUS
 62
    7
 10
85.026799794789909
 20
93.427629213075392
 40
0.059781551763818
  0
CIRCLE
  8
_1-1_
  6
CONTINUOUS
 62
    7
 10
84.725374788851354
 20
93.126210393132396
 40
0.059781551763818
  0
CIRCLE
  8
_1-1_
  6
CONTINUOUS
 62
    7
 10
83.549837679476354
 20
92.613793450432865
 40
0.059781551763818
  0
CIRCLE
  8
_1-1_
  6
CONTINUOUS
 62
    7
 10
84.092392792572852
 20
94.87444697199642
 40
0.059781551763818
  0
CIRCLE
  8
_1-1_
  6
CONTINUOUS
 62
    7
 10
83.489555152686876
 20
96.049990267366979
 40
0.059781551763818
  0
CIRCLE
  8
_1-1_
  6
CONTINUOUS
 62
    7
 10
83.338839556719805
 20
96.562401024070951
 40
0.059781551763818
  0
CIRCLE
  8
_1-1_
  6
CONTINUOUS
 62
    7
 10
85.810491201039909
 20
97.104962323163008
 40
0.059781551763818
  0
CIRCLE
  8
_1-1_
  6
CONTINUOUS
 62
    7
 10
86.53390008050043
 20
97.587234909470027
 40
0.059781551763818
  0
CIRCLE
  8
_1-1_
  6
CONTINUOUS
 62
    7
 10
85.207647375158359
 20
97.647517436259506
 40
0.059781551763818
  0
CIRCLE
  8
_1-1_
  6
CONTINUOUS
 62
    7
 10
86.744892017261407
 20
96.562401024070951
 40
0.059781551763818
  0
CIRCLE
  8
_1-1_
  6
CONTINUOUS
 62
    7
 10
85.75020867425043
 20
95.869136501002956
 40
0.059781551763818
  0
CIRCLE
  8
_1-1_
  6
CONTINUOUS
 62
    7
 10
85.207647375158359
 20
95.507428968274922
 40
0.059781551763818
  0
CIRCLE
  8
_1-1_
  6
CONTINUOUS
 62
    7
 10
85.629637434675885
 20
94.87444697199642
 40
0.059781551763818
  0
CIRCLE
  8
_1-1_
  6
CONTINUOUS
 62
    7
 10
85.900918084221928
 20
94.48260126887142
 40
0.059781551763818
  0
CIRCLE
  8
_1-1_
  6
CONTINUOUS
 62
    7
 10
86.955890140017956
 20
94.693599391627956
 40
0.059781551763818
  0
CIRCLE
  8
_1-1_
  6
CONTINUOUS
 62
    7
 10
88.583561665303009
 20
95.507428968274922
 40
0.059781551763818
  0
CIRCLE
  8
_1-1_
  6
CONTINUOUS
 62
    7
 10
89.397397427945535
 20
96.441835970491979
 40
0.059781551763818
  0
CIRCLE
  8
_1-1_
  6
CONTINUOUS
 62
    7
 10
88.221854132574961
 20
95.778709617820951
 40
0.059781551763818
  0
CIRCLE
  8
_1-1_
  6
CONTINUOUS
 62
    7
 10
87.347735843142956
 20
93.849619272592918
 40
0.059781551763818
  0
CIRCLE
  8
_1-1_
  6
CONTINUOUS
 62
    7
 10
88.131427249392956
 20
94.301747502507396
 40
0.059781551763818
  0
CIRCLE
  8
_1-1_
  6
CONTINUOUS
 62
    7
 10
85.478928024704402
 20
93.608482979439401
 40
0.059781551763818
  0
CIRCLE
  8
_1-1_
  6
CONTINUOUS
 62
    7
 10
84.755519145243881
 20
97.376236786713477
 40
0.059781551763818
  0
CIRCLE
  8
_1-1_
  6
CONTINUOUS
 62
    7
 10
86.051627494193411
 20
97.195389206345027
 40
0.059781551763818
  0
CIRCLE
  8
_1-1_
  6
CONTINUOUS
 62
    7
 10
87.31759148675043
 20
97.225527376741979
 40
0.059781551763818
  0
CIRCLE
  8
_1-1_
  6
CONTINUOUS
 62
    7
 10
86.714753846864454
 20
96.049990267366979
 40
0.059781551763818
  0
CIRCLE
  8
_1-1_
  6
CONTINUOUS
 62
    7
 10
87.920435312631966
 20
97.828371202623529
 40
0.059781551763818
  0
CIRCLE
  8
_1-1_
  6
CONTINUOUS
 62
    7
 10
88.553417308910483
 20
98.642206965266055
 40
0.059781551763818
  0
CIRCLE
  8
_1-1_
  6
CONTINUOUS
 62
    7
 10
91.355469162399714
 20
99.746660799593542
 40
0.059781551763818
  0
CIRCLE
  8
_1-1_
  6
CONTINUOUS
 62
    7
 10
91.717176695127748
 20
100.95234226536107
 40
0.059781551763818
  0
CIRCLE
  8
_1-1_
  6
CONTINUOUS
 62
    7
 10
92.16930492504224
 20
101.25376108530406
 40
0.059781551763818
  0
CIRCLE
  8
_1-1_
  6
CONTINUOUS
 62
    7
 10
91.988451158678217
 20
100.37964279587204
 40
0.059781551763818
  0
CIRCLE
  8
_1-1_
  6
CONTINUOUS
 62
    7
 10
91.265042279217695
 20
99.354815096468542
 40
0.059781551763818
  0
CIRCLE
  8
_1-1_
  6
CONTINUOUS
 62
    7
 10
90.632060282939193
 20
98.872542510161537
 40
0.059781551763818
  0
CIRCLE
  8
_1-1_
  6
CONTINUOUS
 62
    7
 10
91.536322928763724
 20
98.51083497743349
 40
0.059781551763818
  0
CIRCLE
  8
_1-1_
  6
CONTINUOUS
 62
    7
 10
92.621439340952278
 20
98.842398153769011
 40
0.059781551763818
  0
CIRCLE
  8
_1-1_
  6
CONTINUOUS
 62
    7
 10
92.320014335013724
 20
98.540979333826016
 40
0.059781551763818
  0
CIRCLE
  8
_1-1_
  6
CONTINUOUS
 62
    7
 10
91.687032338735222
 20
100.28921591269004
 40
0.059781551763818
  0
CIRCLE
  8
_1-1_
  6
CONTINUOUS
 62
    7
 10
91.084194698849245
 20
101.4647592080606
 40
0.059781551763818
  0
CIRCLE
  8
_1-1_
  6
CONTINUOUS
 62
    7
 10
90.933479102882188
 20
101.97716996476457
 40
0.059781551763818
  0
CIRCLE
  8
_1-1_
  6
CONTINUOUS
 62
    7
 10
93.405130747202278
 20
102.51973126385664
 40
0.059781551763818
  0
CIRCLE
  8
_1-1_
  6
CONTINUOUS
 62
    7
 10
94.1285396266628
 20
103.00200385016365
 40
0.059781551763818
  0
CIRCLE
  8
_1-1_
  6
CONTINUOUS
 62
    7
 10
92.802286921320743
 20
103.06228637695312
 40
0.059781551763818
  0
CIRCLE
  8
_1-1_
  6
CONTINUOUS
 62
    7
 10
94.339531563423776
 20
101.97716996476457
 40
0.059781551763818
  0
CIRCLE
  8
_1-1_
  6
CONTINUOUS
 62
    7
 10
93.3448482204128
 20
101.28390544169659
 40
0.059781551763818
  0
CIRCLE
  8
_1-1_
  6
CONTINUOUS
 62
    7
 10
92.802286921320743
 20
100.92219790896854
 40
0.059781551763818
  0
CIRCLE
  8
_1-1_
  6
CONTINUOUS
 62
    7
 10
93.224276980838269
 20
100.28921591269004
 40
0.059781551763818
  0
CIRCLE
  8
_1-1_
  6
CONTINUOUS
 62
    7
 10
93.495557630384297
 20
99.89737020956504
 40
0.059781551763818
  0
CIRCLE
  8
_1-1_
  6
CONTINUOUS
 62
    7
 10
94.550529686180326
 20
100.10836833232159
 40
0.059781551763818
  0
CIRCLE
  8
_1-1_
  6
CONTINUOUS
 62
    7
 10
96.178201211465378
 20
100.92219790896854
 40
0.059781551763818
  0
CIRCLE
  8
_1-1_
  6
CONTINUOUS
 62
    7
 10
95.816493678737331
 20
101.19347855851457
 40
0.059781551763818
  0
CIRCLE
  8
_1-1_
  6
CONTINUOUS
 62
    7
 10
94.942375389305326
 20
99.264388213286537
 40
0.059781551763818
  0
CIRCLE
  8
_1-1_
  6
CONTINUOUS
 62
    7
 10
95.726066795555326
 20
99.716516443201016
 40
0.059781551763818
  0
CIRCLE
  8
_1-1_
  6
CONTINUOUS
 62
    7
 10
93.073567570866771
 20
99.023251920133035
 40
0.059781551763818
  0
CIRCLE
  8
_1-1_
  6
CONTINUOUS
 62
    7
 10
92.35015869140625
 20
102.7910057274071
 40
0.059781551763818
  0
CIRCLE
  8
_1-1_
  6
CONTINUOUS
 62
    7
 10
93.646267040355795
 20
102.61015814703865
 40
0.059781551763818
  0
CIRCLE
  8
_1-1_
  6
CONTINUOUS
 62
    7
 10
94.9122310329128
 20
102.6402963174356
 40
0.059781551763818
  0
CIRCLE
  8
_1-1_
  6
CONTINUOUS
 62
    7
 10
94.309393393026824
 20
101.4647592080606
 40
0.059781551763818
  0
CIRCLE
  8
_1-1_
  6
CONTINUOUS
 62
    7
 10
95.51507485879435
 20
103.24314014331715
 40
0.059781551763818
  0
CIRCLE
  8
_1-1_
  6
CONTINUOUS
 62
    7
 10
96.148056855072852
 20
104.05698209195525
 40
0.059781551763818
  0
CIRCLE
  8
_1-1_
  6
CONTINUOUS
 62
    7
 10
87.310805449614662
 20
96.891607336095873
 40
0.059781551763818
  0
CIRCLE
  8
_1-1_
  6
CONTINUOUS
 62
    7
 10
87.672512982342695
 20
98.097288801863385
 40
0.059781551763818
  0
CIRCLE
  8
_1-1_
  6
CONTINUOUS
 62
    7
 10
88.124641212257188
 20
98.398707621806381
 40
0.059781551763818
  0
CIRCLE
  8
_1-1_
  6
CONTINUOUS
 62
    7
 10
87.943787445893165
 20
97.524589332374376
 40
0.059781551763818
  0
CIRCLE
  8
_1-1_
  6
CONTINUOUS
 62
    7
 10
87.220378566432643
 20
96.499761632970873
 40
0.059781551763818
  0
CIRCLE
  8
_1-1_
  6
CONTINUOUS
 62
    7
 10
86.587396570154141
 20
96.017489046663854
 40
0.059781551763818
  0
CIRCLE
  8
_1-1_
  6
CONTINUOUS
 62
    7
 10
87.491659215978686
 20
95.655781513935821
 40
0.059781551763818
  0
CIRCLE
  8
_1-1_
  6
CONTINUOUS
 62
    7
 10
88.57677562816724
 20
95.987344690271328
 40
0.059781551763818
  0
CIRCLE
  8
_1-1_
  6
CONTINUOUS
 62
    7
 10
88.275350622228686
 20
95.685925870328347
 40
0.059781551763818
  0
CIRCLE
  8
_1-1_
  6
CONTINUOUS
 62
    7
 10
87.642368625950169
 20
97.434162449192357
 40
0.059781551763818
  0
CIRCLE
  8
_1-1_
  6
CONTINUOUS
 62
    7
 10
87.039530986064193
 20
98.60970574456293
 40
0.059781551763818
  0
CIRCLE
  8
_1-1_
  6
CONTINUOUS
 62
    7
 10
86.888815390097136
 20
99.122116501266902
 40
0.059781551763818
  0
CIRCLE
  8
_1-1_
  6
CONTINUOUS
 62
    7
 10
89.36046703441724
 20
99.664677800358959
 40
0.059781551763818
  0
CIRCLE
  8
_1-1_
  6
CONTINUOUS
 62
    7
 10
90.083875913877748
 20
100.14695038666596
 40
0.059781551763818
  0
CIRCLE
  8
_1-1_
  6
CONTINUOUS
 62
    7
 10
88.757623208535691
 20
100.20723291345546
 40
0.059781551763818
  0
CIRCLE
  8
_1-1_
  6
CONTINUOUS
 62
    7
 10
90.294867850638724
 20
99.122116501266902
 40
0.059781551763818
  0
CIRCLE
  8
_1-1_
  6
CONTINUOUS
 62
    7
 10
89.300184507627748
 20
98.428851978198907
 40
0.059781551763818
  0
CIRCLE
  8
_1-1_
  6
CONTINUOUS
 62
    7
 10
88.757623208535691
 20
98.067144445470873
 40
0.059781551763818
  0
CIRCLE
  8
_1-1_
  6
CONTINUOUS
 62
    7
 10
89.179613268053217
 20
97.434162449192357
 40
0.059781551763818
  0
CIRCLE
  8
_1-1_
  6
CONTINUOUS
 62
    7
 10
89.450893917599245
 20
97.042316746067357
 40
0.059781551763818
  0
CIRCLE
  8
_1-1_
  6
CONTINUOUS
 62
    7
 10
90.505865973395274
 20
97.253314868823907
 40
0.059781551763818
  0
CIRCLE
  8
_1-1_
  6
CONTINUOUS
 62
    7
 10
92.133537498680326
 20
98.067144445470873
 40
0.059781551763818
  0
CIRCLE
  8
_1-1_
  6
CONTINUOUS
 62
    7
 10
91.771829965952278
 20
98.338425095016902
 40
0.059781551763818
  0
CIRCLE
  8
_1-1_
  6
CONTINUOUS
 62
    7
 10
90.897711676520274
 20
96.409334749788854
 40
0.059781551763818
  0
CIRCLE
  8
_1-1_
  6
CONTINUOUS
 62
    7
 10
91.681403082770274
 20
96.861462979703347
 40
0.059781551763818
  0
CIRCLE
  8
_1-1_
  6
CONTINUOUS
 62
    7
 10
89.028903858081719
 20
96.168198456635352
 40
0.059781551763818
  0
CIRCLE
  8
_1-1_
  6
CONTINUOUS
 62
    7
 10
88.305494978621198
 20
99.935952263909428
 40
0.059781551763818
  0
CIRCLE
  8
_1-1_
  6
CONTINUOUS
 62
    7
 10
89.601603327570743
 20
99.755104683540964
 40
0.059781551763818
  0
CIRCLE
  8
_1-1_
  6
CONTINUOUS
 62
    7
 10
90.867567320127748
 20
99.78524285393793
 40
0.059781551763818
  0
CIRCLE
  8
_1-1_
  6
CONTINUOUS
 62
    7
 10
90.264729680241771
 20
98.60970574456293
 40
0.059781551763818
  0
CIRCLE
  8
_1-1_
  6
CONTINUOUS
 62
    7
 10
91.470411146009297
 20
100.38808667981948
 40
0.059781551763818
  0
CIRCLE
  8
_1-1_
  6
CONTINUOUS
 62
    7
 10
92.1033931422878
 20
101.20192244246199
 40
0.059781551763818
  0
CIRCLE
  8
_1-1_
  6
CONTINUOUS
 62
    7
 10
96.589736938476563
 20
100.93627104888091
 40
0.059781551763818
  0
CIRCLE
  8
_1-1_
  6
CONTINUOUS
 62
    7
 10
96.95144447120461
 20
102.14195251464844
 40
0.059781551763818
  0
CIRCLE
  8
_1-1_
  6
CONTINUOUS
 62
    7
 10
97.403572701119089
 20
102.44337133459143
 40
0.059781551763818
  0
CIRCLE
  8
_1-1_
  6
CONTINUOUS
 62
    7
 10
97.222718934755079
 20
101.56925304515943
 40
0.059781551763818
  0
CIRCLE
  8
_1-1_
  6
CONTINUOUS
 62
    7
 10
96.499310055294558
 20
100.54442534575591
 40
0.059781551763818
  0
CIRCLE
  8
_1-1_
  6
CONTINUOUS
 62
    7
 10
95.866328059016055
 20
100.06215275944891
 40
0.059781551763818
  0
CIRCLE
  8
_1-1_
  6
CONTINUOUS
 62
    7
 10
96.770590704840586
 20
99.700445226720873
 40
0.059781551763818
  0
CIRCLE
  8
_1-1_
  6
CONTINUOUS
 62
    7
 10
97.855707117029141
 20
100.03200840305638
 40
0.059781551763818
  0
CIRCLE
  8
_1-1_
  6
CONTINUOUS
 62
    7
 10
97.554282111090586
 20
99.730589583113385
 40
0.059781551763818
  0
CIRCLE
  8
_1-1_
  6
CONTINUOUS
 62
    7
 10
96.921300114812084
 20
101.47882616197741
 40
0.059781551763818
  0
CIRCLE
  8
_1-1_
  6
CONTINUOUS
 62
    7
 10
96.318462474926108
 20
102.65436945734798
 40
0.059781551763818
  0
CIRCLE
  8
_1-1_
  6
CONTINUOUS
 62
    7
 10
96.167746878959036
 20
103.16678021405195
 40
0.059781551763818
  0
CIRCLE
  8
_1-1_
  6
CONTINUOUS
 62
    7
 10
98.639398523279141
 20
103.70934151314401
 40
0.059781551763818
  0
CIRCLE
  8
_1-1_
  6
CONTINUOUS
 62
    7
 10
99.362807402739662
 20
104.19161409945102
 40
0.059781551763818
  0
CIRCLE
  8
_1-1_
  6
CONTINUOUS
 62
    7
 10
98.036554697397605
 20
104.25189044024494
 40
0.059781551763818
  0
CIRCLE
  8
_1-1_
  6
CONTINUOUS
 62
    7
 10
99.573799339500638
 20
103.16678021405195
 40
0.059781551763818
  0
CIRCLE
  8
_1-1_
  6
CONTINUOUS
 62
    7
 10
98.579115996489662
 20
102.47351569098396
 40
0.059781551763818
  0
CIRCLE
  8
_1-1_
  6
CONTINUOUS
 62
    7
 10
98.036554697397605
 20
102.11180815825591
 40
0.059781551763818
  0
CIRCLE
  8
_1-1_
  6
CONTINUOUS
 62
    7
 10
98.458544756915117
 20
101.47882616197741
 40
0.059781551763818
  0
CIRCLE
  8
_1-1_
  6
CONTINUOUS
 62
    7
 10
98.72982540646116
 20
101.08698045885241
 40
0.059781551763818
  0
CIRCLE
  8
_1-1_
  6
CONTINUOUS
 62
    7
 10
99.784797462257188
 20
101.29797858160896
 40
0.059781551763818
  0
CIRCLE
  8
_1-1_
  6
CONTINUOUS
 62
    7
 10
101.41246898754224
 20
102.11180815825591
 40
0.059781551763818
  0
CIRCLE
  8
_1-1_
  6
CONTINUOUS
 62
    7
 10
101.05076145481419
 20
102.38308880780195
 40
0.059781551763818
  0
CIRCLE
  8
_1-1_
  6
CONTINUOUS
 62
    7
 10
100.17664316538219
 20
100.45399846257391
 40
0.059781551763818
  0
CIRCLE
  8
_1-1_
  6
CONTINUOUS
 62
    7
 10
100.96033457163219
 20
100.9061266924884
 40
0.059781551763818
  0
CIRCLE
  8
_1-1_
  6
CONTINUOUS
 62
    7
 10
98.307835346943634
 20
100.2128621694204
 40
0.059781551763818
  0
CIRCLE
  8
_1-1_
  6
CONTINUOUS
 62
    7
 10
97.584426467483112
 20
103.98062216269004
 40
0.059781551763818
  0
CIRCLE
  8
_1-1_
  6
CONTINUOUS
 62
    7
 10
98.880534816432643
 20
103.79976839632602
 40
0.059781551763818
  0
CIRCLE
  8
_1-1_
  6
CONTINUOUS
 62
    7
 10
100.14649880898966
 20
103.82990656672298
 40
0.059781551763818
  0
CIRCLE
  8
_1-1_
  6
CONTINUOUS
 62
    7
 10
99.543661169103686
 20
102.65436945734798
 40
0.059781551763818
  0
CIRCLE
  8
_1-1_
  6
CONTINUOUS
 62
    7
 10
100.74934263487121
 20
104.43274420660896
 40
0.059781551763818
  0
CIRCLE
  8
_1-1_
  6
CONTINUOUS
 62
    7
 10
101.38232463114971
 20
105.24658615524704
 40
0.059781551763818
  0
CIRCLE
  8
_1-1_
  6
CONTINUOUS
 62
    7
 10
99.444790401974245
 20
101.88794935071792
 40
0.059781551763818
  0
CIRCLE
  8
_1-1_
  6
CONTINUOUS
 62
    7
 10
99.806497934702293
 20
103.09363081648543
 40
0.059781551763818
  0
CIRCLE
  8
_1-1_
  6
CONTINUOUS
 62
    7
 10
100.25862616461677
 20
103.39504963642842
 40
0.059781551763818
  0
CIRCLE
  8
_1-1_
  6
CONTINUOUS
 62
    7
 10
100.07777239825275
 20
102.52093134699642
 40
0.059781551763818
  0
CIRCLE
  8
_1-1_
  6
CONTINUOUS
 62
    7
 10
99.35436351879224
 20
101.49610364759292
 40
0.059781551763818
  0
CIRCLE
  8
_1-1_
  6
CONTINUOUS
 62
    7
 10
98.721381522513724
 20
101.0138310612859
 40
0.059781551763818
  0
CIRCLE
  8
_1-1_
  6
CONTINUOUS
 62
    7
 10
99.625644168338269
 20
100.65212352855787
 40
0.059781551763818
  0
CIRCLE
  8
_1-1_
  6
CONTINUOUS
 62
    7
 10
100.71076058052682
 20
100.98368670489337
 40
0.059781551763818
  0
CIRCLE
  8
_1-1_
  6
CONTINUOUS
 62
    7
 10
100.40933557458827
 20
100.68226788495039
 40
0.059781551763818
  0
CIRCLE
  8
_1-1_
  6
CONTINUOUS
 62
    7
 10
99.776353578309767
 20
102.4305044638144
 40
0.059781551763818
  0
CIRCLE
  8
_1-1_
  6
CONTINUOUS
 62
    7
 10
99.173515938423776
 20
103.60604775918497
 40
0.059781551763818
  0
CIRCLE
  8
_1-1_
  6
CONTINUOUS
 62
    7
 10
99.022800342456719
 20
104.11845851588895
 40
0.059781551763818
  0
CIRCLE
  8
_1-1_
  6
CONTINUOUS
 62
    7
 10
101.49445198677682
 20
104.661019814981
 40
0.059781551763818
  0
CIRCLE
  8
_1-1_
  6
CONTINUOUS
 62
    7
 10
102.21786086623733
 20
105.14329240128801
 40
0.059781551763818
  0
CIRCLE
  8
_1-1_
  6
CONTINUOUS
 62
    7
 10
100.89160816089527
 20
105.20356874208193
 40
0.059781551763818
  0
CIRCLE
  8
_1-1_
  6
CONTINUOUS
 62
    7
 10
102.42885280299832
 20
104.11845851588895
 40
0.059781551763818
  0
CIRCLE
  8
_1-1_
  6
CONTINUOUS
 62
    7
 10
101.43416945998733
 20
103.42519399282095
 40
0.059781551763818
  0
CIRCLE
  8
_1-1_
  6
CONTINUOUS
 62
    7
 10
100.89160816089527
 20
103.06348646009292
 40
0.059781551763818
  0
CIRCLE
  8
_1-1_
  6
CONTINUOUS
 62
    7
 10
101.3135982204128
 20
102.4305044638144
 40
0.059781551763818
  0
CIRCLE
  8
_1-1_
  6
CONTINUOUS
 62
    7
 10
101.58487886995883
 20
102.0386587606894
 40
0.059781551763818
  0
CIRCLE
  8
_1-1_
  6
CONTINUOUS
 62
    7
 10
102.63985092575486
 20
102.24965688344595
 40
0.059781551763818
  0
CIRCLE
  8
_1-1_
  6
CONTINUOUS
 62
    7
 10
104.26752863703548
 20
103.06348646009292
 40
0.059781551763818
  0
CIRCLE
  8
_1-1_
  6
CONTINUOUS
 62
    7
 10
103.90582110430744
 20
103.33476710963895
 40
0.059781551763818
  0
CIRCLE
  8
_1-1_
  6
CONTINUOUS
 62
    7
 10
103.03169662887986
 20
101.4056767644109
 40
0.059781551763818
  0
CIRCLE
  8
_1-1_
  6
CONTINUOUS
 62
    7
 10
103.8153818491343
 20
101.85780499432539
 40
0.059781551763818
  0
CIRCLE
  8
_1-1_
  6
CONTINUOUS
 62
    7
 10
101.1628888104413
 20
101.1645404712574
 40
0.059781551763818
  0
CIRCLE
  8
_1-1_
  6
CONTINUOUS
 62
    7
 10
100.4394799309808
 20
104.93230046452703
 40
0.059781551763818
  0
CIRCLE
  8
_1-1_
  6
CONTINUOUS
 62
    7
 10
101.73558827993033
 20
104.75144669816301
 40
0.059781551763818
  0
CIRCLE
  8
_1-1_
  6
CONTINUOUS
 62
    7
 10
103.00155227248733
 20
104.78158486855997
 40
0.059781551763818
  0
CIRCLE
  8
_1-1_
  6
CONTINUOUS
 62
    7
 10
102.39871463260135
 20
103.60604775918497
 40
0.059781551763818
  0
CIRCLE
  8
_1-1_
  6
CONTINUOUS
 62
    7
 10
103.60439609836888
 20
105.38442250844595
 40
0.059781551763818
  0
CIRCLE
  8
_1-1_
  6
CONTINUOUS
 62
    7
 10
104.23737809464738
 20
106.19826445708404
 40
0.059781551763818
  0
CIRCLE
  8
_1-1_
  6
CONTINUOUS
 62
    7
 10
102.29984386547193
 20
102.83964002454604
 40
0.059781551763818
  0
CIRCLE
  8
_1-1_
  6
CONTINUOUS
 62
    7
 10
102.66155139819996
 20
104.04532767630913
 40
0.059781551763818
  0
CIRCLE
  8
_1-1_
  6
CONTINUOUS
 62
    7
 10
103.11367962811445
 20
104.34673412426099
 40
0.059781551763818
  0
CIRCLE
  8
_1-1_
  6
CONTINUOUS
 62
    7
 10
102.93282586175043
 20
103.47262202082455
 40
0.059781551763818
  0
CIRCLE
  8
_1-1_
  6
CONTINUOUS
 62
    7
 10
102.20941698228991
 20
102.44779432142104
 40
0.059781551763818
  0
CIRCLE
  8
_1-1_
  6
CONTINUOUS
 62
    7
 10
101.57643498601141
 20
101.96552173511402
 40
0.059781551763818
  0
CIRCLE
  8
_1-1_
  6
CONTINUOUS
 62
    7
 10
102.48069763183594
 20
101.60381420238599
 40
0.059781551763818
  0
CIRCLE
  8
_1-1_
  6
CONTINUOUS
 62
    7
 10
103.56581404402449
 20
101.9353773787215
 40
0.059781551763818
  0
CIRCLE
  8
_1-1_
  6
CONTINUOUS
 62
    7
 10
103.26438903808594
 20
101.63395855877852
 40
0.059781551763818
  0
CIRCLE
  8
_1-1_
  6
CONTINUOUS
 62
    7
 10
102.63140704180744
 20
103.38219513764253
 40
0.059781551763818
  0
CIRCLE
  8
_1-1_
  6
CONTINUOUS
 62
    7
 10
102.02856940192146
 20
104.5577384330131
 40
0.059781551763818
  0
CIRCLE
  8
_1-1_
  6
CONTINUOUS
 62
    7
 10
101.8778538059544
 20
105.07014918971707
 40
0.059781551763818
  0
CIRCLE
  8
_1-1_
  6
CONTINUOUS
 62
    7
 10
104.34950545027449
 20
105.61271048880913
 40
0.059781551763818
  0
CIRCLE
  8
_1-1_
  6
CONTINUOUS
 62
    7
 10
105.07292051573059
 20
106.09498307511613
 40
0.059781551763818
  0
CIRCLE
  8
_1-1_
  6
CONTINUOUS
 62
    7
 10
103.74666162439296
 20
106.15527178790119
 40
0.059781551763818
  0
CIRCLE
  8
_1-1_
  6
CONTINUOUS
 62
    7
 10
105.28391245249156
 20
105.07014918971707
 40
0.059781551763818
  0
CIRCLE
  8
_1-1_
  6
CONTINUOUS
 62
    7
 10
104.28922910948059
 20
104.37688466664908
 40
0.059781551763818
  0
CIRCLE
  8
_1-1_
  6
CONTINUOUS
 62
    7
 10
103.74666162439296
 20
104.01517713392104
 40
0.059781551763818
  0
CIRCLE
  8
_1-1_
  6
CONTINUOUS
 62
    7
 10
104.16865168391048
 20
103.38219513764253
 40
0.059781551763818
  0
CIRCLE
  8
_1-1_
  6
CONTINUOUS
 62
    7
 10
104.43993233345651
 20
102.99034943451753
 40
0.059781551763818
  0
CIRCLE
  8
_1-1_
  6
CONTINUOUS
 62
    7
 10
105.49490438925254
 20
103.20134755727408
 40
0.059781551763818
  0
CIRCLE
  8
_1-1_
  6
CONTINUOUS
 62
    7
 10
107.12257591453759
 20
104.01517713392104
 40
0.059781551763818
  0
CIRCLE
  8
_1-1_
  6
CONTINUOUS
 62
    7
 10
106.76086838180954
 20
104.28645778346707
 40
0.059781551763818
  0
CIRCLE
  8
_1-1_
  6
CONTINUOUS
 62
    7
 10
105.88675009237754
 20
102.35736743823902
 40
0.059781551763818
  0
CIRCLE
  8
_1-1_
  6
CONTINUOUS
 62
    7
 10
106.67044149862754
 20
102.80949566815352
 40
0.059781551763818
  0
CIRCLE
  8
_1-1_
  6
CONTINUOUS
 62
    7
 10
104.01793608794341
 20
102.11623114508552
 40
0.059781551763818
  0
CIRCLE
  8
_1-1_
  6
CONTINUOUS
 62
    7
 10
103.29453339447846
 20
105.88397876636402
 40
0.059781551763818
  0
CIRCLE
  8
_1-1_
  6
CONTINUOUS
 62
    7
 10
104.59063555743244
 20
105.70313737199113
 40
0.059781551763818
  0
CIRCLE
  8
_1-1_
  6
CONTINUOUS
 62
    7
 10
105.85661192198059
 20
105.7332755423881
 40
0.059781551763818
  0
CIRCLE
  8
_1-1_
  6
CONTINUOUS
 62
    7
 10
105.2537742820946
 20
104.5577384330131
 40
0.059781551763818
  0
CIRCLE
  8
_1-1_
  6
CONTINUOUS
 62
    7
 10
106.45944956186656
 20
106.33612555426521
 40
0.059781551763818
  0
CIRCLE
  8
_1-1_
  6
CONTINUOUS
 62
    7
 10
107.09242537214949
 20
107.14995513091216
 40
0.059781551763818
  0
CIRCLE
  8
_1-1_
  6
CONTINUOUS
 62
    7
 10
106.10657563080659
 20
104.50508323875634
 40
0.059781551763818
  0
CIRCLE
  8
_1-1_
  6
CONTINUOUS
 62
    7
 10
106.46828316353464
 20
105.71077089051943
 40
0.059781551763818
  0
CIRCLE
  8
_1-1_
  6
CONTINUOUS
 62
    7
 10
106.92041757944469
 20
106.01217733847129
 40
0.059781551763818
  0
CIRCLE
  8
_1-1_
  6
CONTINUOUS
 62
    7
 10
106.73956381308066
 20
105.13807142103042
 40
0.059781551763818
  0
CIRCLE
  8
_1-1_
  6
CONTINUOUS
 62
    7
 10
106.01616111961572
 20
104.11323753563134
 40
0.059781551763818
  0
CIRCLE
  8
_1-1_
  6
CONTINUOUS
 62
    7
 10
105.38317293734164
 20
103.63096494932434
 40
0.059781551763818
  0
CIRCLE
  8
_1-1_
  6
CONTINUOUS
 62
    7
 10
106.28742939717061
 20
103.26925741659629
 40
0.059781551763818
  0
CIRCLE
  8
_1-1_
  6
CONTINUOUS
 62
    7
 10
107.37255199535474
 20
103.60082059293181
 40
0.059781551763818
  0
CIRCLE
  8
_1-1_
  6
CONTINUOUS
 62
    7
 10
107.07112080342061
 20
103.29940177298882
 40
0.059781551763818
  0
CIRCLE
  8
_1-1_
  6
CONTINUOUS
 62
    7
 10
106.43814499313767
 20
105.04763216585727
 40
0.059781551763818
  0
CIRCLE
  8
_1-1_
  6
CONTINUOUS
 62
    7
 10
105.83530735325169
 20
106.2231816472234
 40
0.059781551763818
  0
CIRCLE
  8
_1-1_
  6
CONTINUOUS
 62
    7
 10
105.68459175728464
 20
106.73559240392737
 40
0.059781551763818
  0
CIRCLE
  8
_1-1_
  6
CONTINUOUS
 62
    7
 10
108.15624340160474
 20
107.27815370301943
 40
0.059781551763818
  0
CIRCLE
  8
_1-1_
  6
CONTINUOUS
 62
    7
 10
108.87965846706082
 20
107.76042628932645
 40
0.059781551763818
  0
CIRCLE
  8
_1-1_
  6
CONTINUOUS
 62
    7
 10
107.55340576171875
 20
107.8207150021115
 40
0.059781551763818
  0
CIRCLE
  8
_1-1_
  6
CONTINUOUS
 62
    7
 10
109.0906504038218
 20
106.73559240392737
 40
0.059781551763818
  0
CIRCLE
  8
_1-1_
  6
CONTINUOUS
 62
    7
 10
108.09596706081082
 20
106.04232788085937
 40
0.059781551763818
  0
CIRCLE
  8
_1-1_
  6
CONTINUOUS
 62
    7
 10
107.55340576171875
 20
105.68062034813134
 40
0.059781551763818
  0
CIRCLE
  8
_1-1_
  6
CONTINUOUS
 62
    7
 10
107.97538963524072
 20
105.04763216585727
 40
0.059781551763818
  0
CIRCLE
  8
_1-1_
  6
CONTINUOUS
 62
    7
 10
108.24667028478675
 20
104.65578646273227
 40
0.059781551763818
  0
CIRCLE
  8
_1-1_
  6
CONTINUOUS
 62
    7
 10
109.30164234058277
 20
104.86679077148437
 40
0.059781551763818
  0
CIRCLE
  8
_1-1_
  6
CONTINUOUS
 62
    7
 10
110.92931386586783
 20
105.68062034813134
 40
0.059781551763818
  0
CIRCLE
  8
_1-1_
  6
CONTINUOUS
 62
    7
 10
110.56760633313979
 20
105.95190099767737
 40
0.059781551763818
  0
CIRCLE
  8
_1-1_
  6
CONTINUOUS
 62
    7
 10
109.69348804370777
 20
104.02281065244934
 40
0.059781551763818
  0
CIRCLE
  8
_1-1_
  6
CONTINUOUS
 62
    7
 10
110.47717944995777
 20
104.47493269636824
 40
0.059781551763818
  0
CIRCLE
  8
_1-1_
  6
CONTINUOUS
 62
    7
 10
107.82467403927366
 20
103.78167435929582
 40
0.059781551763818
  0
CIRCLE
  8
_1-1_
  6
CONTINUOUS
 62
    7
 10
107.10127134580871
 20
107.54942198057434
 40
0.059781551763818
  0
CIRCLE
  8
_1-1_
  6
CONTINUOUS
 62
    7
 10
108.39737350876267
 20
107.36858058620145
 40
0.059781551763818
  0
CIRCLE
  8
_1-1_
  6
CONTINUOUS
 62
    7
 10
109.66334987331082
 20
107.3987187565984
 40
0.059781551763818
  0
CIRCLE
  8
_1-1_
  6
CONTINUOUS
 62
    7
 10
109.06051223342483
 20
106.2231816472234
 40
0.059781551763818
  0
CIRCLE
  8
_1-1_
  6
CONTINUOUS
 62
    7
 10
110.2661875131968
 20
108.00156876847551
 40
0.059781551763818
  0
CIRCLE
  8
_1-1_
  6
CONTINUOUS
 62
    7
 10
110.89916332347974
 20
108.81539834512247
 40
0.059781551763818
  0
CIRCLE
  8
_1-1_
  6
CONTINUOUS
 62
    7
 10
110.15125171558277
 20
106.40846458641259
 40
0.059781551763818
  0
CIRCLE
  8
_1-1_
  6
CONTINUOUS
 62
    7
 10
110.51295924831082
 20
107.61415223817568
 40
0.059781551763818
  0
CIRCLE
  8
_1-1_
  6
CONTINUOUS
 62
    7
 10
110.96508129222974
 20
107.91555868612754
 40
0.059781551763818
  0
CIRCLE
  8
_1-1_
  6
CONTINUOUS
 62
    7
 10
110.78422752586572
 20
107.04145276868667
 40
0.059781551763818
  0
CIRCLE
  8
_1-1_
  6
CONTINUOUS
 62
    7
 10
110.06081246040964
 20
106.01661888328759
 40
0.059781551763818
  0
CIRCLE
  8
_1-1_
  6
CONTINUOUS
 62
    7
 10
109.42783665012669
 20
105.53434629698059
 40
0.059781551763818
  0
CIRCLE
  8
_1-1_
  6
CONTINUOUS
 62
    7
 10
110.3321054819468
 20
105.17263876425254
 40
0.059781551763818
  0
CIRCLE
  8
_1-1_
  6
CONTINUOUS
 62
    7
 10
111.41721570813979
 20
105.50420812658362
 40
0.059781551763818
  0
CIRCLE
  8
_1-1_
  6
CONTINUOUS
 62
    7
 10
111.1157968881968
 20
105.20277693464949
 40
0.059781551763818
  0
CIRCLE
  8
_1-1_
  6
CONTINUOUS
 62
    7
 10
110.48280870592272
 20
106.95101351351352
 40
0.059781551763818
  0
CIRCLE
  8
_1-1_
  6
CONTINUOUS
 62
    7
 10
109.87997106603675
 20
108.12656299487965
 40
0.059781551763818
  0
CIRCLE
  8
_1-1_
  6
CONTINUOUS
 62
    7
 10
109.72925547006969
 20
108.63897375158362
 40
0.059781551763818
  0
CIRCLE
  8
_1-1_
  6
CONTINUOUS
 62
    7
 10
112.20090711438979
 20
109.18153505067568
 40
0.059781551763818
  0
CIRCLE
  8
_1-1_
  6
CONTINUOUS
 62
    7
 10
112.92430980785474
 20
109.6638076369827
 40
0.059781551763818
  0
CIRCLE
  8
_1-1_
  6
CONTINUOUS
 62
    7
 10
111.59805710251267
 20
109.72409634976775
 40
0.059781551763818
  0
CIRCLE
  8
_1-1_
  6
CONTINUOUS
 62
    7
 10
113.13530174461572
 20
108.63897375158362
 40
0.059781551763818
  0
CIRCLE
  8
_1-1_
  6
CONTINUOUS
 62
    7
 10
112.14061840160474
 20
107.94570922851562
 40
0.059781551763818
  0
CIRCLE
  8
_1-1_
  6
CONTINUOUS
 62
    7
 10
111.59805710251267
 20
107.58400169578759
 40
0.059781551763818
  0
CIRCLE
  8
_1-1_
  6
CONTINUOUS
 62
    7
 10
112.02005334802577
 20
106.95101351351352
 40
0.059781551763818
  0
CIRCLE
  8
_1-1_
  6
CONTINUOUS
 62
    7
 10
112.2913339975718
 20
106.55916781038852
 40
0.059781551763818
  0
CIRCLE
  8
_1-1_
  6
CONTINUOUS
 62
    7
 10
113.34630605336783
 20
106.77017211914062
 40
0.059781551763818
  0
CIRCLE
  8
_1-1_
  6
CONTINUOUS
 62
    7
 10
114.97397757865288
 20
107.58400169578759
 40
0.059781551763818
  0
CIRCLE
  8
_1-1_
  6
CONTINUOUS
 62
    7
 10
114.61227004592483
 20
107.85528234533362
 40
0.059781551763818
  0
CIRCLE
  8
_1-1_
  6
CONTINUOUS
 62
    7
 10
113.73815175649283
 20
105.92619200010559
 40
0.059781551763818
  0
CIRCLE
  8
_1-1_
  6
CONTINUOUS
 62
    7
 10
114.52184316274283
 20
106.37831404402449
 40
0.059781551763818
  0
CIRCLE
  8
_1-1_
  6
CONTINUOUS
 62
    7
 10
111.86935012404983
 20
105.68506189294764
 40
0.059781551763818
  0
CIRCLE
  8
_1-1_
  6
CONTINUOUS
 62
    7
 10
111.14593505859375
 20
109.45280332823059
 40
0.059781551763818
  0
CIRCLE
  8
_1-1_
  6
CONTINUOUS
 62
    7
 10
112.44204959353885
 20
109.2719619338577
 40
0.059781551763818
  0
CIRCLE
  8
_1-1_
  6
CONTINUOUS
 62
    7
 10
113.70800121410474
 20
109.30210010425465
 40
0.059781551763818
  0
CIRCLE
  8
_1-1_
  6
CONTINUOUS
 62
    7
 10
113.10516357421875
 20
108.12656299487965
 40
0.059781551763818
  0
CIRCLE
  8
_1-1_
  6
CONTINUOUS
 62
    7
 10
114.31085122598185
 20
109.90495011613176
 40
0.059781551763818
  0
CIRCLE
  8
_1-1_
  6
CONTINUOUS
 62
    7
 10
114.94383940825593
 20
110.71877969277872
 40
0.059781551763818
  0
CIRCLE
  8
_1-1_
  6
CONTINUOUS
 62
    7
 10
113.72007627744934
 20
108.07390780062289
 40
0.059781551763818
  0
CIRCLE
  8
_1-1_
  6
CONTINUOUS
 62
    7
 10
114.08178381017737
 20
109.27959545238599
 40
0.059781551763818
  0
CIRCLE
  8
_1-1_
  6
CONTINUOUS
 62
    7
 10
114.53390585409629
 20
109.58100190033784
 40
0.059781551763818
  0
CIRCLE
  8
_1-1_
  6
CONTINUOUS
 62
    7
 10
114.35305208773227
 20
108.70689598289697
 40
0.059781551763818
  0
CIRCLE
  8
_1-1_
  6
CONTINUOUS
 62
    7
 10
113.62963702227619
 20
107.68206209749789
 40
0.059781551763818
  0
CIRCLE
  8
_1-1_
  6
CONTINUOUS
 62
    7
 10
112.99666121199326
 20
107.19978951119089
 40
0.059781551763818
  0
CIRCLE
  8
_1-1_
  6
CONTINUOUS
 62
    7
 10
113.90093004381335
 20
106.83808197846284
 40
0.059781551763818
  0
CIRCLE
  8
_1-1_
  6
CONTINUOUS
 62
    7
 10
114.98604027000634
 20
107.16965134079392
 40
0.059781551763818
  0
CIRCLE
  8
_1-1_
  6
CONTINUOUS
 62
    7
 10
114.68462145006335
 20
106.86822014885981
 40
0.059781551763818
  0
CIRCLE
  8
_1-1_
  6
CONTINUOUS
 62
    7
 10
114.05163326778928
 20
108.61645672772383
 40
0.059781551763818
  0
CIRCLE
  8
_1-1_
  6
CONTINUOUS
 62
    7
 10
113.44879562790329
 20
109.79200620908996
 40
0.059781551763818
  0
CIRCLE
  8
_1-1_
  6
CONTINUOUS
 62
    7
 10
113.29808003193624
 20
110.30441696579392
 40
0.059781551763818
  0
CIRCLE
  8
_1-1_
  6
CONTINUOUS
 62
    7
 10
115.76973167625634
 20
110.84697826488599
 40
0.059781551763818
  0
CIRCLE
  8
_1-1_
  6
CONTINUOUS
 62
    7
 10
116.49313436972129
 20
111.329250851193
 40
0.059781551763818
  0
CIRCLE
  8
_1-1_
  6
CONTINUOUS
 62
    7
 10
115.16688166437923
 20
111.38953956397805
 40
0.059781551763818
  0
CIRCLE
  8
_1-1_
  6
CONTINUOUS
 62
    7
 10
116.70412630648227
 20
110.30441696579392
 40
0.059781551763818
  0
CIRCLE
  8
_1-1_
  6
CONTINUOUS
 62
    7
 10
115.70944296347129
 20
109.61115244272594
 40
0.059781551763818
  0
CIRCLE
  8
_1-1_
  6
CONTINUOUS
 62
    7
 10
115.16688166437923
 20
109.24944490999789
 40
0.059781551763818
  0
CIRCLE
  8
_1-1_
  6
CONTINUOUS
 62
    7
 10
115.58887790989232
 20
108.61645672772383
 40
0.059781551763818
  0
CIRCLE
  8
_1-1_
  6
CONTINUOUS
 62
    7
 10
115.86015855943835
 20
108.22461102459883
 40
0.059781551763818
  0
CIRCLE
  8
_1-1_
  6
CONTINUOUS
 62
    7
 10
116.91513061523437
 20
108.43561533335094
 40
0.059781551763818
  0
CIRCLE
  8
_1-1_
  6
CONTINUOUS
 62
    7
 10
118.54280214051943
 20
109.24944490999789
 40
0.059781551763818
  0
CIRCLE
  8
_1-1_
  6
CONTINUOUS
 62
    7
 10
118.18109460779139
 20
109.52072555954392
 40
0.059781551763818
  0
CIRCLE
  8
_1-1_
  6
CONTINUOUS
 62
    7
 10
117.30697631835937
 20
107.59163521431589
 40
0.059781551763818
  0
CIRCLE
  8
_1-1_
  6
CONTINUOUS
 62
    7
 10
118.09066772460937
 20
108.04375725823481
 40
0.059781551763818
  0
CIRCLE
  8
_1-1_
  6
CONTINUOUS
 62
    7
 10
115.43817468591639
 20
107.35050510715794
 40
0.059781551763818
  0
CIRCLE
  8
_1-1_
  6
CONTINUOUS
 62
    7
 10
114.71475962046031
 20
111.11824654244089
 40
0.059781551763818
  0
CIRCLE
  8
_1-1_
  6
CONTINUOUS
 62
    7
 10
116.01087415540542
 20
110.937405148068
 40
0.059781551763818
  0
CIRCLE
  8
_1-1_
  6
CONTINUOUS
 62
    7
 10
117.27682577597129
 20
110.96754331846496
 40
0.059781551763818
  0
CIRCLE
  8
_1-1_
  6
CONTINUOUS
 62
    7
 10
116.67398813608531
 20
109.79200620908996
 40
0.059781551763818
  0
CIRCLE
  8
_1-1_
  6
CONTINUOUS
 62
    7
 10
117.8796757878484
 20
111.57039333034207
 40
0.059781551763818
  0
CIRCLE
  8
_1-1_
  6
CONTINUOUS
 62
    7
 10
118.51266397012247
 20
112.38422290698902
 40
0.059781551763818
  0
CIRCLE
  8
_1-1_
  6
CONTINUOUS
 62
    7
 10
117.28887609533362
 20
109.97727677628801
 40
0.059781551763818
  0
CIRCLE
  8
_1-1_
  6
CONTINUOUS
 62
    7
 10
117.65058362806167
 20
111.18295205605997
 40
0.059781551763818
  0
CIRCLE
  8
_1-1_
  6
CONTINUOUS
 62
    7
 10
118.10271804397171
 20
111.48438324799409
 40
0.059781551763818
  0
CIRCLE
  8
_1-1_
  6
CONTINUOUS
 62
    7
 10
117.9218642776077
 20
110.61025258657095
 40
0.059781551763818
  0
CIRCLE
  8
_1-1_
  6
CONTINUOUS
 62
    7
 10
117.19846158414275
 20
109.58543107316301
 40
0.059781551763818
  0
CIRCLE
  8
_1-1_
  6
CONTINUOUS
 62
    7
 10
116.56547340186867
 20
109.103158486856
 40
0.059781551763818
  0
CIRCLE
  8
_1-1_
  6
CONTINUOUS
 62
    7
 10
117.46972986169764
 20
108.74145095412796
 40
0.059781551763818
  0
CIRCLE
  8
_1-1_
  6
CONTINUOUS
 62
    7
 10
118.55485245988176
 20
109.07300794446792
 40
0.059781551763818
  0
CIRCLE
  8
_1-1_
  6
CONTINUOUS
 62
    7
 10
118.25342126794764
 20
108.77160149651606
 40
0.059781551763818
  0
CIRCLE
  8
_1-1_
  6
CONTINUOUS
 62
    7
 10
117.6204454576647
 20
110.51983807538008
 40
0.059781551763818
  0
CIRCLE
  8
_1-1_
  6
CONTINUOUS
 62
    7
 10
117.01760781777872
 20
111.69537518475508
 40
0.059781551763818
  0
CIRCLE
  8
_1-1_
  6
CONTINUOUS
 62
    7
 10
116.86689222181167
 20
112.20778594145904
 40
0.059781551763818
  0
CIRCLE
  8
_1-1_
  6
CONTINUOUS
 62
    7
 10
119.33854386613176
 20
112.75034724055111
 40
0.059781551763818
  0
CIRCLE
  8
_1-1_
  6
CONTINUOUS
 62
    7
 10
120.06195893158784
 20
113.23261982685811
 40
0.059781551763818
  0
CIRCLE
  8
_1-1_
  6
CONTINUOUS
 62
    7
 10
118.73570622624578
 20
113.29289616765203
 40
0.059781551763818
  0
CIRCLE
  8
_1-1_
  6
CONTINUOUS
 62
    7
 10
120.27295086834883
 20
112.20778594145904
 40
0.059781551763818
  0
CIRCLE
  8
_1-1_
  6
CONTINUOUS
 62
    7
 10
119.27826752533784
 20
111.51452141839106
 40
0.059781551763818
  0
CIRCLE
  8
_1-1_
  6
CONTINUOUS
 62
    7
 10
118.73570622624578
 20
111.15281388566301
 40
0.059781551763818
  0
CIRCLE
  8
_1-1_
  6
CONTINUOUS
 62
    7
 10
119.15769009976775
 20
110.51983807538008
 40
0.059781551763818
  0
CIRCLE
  8
_1-1_
  6
CONTINUOUS
 62
    7
 10
119.42897074931378
 20
110.12799237225508
 40
0.059781551763818
  0
CIRCLE
  8
_1-1_
  6
CONTINUOUS
 62
    7
 10
120.48394280510981
 20
110.33898430901606
 40
0.059781551763818
  0
CIRCLE
  8
_1-1_
  6
CONTINUOUS
 62
    7
 10
122.11161433039486
 20
111.15281388566301
 40
0.059781551763818
  0
CIRCLE
  8
_1-1_
  6
CONTINUOUS
 62
    7
 10
121.74990679766681
 20
111.42409453520904
 40
0.059781551763818
  0
CIRCLE
  8
_1-1_
  6
CONTINUOUS
 62
    7
 10
120.87578850823481
 20
109.495004189981
 40
0.059781551763818
  0
CIRCLE
  8
_1-1_
  6
CONTINUOUS
 62
    7
 10
121.65947991448481
 20
109.94713860589106
 40
0.059781551763818
  0
CIRCLE
  8
_1-1_
  6
CONTINUOUS
 62
    7
 10
119.00697450380068
 20
109.25386171083193
 40
0.059781551763818
  0
CIRCLE
  8
_1-1_
  6
CONTINUOUS
 62
    7
 10
118.28357181033573
 20
113.02162789009714
 40
0.059781551763818
  0
CIRCLE
  8
_1-1_
  6
CONTINUOUS
 62
    7
 10
119.5796739732897
 20
112.84077412373311
 40
0.059781551763818
  0
CIRCLE
  8
_1-1_
  6
CONTINUOUS
 62
    7
 10
120.84565033783784
 20
112.87091229413008
 40
0.059781551763818
  0
CIRCLE
  8
_1-1_
  6
CONTINUOUS
 62
    7
 10
120.24281269795186
 20
111.69537518475508
 40
0.059781551763818
  0
CIRCLE
  8
_1-1_
  6
CONTINUOUS
 62
    7
 10
121.44848797772383
 20
113.47374993401606
 40
0.059781551763818
  0
CIRCLE
  8
_1-1_
  6
CONTINUOUS
 62
    7
 10
122.08146378800676
 20
114.28759188265414
 40
0.059781551763818
  0
CIRCLE
  8
_1-1_
  6
CONTINUOUS
 62
    7
 10
124.90237674197635
 20
114.25985387853675
 40
0.059781551763818
  0
CIRCLE
  8
_1-1_
  6
CONTINUOUS
 62
    7
 10
125.2640842747044
 20
115.46554153029983
 40
0.059781551763818
  0
CIRCLE
  8
_1-1_
  6
CONTINUOUS
 62
    7
 10
125.71620631862332
 20
115.76694797825169
 40
0.059781551763818
  0
CIRCLE
  8
_1-1_
  6
CONTINUOUS
 62
    7
 10
125.5353525522593
 20
114.89284206081082
 40
0.059781551763818
  0
CIRCLE
  8
_1-1_
  6
CONTINUOUS
 62
    7
 10
124.81193748680322
 20
113.86800817541175
 40
0.059781551763818
  0
CIRCLE
  8
_1-1_
  6
CONTINUOUS
 62
    7
 10
124.17896167652027
 20
113.38573558910474
 40
0.059781551763818
  0
CIRCLE
  8
_1-1_
  6
CONTINUOUS
 62
    7
 10
125.08323050834038
 20
113.02402805637669
 40
0.059781551763818
  0
CIRCLE
  8
_1-1_
  6
CONTINUOUS
 62
    7
 10
126.16834073453337
 20
113.35559741870777
 40
0.059781551763818
  0
CIRCLE
  8
_1-1_
  6
CONTINUOUS
 62
    7
 10
125.86692191459038
 20
113.05416622677366
 40
0.059781551763818
  0
CIRCLE
  8
_1-1_
  6
CONTINUOUS
 62
    7
 10
125.2339337323163
 20
114.80240280563767
 40
0.059781551763818
  0
CIRCLE
  8
_1-1_
  6
CONTINUOUS
 62
    7
 10
124.63109609243033
 20
115.9779522870038
 40
0.059781551763818
  0
CIRCLE
  8
_1-1_
  6
CONTINUOUS
 62
    7
 10
124.48038049646327
 20
116.49036304370777
 40
0.059781551763818
  0
CIRCLE
  8
_1-1_
  6
CONTINUOUS
 62
    7
 10
126.95203214078337
 20
117.03292434279983
 40
0.059781551763818
  0
CIRCLE
  8
_1-1_
  6
CONTINUOUS
 62
    7
 10
127.67543483424832
 20
117.51519692910685
 40
0.059781551763818
  0
CIRCLE
  8
_1-1_
  6
CONTINUOUS
 62
    7
 10
126.34918212890625
 20
117.5754856418919
 40
0.059781551763818
  0
CIRCLE
  8
_1-1_
  6
CONTINUOUS
 62
    7
 10
127.8864267710093
 20
116.49036304370777
 40
0.059781551763818
  0
CIRCLE
  8
_1-1_
  6
CONTINUOUS
 62
    7
 10
126.89174342799832
 20
115.79709852063979
 40
0.059781551763818
  0
CIRCLE
  8
_1-1_
  6
CONTINUOUS
 62
    7
 10
126.34918212890625
 20
115.43539098791175
 40
0.059781551763818
  0
CIRCLE
  8
_1-1_
  6
CONTINUOUS
 62
    7
 10
126.77117837441935
 20
114.80240280563767
 40
0.059781551763818
  0
CIRCLE
  8
_1-1_
  6
CONTINUOUS
 62
    7
 10
127.04245902396538
 20
114.41055710251267
 40
0.059781551763818
  0
CIRCLE
  8
_1-1_
  6
CONTINUOUS
 62
    7
 10
128.09743107976141
 20
114.62156141126479
 40
0.059781551763818
  0
CIRCLE
  8
_1-1_
  6
CONTINUOUS
 62
    7
 10
129.72510260504646
 20
115.43539098791175
 40
0.059781551763818
  0
CIRCLE
  8
_1-1_
  6
CONTINUOUS
 62
    7
 10
129.36339507231841
 20
115.70667163745777
 40
0.059781551763818
  0
CIRCLE
  8
_1-1_
  6
CONTINUOUS
 62
    7
 10
128.48927678288641
 20
113.77758129222974
 40
0.059781551763818
  0
CIRCLE
  8
_1-1_
  6
CONTINUOUS
 62
    7
 10
129.27296818913641
 20
114.22970333614866
 40
0.059781551763818
  0
CIRCLE
  8
_1-1_
  6
CONTINUOUS
 62
    7
 10
126.62047515044343
 20
113.5364511850718
 40
0.059781551763818
  0
CIRCLE
  8
_1-1_
  6
CONTINUOUS
 62
    7
 10
125.89706008498734
 20
117.30419262035474
 40
0.059781551763818
  0
CIRCLE
  8
_1-1_
  6
CONTINUOUS
 62
    7
 10
127.19317461993244
 20
117.12335122598185
 40
0.059781551763818
  0
CIRCLE
  8
_1-1_
  6
CONTINUOUS
 62
    7
 10
128.45912624049831
 20
117.1534893963788
 40
0.059781551763818
  0
CIRCLE
  8
_1-1_
  6
CONTINUOUS
 62
    7
 10
127.85628860061234
 20
115.9779522870038
 40
0.059781551763818
  0
CIRCLE
  8
_1-1_
  6
CONTINUOUS
 62
    7
 10
129.06197625237542
 20
117.75633940825593
 40
0.059781551763818
  0
CIRCLE
  8
_1-1_
  6
CONTINUOUS
 62
    7
 10
129.69496443464951
 20
118.57016898490288
 40
0.059781551763818
  0
CIRCLE
  8
_1-1_
  6
CONTINUOUS
 62
    7
 10
134.89506077122044
 20
117.11491352802999
 40
0.059781551763818
  0
CIRCLE
  8
_1-1_
  6
CONTINUOUS
 62
    7
 10
135.25676830394849
 20
118.32060117979309
 40
0.059781551763818
  0
CIRCLE
  8
_1-1_
  6
CONTINUOUS
 62
    7
 10
135.70890271985854
 20
118.62200762774494
 40
0.059781551763818
  0
CIRCLE
  8
_1-1_
  6
CONTINUOUS
 62
    7
 10
135.5280489534945
 20
117.74790171030406
 40
0.059781551763818
  0
CIRCLE
  8
_1-1_
  6
CONTINUOUS
 62
    7
 10
134.80464626002956
 20
116.72306782490499
 40
0.059781551763818
  0
CIRCLE
  8
_1-1_
  6
CONTINUOUS
 62
    7
 10
134.1716580777555
 20
116.24079523859798
 40
0.059781551763818
  0
CIRCLE
  8
_1-1_
  6
CONTINUOUS
 62
    7
 10
135.07591453758448
 20
115.87908770586994
 40
0.059781551763818
  0
CIRCLE
  8
_1-1_
  6
CONTINUOUS
 62
    7
 10
136.16103713576859
 20
116.21065706820102
 40
0.059781551763818
  0
CIRCLE
  8
_1-1_
  6
CONTINUOUS
 62
    7
 10
135.85960594383448
 20
115.9092258762669
 40
0.059781551763818
  0
CIRCLE
  8
_1-1_
  6
CONTINUOUS
 62
    7
 10
135.22663013355154
 20
117.65746245513093
 40
0.059781551763818
  0
CIRCLE
  8
_1-1_
  6
CONTINUOUS
 62
    7
 10
134.62379249366555
 20
118.83301193649704
 40
0.059781551763818
  0
CIRCLE
  8
_1-1_
  6
CONTINUOUS
 62
    7
 10
134.47307689769849
 20
119.34542269320102
 40
0.059781551763818
  0
CIRCLE
  8
_1-1_
  6
CONTINUOUS
 62
    7
 10
136.94472854201859
 20
119.88798399229309
 40
0.059781551763818
  0
CIRCLE
  8
_1-1_
  6
CONTINUOUS
 62
    7
 10
137.66814360747466
 20
120.37025657860009
 40
0.059781551763818
  0
CIRCLE
  8
_1-1_
  6
CONTINUOUS
 62
    7
 10
136.3418909021326
 20
120.43054529138514
 40
0.059781551763818
  0
CIRCLE
  8
_1-1_
  6
CONTINUOUS
 62
    7
 10
137.87913554423565
 20
119.34542269320102
 40
0.059781551763818
  0
CIRCLE
  8
_1-1_
  6
CONTINUOUS
 62
    7
 10
136.88445220122466
 20
118.65215817013303
 40
0.059781551763818
  0
CIRCLE
  8
_1-1_
  6
CONTINUOUS
 62
    7
 10
136.3418909021326
 20
118.29045063740499
 40
0.059781551763818
  0
CIRCLE
  8
_1-1_
  6
CONTINUOUS
 62
    7
 10
136.76387477565456
 20
117.65746245513093
 40
0.059781551763818
  0
CIRCLE
  8
_1-1_
  6
CONTINUOUS
 62
    7
 10
137.0351554252006
 20
117.26561675200593
 40
0.059781551763818
  0
CIRCLE
  8
_1-1_
  6
CONTINUOUS
 62
    7
 10
138.09012748099664
 20
117.47662106075803
 40
0.059781551763818
  0
CIRCLE
  8
_1-1_
  6
CONTINUOUS
 62
    7
 10
139.71779900628167
 20
118.29045063740499
 40
0.059781551763818
  0
CIRCLE
  8
_1-1_
  6
CONTINUOUS
 62
    7
 10
139.35609147355365
 20
118.56173128695102
 40
0.059781551763818
  0
CIRCLE
  8
_1-1_
  6
CONTINUOUS
 62
    7
 10
138.48197318412164
 20
116.63264094172298
 40
0.059781551763818
  0
CIRCLE
  8
_1-1_
  6
CONTINUOUS
 62
    7
 10
139.26566459037164
 20
117.0847629856419
 40
0.059781551763818
  0
CIRCLE
  8
_1-1_
  6
CONTINUOUS
 62
    7
 10
136.6131591796875
 20
116.39151083456504
 40
0.059781551763818
  0
CIRCLE
  8
_1-1_
  6
CONTINUOUS
 62
    7
 10
135.88975648622255
 20
120.15925226984798
 40
0.059781551763818
  0
CIRCLE
  8
_1-1_
  6
CONTINUOUS
 62
    7
 10
137.18585864917654
 20
119.97841087547509
 40
0.059781551763818
  0
CIRCLE
  8
_1-1_
  6
CONTINUOUS
 62
    7
 10
138.45183501372466
 20
120.00854904587204
 40
0.059781551763818
  0
CIRCLE
  8
_1-1_
  6
CONTINUOUS
 62
    7
 10
137.8489973738387
 20
118.83301193649704
 40
0.059781551763818
  0
CIRCLE
  8
_1-1_
  6
CONTINUOUS
 62
    7
 10
139.05467265361065
 20
120.61139905774917
 40
0.059781551763818
  0
CIRCLE
  8
_1-1_
  6
CONTINUOUS
 62
    7
 10
139.68764846389359
 20
121.42522863439612
 40
0.059781551763818
  0
CIRCLE
  8
_1-1_
  6
CONTINUOUS
 62
    7
 10
128.23326317039695
 20
114.02194048907306
 40
0.059781551763818
  0
CIRCLE
  8
_1-1_
  6
CONTINUOUS
 62
    7
 10
128.594970703125
 20
115.22762814083616
 40
0.059781551763818
  0
CIRCLE
  8
_1-1_
  6
CONTINUOUS
 62
    7
 10
129.04710511903505
 20
115.52903458878801
 40
0.059781551763818
  0
CIRCLE
  8
_1-1_
  6
CONTINUOUS
 62
    7
 10
128.86625135267104
 20
114.65492867134714
 40
0.059781551763818
  0
CIRCLE
  8
_1-1_
  6
CONTINUOUS
 62
    7
 10
128.14284865920609
 20
113.63009478594806
 40
0.059781551763818
  0
CIRCLE
  8
_1-1_
  6
CONTINUOUS
 62
    7
 10
127.50986047693202
 20
113.14782219964106
 40
0.059781551763818
  0
CIRCLE
  8
_1-1_
  6
CONTINUOUS
 62
    7
 10
128.41411693676099
 20
112.78611466691301
 40
0.059781551763818
  0
CIRCLE
  8
_1-1_
  6
CONTINUOUS
 62
    7
 10
129.4992395349451
 20
113.11768402924409
 40
0.059781551763818
  0
CIRCLE
  8
_1-1_
  6
CONTINUOUS
 62
    7
 10
129.19780834301099
 20
112.81625283730997
 40
0.059781551763818
  0
CIRCLE
  8
_1-1_
  6
CONTINUOUS
 62
    7
 10
128.56483253272805
 20
114.564489416174
 40
0.059781551763818
  0
CIRCLE
  8
_1-1_
  6
CONTINUOUS
 62
    7
 10
127.96199489284207
 20
115.74003889754013
 40
0.059781551763818
  0
CIRCLE
  8
_1-1_
  6
CONTINUOUS
 62
    7
 10
127.811279296875
 20
116.25244965424409
 40
0.059781551763818
  0
CIRCLE
  8
_1-1_
  6
CONTINUOUS
 62
    7
 10
130.2829309411951
 20
116.79501095333616
 40
0.059781551763818
  0
CIRCLE
  8
_1-1_
  6
CONTINUOUS
 62
    7
 10
131.0063460066512
 20
117.27728353964316
 40
0.059781551763818
  0
CIRCLE
  8
_1-1_
  6
CONTINUOUS
 62
    7
 10
129.68009330130914
 20
117.33757225242822
 40
0.059781551763818
  0
CIRCLE
  8
_1-1_
  6
CONTINUOUS
 62
    7
 10
131.21733794341216
 20
116.25244965424409
 40
0.059781551763818
  0
CIRCLE
  8
_1-1_
  6
CONTINUOUS
 62
    7
 10
130.2226546004012
 20
115.55918513117611
 40
0.059781551763818
  0
CIRCLE
  8
_1-1_
  6
CONTINUOUS
 62
    7
 10
129.68009330130914
 20
115.19747759844806
 40
0.059781551763818
  0
CIRCLE
  8
_1-1_
  6
CONTINUOUS
 62
    7
 10
130.10207717483109
 20
114.564489416174
 40
0.059781551763818
  0
CIRCLE
  8
_1-1_
  6
CONTINUOUS
 62
    7
 10
130.37335782437711
 20
114.172643713049
 40
0.059781551763818
  0
CIRCLE
  8
_1-1_
  6
CONTINUOUS
 62
    7
 10
131.42832988017315
 20
114.38364802180111
 40
0.059781551763818
  0
CIRCLE
  8
_1-1_
  6
CONTINUOUS
 62
    7
 10
133.0560014054582
 20
115.19747759844806
 40
0.059781551763818
  0
CIRCLE
  8
_1-1_
  6
CONTINUOUS
 62
    7
 10
132.69429387273016
 20
115.46875824799409
 40
0.059781551763818
  0
CIRCLE
  8
_1-1_
  6
CONTINUOUS
 62
    7
 10
131.82017558329815
 20
113.53966790276606
 40
0.059781551763818
  0
CIRCLE
  8
_1-1_
  6
CONTINUOUS
 62
    7
 10
132.60386698954815
 20
113.99178994668497
 40
0.059781551763818
  0
CIRCLE
  8
_1-1_
  6
CONTINUOUS
 62
    7
 10
129.95136157886404
 20
113.29853779560811
 40
0.059781551763818
  0
CIRCLE
  8
_1-1_
  6
CONTINUOUS
 62
    7
 10
129.22795888539909
 20
117.06627923089106
 40
0.059781551763818
  0
CIRCLE
  8
_1-1_
  6
CONTINUOUS
 62
    7
 10
130.52406104835305
 20
116.88543783651816
 40
0.059781551763818
  0
CIRCLE
  8
_1-1_
  6
CONTINUOUS
 62
    7
 10
131.7900374129012
 20
116.91557600691513
 40
0.059781551763818
  0
CIRCLE
  8
_1-1_
  6
CONTINUOUS
 62
    7
 10
131.18719977301521
 20
115.74003889754013
 40
0.059781551763818
  0
CIRCLE
  8
_1-1_
  6
CONTINUOUS
 62
    7
 10
132.39287505278716
 20
117.51842601879224
 40
0.059781551763818
  0
CIRCLE
  8
_1-1_
  6
CONTINUOUS
 62
    7
 10
133.0258508630701
 20
118.33225559543919
 40
0.059781551763818
  0
CIRCLE
  8
_1-1_
  6
CONTINUOUS
 62
    7
 10
119.43017083245356
 20
110.92896745011613
 40
0.059781551763818
  0
CIRCLE
  8
_1-1_
  6
CONTINUOUS
 62
    7
 10
119.79187836518159
 20
112.13465510187923
 40
0.059781551763818
  0
CIRCLE
  8
_1-1_
  6
CONTINUOUS
 62
    7
 10
120.24401278109164
 20
112.43606154983108
 40
0.059781551763818
  0
CIRCLE
  8
_1-1_
  6
CONTINUOUS
 62
    7
 10
120.06315901472763
 20
111.56195563239021
 40
0.059781551763818
  0
CIRCLE
  8
_1-1_
  6
CONTINUOUS
 62
    7
 10
119.33975632126267
 20
110.53712174699113
 40
0.059781551763818
  0
CIRCLE
  8
_1-1_
  6
CONTINUOUS
 62
    7
 10
118.70676813898861
 20
110.05484916068413
 40
0.059781551763818
  0
CIRCLE
  8
_1-1_
  6
CONTINUOUS
 62
    7
 10
119.61102459881758
 20
109.69314162795608
 40
0.059781551763818
  0
CIRCLE
  8
_1-1_
  6
CONTINUOUS
 62
    7
 10
120.69614719700169
 20
110.02471099028716
 40
0.059781551763818
  0
CIRCLE
  8
_1-1_
  6
CONTINUOUS
 62
    7
 10
120.39471600506758
 20
109.72327979835305
 40
0.059781551763818
  0
CIRCLE
  8
_1-1_
  6
CONTINUOUS
 62
    7
 10
119.76174019478464
 20
111.47151637721707
 40
0.059781551763818
  0
CIRCLE
  8
_1-1_
  6
CONTINUOUS
 62
    7
 10
119.15890255489866
 20
112.6470658585832
 40
0.059781551763818
  0
CIRCLE
  8
_1-1_
  6
CONTINUOUS
 62
    7
 10
119.00818695893159
 20
113.15947661528716
 40
0.059781551763818
  0
CIRCLE
  8
_1-1_
  6
CONTINUOUS
 62
    7
 10
121.47983860325169
 20
113.70203791437923
 40
0.059781551763818
  0
CIRCLE
  8
_1-1_
  6
CONTINUOUS
 62
    7
 10
122.20325366870777
 20
114.18431050068624
 40
0.059781551763818
  0
CIRCLE
  8
_1-1_
  6
CONTINUOUS
 62
    7
 10
120.87700096336572
 20
114.24459921347129
 40
0.059781551763818
  0
CIRCLE
  8
_1-1_
  6
CONTINUOUS
 62
    7
 10
122.41424560546875
 20
113.15947661528716
 40
0.059781551763818
  0
CIRCLE
  8
_1-1_
  6
CONTINUOUS
 62
    7
 10
121.41956226245777
 20
112.46621209221918
 40
0.059781551763818
  0
CIRCLE
  8
_1-1_
  6
CONTINUOUS
 62
    7
 10
120.87700096336572
 20
112.10450455949113
 40
0.059781551763818
  0
CIRCLE
  8
_1-1_
  6
CONTINUOUS
 62
    7
 10
121.29898483688767
 20
111.47151637721707
 40
0.059781551763818
  0
CIRCLE
  8
_1-1_
  6
CONTINUOUS
 62
    7
 10
121.57026548643371
 20
111.07967067409207
 40
0.059781551763818
  0
CIRCLE
  8
_1-1_
  6
CONTINUOUS
 62
    7
 10
122.62523754222974
 20
111.29067498284418
 40
0.059781551763818
  0
CIRCLE
  8
_1-1_
  6
CONTINUOUS
 62
    7
 10
124.25290906751479
 20
112.10450455949113
 40
0.059781551763818
  0
CIRCLE
  8
_1-1_
  6
CONTINUOUS
 62
    7
 10
123.89120153478675
 20
112.37578520903716
 40
0.059781551763818
  0
CIRCLE
  8
_1-1_
  6
CONTINUOUS
 62
    7
 10
123.01708324535474
 20
110.44669486380913
 40
0.059781551763818
  0
CIRCLE
  8
_1-1_
  6
CONTINUOUS
 62
    7
 10
123.80077465160474
 20
110.89881690772805
 40
0.059781551763818
  0
CIRCLE
  8
_1-1_
  6
CONTINUOUS
 62
    7
 10
121.14826924092061
 20
110.20556475665119
 40
0.059781551763818
  0
CIRCLE
  8
_1-1_
  6
CONTINUOUS
 62
    7
 10
120.42486654745566
 20
113.97330619193413
 40
0.059781551763818
  0
CIRCLE
  8
_1-1_
  6
CONTINUOUS
 62
    7
 10
121.72096871040964
 20
113.79246479756124
 40
0.059781551763818
  0
CIRCLE
  8
_1-1_
  6
CONTINUOUS
 62
    7
 10
122.98694507495777
 20
113.8226029679582
 40
0.059781551763818
  0
CIRCLE
  8
_1-1_
  6
CONTINUOUS
 62
    7
 10
122.3841074350718
 20
112.6470658585832
 40
0.059781551763818
  0
CIRCLE
  8
_1-1_
  6
CONTINUOUS
 62
    7
 10
123.58978271484375
 20
114.42545297983531
 40
0.059781551763818
  0
CIRCLE
  8
_1-1_
  6
CONTINUOUS
 62
    7
 10
124.22275852512669
 20
115.23928255648227
 40
0.059781551763818
  0
CIRCLE
  8
_1-1_
  6
CONTINUOUS
 62
    7
 10
146.31527462521115
 20
124.01463689030828
 40
0.059781551763818
  0
CIRCLE
  8
_1-1_
  6
CONTINUOUS
 62
    7
 10
146.67698215793919
 20
125.22031217008025
 40
0.059781551763818
  0
CIRCLE
  8
_1-1_
  6
CONTINUOUS
 62
    7
 10
147.12911657384925
 20
125.52174336201436
 40
0.059781551763818
  0
CIRCLE
  8
_1-1_
  6
CONTINUOUS
 62
    7
 10
146.94826280748524
 20
124.64761270059122
 40
0.059781551763818
  0
CIRCLE
  8
_1-1_
  6
CONTINUOUS
 62
    7
 10
146.22486011402029
 20
123.62279118718328
 40
0.059781551763818
  0
CIRCLE
  8
_1-1_
  6
CONTINUOUS
 62
    7
 10
145.5918719317462
 20
123.14051860087628
 40
0.059781551763818
  0
CIRCLE
  8
_1-1_
  6
CONTINUOUS
 62
    7
 10
146.49612839157518
 20
122.77881106814823
 40
0.059781551763818
  0
CIRCLE
  8
_1-1_
  6
CONTINUOUS
 62
    7
 10
147.5812509897593
 20
123.11036805848818
 40
0.059781551763818
  0
CIRCLE
  8
_1-1_
  6
CONTINUOUS
 62
    7
 10
147.27981979782518
 20
122.80896161053633
 40
0.059781551763818
  0
CIRCLE
  8
_1-1_
  6
CONTINUOUS
 62
    7
 10
146.64684398754224
 20
124.55719818940034
 40
0.059781551763818
  0
CIRCLE
  8
_1-1_
  6
CONTINUOUS
 62
    7
 10
146.04400634765625
 20
125.73273529877534
 40
0.059781551763818
  0
CIRCLE
  8
_1-1_
  6
CONTINUOUS
 62
    7
 10
145.89329075168919
 20
126.24514605547931
 40
0.059781551763818
  0
CIRCLE
  8
_1-1_
  6
CONTINUOUS
 62
    7
 10
148.3649423960093
 20
126.78770735457138
 40
0.059781551763818
  0
CIRCLE
  8
_1-1_
  6
CONTINUOUS
 62
    7
 10
149.08835746146539
 20
127.26997994087839
 40
0.059781551763818
  0
CIRCLE
  8
_1-1_
  6
CONTINUOUS
 62
    7
 10
147.76210475612331
 20
127.33025628167231
 40
0.059781551763818
  0
CIRCLE
  8
_1-1_
  6
CONTINUOUS
 62
    7
 10
149.29934939822635
 20
126.24514605547931
 40
0.059781551763818
  0
CIRCLE
  8
_1-1_
  6
CONTINUOUS
 62
    7
 10
148.30466605521539
 20
125.55188153241133
 40
0.059781551763818
  0
CIRCLE
  8
_1-1_
  6
CONTINUOUS
 62
    7
 10
147.76210475612331
 20
125.19017399968328
 40
0.059781551763818
  0
CIRCLE
  8
_1-1_
  6
CONTINUOUS
 62
    7
 10
148.18408862964529
 20
124.55719818940034
 40
0.059781551763818
  0
CIRCLE
  8
_1-1_
  6
CONTINUOUS
 62
    7
 10
148.4553692791913
 20
124.16535248627534
 40
0.059781551763818
  0
CIRCLE
  8
_1-1_
  6
CONTINUOUS
 62
    7
 10
149.51034133498734
 20
124.37634442303633
 40
0.059781551763818
  0
CIRCLE
  8
_1-1_
  6
CONTINUOUS
 62
    7
 10
151.1380128602724
 20
125.19017399968328
 40
0.059781551763818
  0
CIRCLE
  8
_1-1_
  6
CONTINUOUS
 62
    7
 10
150.77630532754435
 20
125.46145464922931
 40
0.059781551763818
  0
CIRCLE
  8
_1-1_
  6
CONTINUOUS
 62
    7
 10
149.90218703811234
 20
123.53236430400128
 40
0.059781551763818
  0
CIRCLE
  8
_1-1_
  6
CONTINUOUS
 62
    7
 10
150.68587844436234
 20
123.98449871991133
 40
0.059781551763818
  0
CIRCLE
  8
_1-1_
  6
CONTINUOUS
 62
    7
 10
148.03337303367823
 20
123.2912218248522
 40
0.059781551763818
  0
CIRCLE
  8
_1-1_
  6
CONTINUOUS
 62
    7
 10
147.30997034021325
 20
127.05898800411741
 40
0.059781551763818
  0
CIRCLE
  8
_1-1_
  6
CONTINUOUS
 62
    7
 10
148.60607250316724
 20
126.87813423775339
 40
0.059781551763818
  0
CIRCLE
  8
_1-1_
  6
CONTINUOUS
 62
    7
 10
149.87204886771539
 20
126.90827240815034
 40
0.059781551763818
  0
CIRCLE
  8
_1-1_
  6
CONTINUOUS
 62
    7
 10
149.2692112278294
 20
125.73273529877534
 40
0.059781551763818
  0
CIRCLE
  8
_1-1_
  6
CONTINUOUS
 62
    7
 10
150.47488650760135
 20
127.51111004803633
 40
0.059781551763818
  0
CIRCLE
  8
_1-1_
  6
CONTINUOUS
 62
    7
 10
151.1078623178843
 20
128.32495199667443
 40
0.059781551763818
  0
CIRCLE
  8
_1-1_
  6
CONTINUOUS
 62
    7
 10
140.36724193676099
 20
120.44581232844173
 40
0.059781551763818
  0
CIRCLE
  8
_1-1_
  6
CONTINUOUS
 62
    7
 10
140.72894946948904
 20
121.65148760821369
 40
0.059781551763818
  0
CIRCLE
  8
_1-1_
  6
CONTINUOUS
 62
    7
 10
141.18108388539909
 20
121.95291880014781
 40
0.059781551763818
  0
CIRCLE
  8
_1-1_
  6
CONTINUOUS
 62
    7
 10
141.00023011903505
 20
121.07878813872468
 40
0.059781551763818
  0
CIRCLE
  8
_1-1_
  6
CONTINUOUS
 62
    7
 10
140.2768274255701
 20
120.05396662531673
 40
0.059781551763818
  0
CIRCLE
  8
_1-1_
  6
CONTINUOUS
 62
    7
 10
139.64383924329604
 20
119.57169403900971
 40
0.059781551763818
  0
CIRCLE
  8
_1-1_
  6
CONTINUOUS
 62
    7
 10
140.548095703125
 20
119.20998650628168
 40
0.059781551763818
  0
CIRCLE
  8
_1-1_
  6
CONTINUOUS
 62
    7
 10
141.63321830130914
 20
119.54154349662163
 40
0.059781551763818
  0
CIRCLE
  8
_1-1_
  6
CONTINUOUS
 62
    7
 10
141.331787109375
 20
119.24013704866977
 40
0.059781551763818
  0
CIRCLE
  8
_1-1_
  6
CONTINUOUS
 62
    7
 10
140.69881129909206
 20
120.98837362753379
 40
0.059781551763818
  0
CIRCLE
  8
_1-1_
  6
CONTINUOUS
 62
    7
 10
140.09597365920609
 20
122.16391073690879
 40
0.059781551763818
  0
CIRCLE
  8
_1-1_
  6
CONTINUOUS
 62
    7
 10
139.94525806323904
 20
122.67632149361276
 40
0.059781551763818
  0
CIRCLE
  8
_1-1_
  6
CONTINUOUS
 62
    7
 10
142.41690970755914
 20
123.21888279270482
 40
0.059781551763818
  0
CIRCLE
  8
_1-1_
  6
CONTINUOUS
 62
    7
 10
143.14032477301521
 20
123.70115537901184
 40
0.059781551763818
  0
CIRCLE
  8
_1-1_
  6
CONTINUOUS
 62
    7
 10
141.81407206767315
 20
123.76143171980576
 40
0.059781551763818
  0
CIRCLE
  8
_1-1_
  6
CONTINUOUS
 62
    7
 10
143.3513167097762
 20
122.67632149361276
 40
0.059781551763818
  0
CIRCLE
  8
_1-1_
  6
CONTINUOUS
 62
    7
 10
142.35663336676521
 20
121.98305697054477
 40
0.059781551763818
  0
CIRCLE
  8
_1-1_
  6
CONTINUOUS
 62
    7
 10
141.81407206767315
 20
121.62134943781673
 40
0.059781551763818
  0
CIRCLE
  8
_1-1_
  6
CONTINUOUS
 62
    7
 10
142.2360559411951
 20
120.98837362753379
 40
0.059781551763818
  0
CIRCLE
  8
_1-1_
  6
CONTINUOUS
 62
    7
 10
142.50733659074115
 20
120.59652792440879
 40
0.059781551763818
  0
CIRCLE
  8
_1-1_
  6
CONTINUOUS
 62
    7
 10
143.56230864653716
 20
120.80751986116977
 40
0.059781551763818
  0
CIRCLE
  8
_1-1_
  6
CONTINUOUS
 62
    7
 10
145.18998017182221
 20
121.62134943781673
 40
0.059781551763818
  0
CIRCLE
  8
_1-1_
  6
CONTINUOUS
 62
    7
 10
144.82827263909417
 20
121.89263008736276
 40
0.059781551763818
  0
CIRCLE
  8
_1-1_
  6
CONTINUOUS
 62
    7
 10
143.95415434966216
 20
119.96353974213471
 40
0.059781551763818
  0
CIRCLE
  8
_1-1_
  6
CONTINUOUS
 62
    7
 10
144.73784575591216
 20
120.41567415804477
 40
0.059781551763818
  0
CIRCLE
  8
_1-1_
  6
CONTINUOUS
 62
    7
 10
142.08534034522805
 20
119.72239726298565
 40
0.059781551763818
  0
CIRCLE
  8
_1-1_
  6
CONTINUOUS
 62
    7
 10
141.3619376517631
 20
123.49016344225085
 40
0.059781551763818
  0
CIRCLE
  8
_1-1_
  6
CONTINUOUS
 62
    7
 10
142.65803981471706
 20
123.30930967588684
 40
0.059781551763818
  0
CIRCLE
  8
_1-1_
  6
CONTINUOUS
 62
    7
 10
143.92401617926521
 20
123.33944784628379
 40
0.059781551763818
  0
CIRCLE
  8
_1-1_
  6
CONTINUOUS
 62
    7
 10
143.32117853937922
 20
122.16391073690879
 40
0.059781551763818
  0
CIRCLE
  8
_1-1_
  6
CONTINUOUS
 62
    7
 10
144.5268538191512
 20
123.94228548616977
 40
0.059781551763818
  0
CIRCLE
  8
_1-1_
  6
CONTINUOUS
 62
    7
 10
145.15982962943414
 20
124.75612743480787
 40
0.059781551763818
  0
CIRCLE
  8
_1-1_
  6
CONTINUOUS
 62
    7
 10
154.64254018422722
 20
126.63177077834672
 40
0.059781551763818
  0
CIRCLE
  8
_1-1_
  6
CONTINUOUS
 62
    7
 10
155.00424771695523
 20
127.83745843010981
 40
0.059781551763818
  0
CIRCLE
  8
_1-1_
  6
CONTINUOUS
 62
    7
 10
155.45636976087417
 20
128.13886487806167
 40
0.059781551763818
  0
CIRCLE
  8
_1-1_
  6
CONTINUOUS
 62
    7
 10
155.27551599451013
 20
127.26475896062078
 40
0.059781551763818
  0
CIRCLE
  8
_1-1_
  6
CONTINUOUS
 62
    7
 10
154.55210092905406
 20
126.23992507522172
 40
0.059781551763818
  0
CIRCLE
  8
_1-1_
  6
CONTINUOUS
 62
    7
 10
153.91912511877112
 20
125.7576524889147
 40
0.059781551763818
  0
CIRCLE
  8
_1-1_
  6
CONTINUOUS
 62
    7
 10
154.82339395059122
 20
125.39594495618667
 40
0.059781551763818
  0
CIRCLE
  8
_1-1_
  6
CONTINUOUS
 62
    7
 10
155.90850417678422
 20
125.72751431851775
 40
0.059781551763818
  0
CIRCLE
  8
_1-1_
  6
CONTINUOUS
 62
    7
 10
155.60708535684122
 20
125.42608312658362
 40
0.059781551763818
  0
CIRCLE
  8
_1-1_
  6
CONTINUOUS
 62
    7
 10
154.97409717456716
 20
127.17431970544764
 40
0.059781551763818
  0
CIRCLE
  8
_1-1_
  6
CONTINUOUS
 62
    7
 10
154.37125953468117
 20
128.34986918681378
 40
0.059781551763818
  0
CIRCLE
  8
_1-1_
  6
CONTINUOUS
 62
    7
 10
154.22054393871412
 20
128.86227994351773
 40
0.059781551763818
  0
CIRCLE
  8
_1-1_
  6
CONTINUOUS
 62
    7
 10
156.69219558303422
 20
129.40484124260979
 40
0.059781551763818
  0
CIRCLE
  8
_1-1_
  6
CONTINUOUS
 62
    7
 10
157.41559827649917
 20
129.88711382891682
 40
0.059781551763818
  0
CIRCLE
  8
_1-1_
  6
CONTINUOUS
 62
    7
 10
156.08934557115711
 20
129.94740254170188
 40
0.059781551763818
  0
CIRCLE
  8
_1-1_
  6
CONTINUOUS
 62
    7
 10
157.62659021326013
 20
128.86227994351773
 40
0.059781551763818
  0
CIRCLE
  8
_1-1_
  6
CONTINUOUS
 62
    7
 10
156.63190687024917
 20
128.16901542044977
 40
0.059781551763818
  0
CIRCLE
  8
_1-1_
  6
CONTINUOUS
 62
    7
 10
156.08934557115711
 20
127.80730788772172
 40
0.059781551763818
  0
CIRCLE
  8
_1-1_
  6
CONTINUOUS
 62
    7
 10
156.51134181667018
 20
127.17431970544764
 40
0.059781551763818
  0
CIRCLE
  8
_1-1_
  6
CONTINUOUS
 62
    7
 10
156.78262246621622
 20
126.78247400232264
 40
0.059781551763818
  0
CIRCLE
  8
_1-1_
  6
CONTINUOUS
 62
    7
 10
157.83759452201227
 20
126.99347831107475
 40
0.059781551763818
  0
CIRCLE
  8
_1-1_
  6
CONTINUOUS
 62
    7
 10
159.46526604729732
 20
127.80730788772172
 40
0.059781551763818
  0
CIRCLE
  8
_1-1_
  6
CONTINUOUS
 62
    7
 10
159.10355851456927
 20
128.07858853726773
 40
0.059781551763818
  0
CIRCLE
  8
_1-1_
  6
CONTINUOUS
 62
    7
 10
158.22944022513727
 20
126.1494981920397
 40
0.059781551763818
  0
CIRCLE
  8
_1-1_
  6
CONTINUOUS
 62
    7
 10
159.01313163138727
 20
126.60162023595862
 40
0.059781551763818
  0
CIRCLE
  8
_1-1_
  6
CONTINUOUS
 62
    7
 10
156.36063859269427
 20
125.90836808488176
 40
0.059781551763818
  0
CIRCLE
  8
_1-1_
  6
CONTINUOUS
 62
    7
 10
155.63722352723818
 20
129.67610952016472
 40
0.059781551763818
  0
CIRCLE
  8
_1-1_
  6
CONTINUOUS
 62
    7
 10
156.93333806218328
 20
129.49526812579182
 40
0.059781551763818
  0
CIRCLE
  8
_1-1_
  6
CONTINUOUS
 62
    7
 10
158.19928968274917
 20
129.52540629618878
 40
0.059781551763818
  0
CIRCLE
  8
_1-1_
  6
CONTINUOUS
 62
    7
 10
157.59645204286318
 20
128.34986918681378
 40
0.059781551763818
  0
CIRCLE
  8
_1-1_
  6
CONTINUOUS
 62
    7
 10
158.80213969462628
 20
130.12825630806589
 40
0.059781551763818
  0
CIRCLE
  8
_1-1_
  6
CONTINUOUS
 62
    7
 10
159.43512787690034
 20
130.94208588471284
 40
0.059781551763818
  0
CIRCLE
  8
_1-1_
  6
CONTINUOUS
 62
    7
 10
149.1703342747044
 20
123.53879773938979
 40
0.059781551763818
  0
CIRCLE
  8
_1-1_
  6
CONTINUOUS
 62
    7
 10
149.53204180743245
 20
124.74448539115288
 40
0.059781551763818
  0
CIRCLE
  8
_1-1_
  6
CONTINUOUS
 62
    7
 10
149.9841762233425
 20
125.04589183910474
 40
0.059781551763818
  0
CIRCLE
  8
_1-1_
  6
CONTINUOUS
 62
    7
 10
149.80332245697846
 20
124.17178592166385
 40
0.059781551763818
  0
CIRCLE
  8
_1-1_
  6
CONTINUOUS
 62
    7
 10
149.07991976351352
 20
123.14695203626479
 40
0.059781551763818
  0
CIRCLE
  8
_1-1_
  6
CONTINUOUS
 62
    7
 10
148.44693158123945
 20
122.66467944995777
 40
0.059781551763818
  0
CIRCLE
  8
_1-1_
  6
CONTINUOUS
 62
    7
 10
149.35118804106841
 20
122.30297191722974
 40
0.059781551763818
  0
CIRCLE
  8
_1-1_
  6
CONTINUOUS
 62
    7
 10
150.43631063925255
 20
122.63454127956082
 40
0.059781551763818
  0
CIRCLE
  8
_1-1_
  6
CONTINUOUS
 62
    7
 10
150.13487944731841
 20
122.33311008762669
 40
0.059781551763818
  0
CIRCLE
  8
_1-1_
  6
CONTINUOUS
 62
    7
 10
149.50190363703547
 20
124.08134666649072
 40
0.059781551763818
  0
CIRCLE
  8
_1-1_
  6
CONTINUOUS
 62
    7
 10
148.89906599714951
 20
125.25689614785685
 40
0.059781551763818
  0
CIRCLE
  8
_1-1_
  6
CONTINUOUS
 62
    7
 10
148.74835040118245
 20
125.76930690456082
 40
0.059781551763818
  0
CIRCLE
  8
_1-1_
  6
CONTINUOUS
 62
    7
 10
151.22000204550255
 20
126.31186820365288
 40
0.059781551763818
  0
CIRCLE
  8
_1-1_
  6
CONTINUOUS
 62
    7
 10
151.94341711095862
 20
126.79414078995988
 40
0.059781551763818
  0
CIRCLE
  8
_1-1_
  6
CONTINUOUS
 62
    7
 10
150.61716440561656
 20
126.85442950274494
 40
0.059781551763818
  0
CIRCLE
  8
_1-1_
  6
CONTINUOUS
 62
    7
 10
152.15440904771961
 20
125.76930690456082
 40
0.059781551763818
  0
CIRCLE
  8
_1-1_
  6
CONTINUOUS
 62
    7
 10
151.15972570470862
 20
125.07604238149283
 40
0.059781551763818
  0
CIRCLE
  8
_1-1_
  6
CONTINUOUS
 62
    7
 10
150.61716440561656
 20
124.71433484876479
 40
0.059781551763818
  0
CIRCLE
  8
_1-1_
  6
CONTINUOUS
 62
    7
 10
151.03914827913852
 20
124.08134666649072
 40
0.059781551763818
  0
CIRCLE
  8
_1-1_
  6
CONTINUOUS
 62
    7
 10
151.31042892868456
 20
123.68950096336572
 40
0.059781551763818
  0
CIRCLE
  8
_1-1_
  6
CONTINUOUS
 62
    7
 10
152.36540098448057
 20
123.90050527211783
 40
0.059781551763818
  0
CIRCLE
  8
_1-1_
  6
CONTINUOUS
 62
    7
 10
153.99307250976562
 20
124.71433484876479
 40
0.059781551763818
  0
CIRCLE
  8
_1-1_
  6
CONTINUOUS
 62
    7
 10
153.63136497703761
 20
124.98561549831082
 40
0.059781551763818
  0
CIRCLE
  8
_1-1_
  6
CONTINUOUS
 62
    7
 10
152.75724668760557
 20
123.05652515308277
 40
0.059781551763818
  0
CIRCLE
  8
_1-1_
  6
CONTINUOUS
 62
    7
 10
153.54093809385557
 20
123.50864719700169
 40
0.059781551763818
  0
CIRCLE
  8
_1-1_
  6
CONTINUOUS
 62
    7
 10
150.88843268317146
 20
122.81539504592484
 40
0.059781551763818
  0
CIRCLE
  8
_1-1_
  6
CONTINUOUS
 62
    7
 10
150.16502998970651
 20
126.58313648120777
 40
0.059781551763818
  0
CIRCLE
  8
_1-1_
  6
CONTINUOUS
 62
    7
 10
151.46113215266047
 20
126.40229508683488
 40
0.059781551763818
  0
CIRCLE
  8
_1-1_
  6
CONTINUOUS
 62
    7
 10
152.72710851720862
 20
126.43243325723185
 40
0.059781551763818
  0
CIRCLE
  8
_1-1_
  6
CONTINUOUS
 62
    7
 10
152.12427087732263
 20
125.25689614785685
 40
0.059781551763818
  0
CIRCLE
  8
_1-1_
  6
CONTINUOUS
 62
    7
 10
153.32994615709461
 20
127.03528326910896
 40
0.059781551763818
  0
CIRCLE
  8
_1-1_
  6
CONTINUOUS
 62
    7
 10
153.96292196737755
 20
127.84911284575593
 40
0.059781551763818
  0
CIRCLE
  8
_1-1_
  6
CONTINUOUS
 62
    7
 10
164.6352242134713
 20
132.10395194388727
 40
0.059781551763818
  0
CIRCLE
  8
_1-1_
  6
CONTINUOUS
 62
    7
 10
164.99693174619932
 20
133.30963959565034
 40
0.059781551763818
  0
CIRCLE
  8
_1-1_
  6
CONTINUOUS
 62
    7
 10
165.44906616210937
 20
133.61104604360222
 40
0.059781551763818
  0
CIRCLE
  8
_1-1_
  6
CONTINUOUS
 62
    7
 10
165.26821239574537
 20
132.73694012616133
 40
0.059781551763818
  0
CIRCLE
  8
_1-1_
  6
CONTINUOUS
 62
    7
 10
164.54480970228042
 20
131.71210624076227
 40
0.059781551763818
  0
CIRCLE
  8
_1-1_
  6
CONTINUOUS
 62
    7
 10
163.91182152000636
 20
131.22983365445523
 40
0.059781551763818
  0
CIRCLE
  8
_1-1_
  6
CONTINUOUS
 62
    7
 10
164.81607797983531
 20
130.86812612172722
 40
0.059781551763818
  0
CIRCLE
  8
_1-1_
  6
CONTINUOUS
 62
    7
 10
165.90120057801943
 20
131.19969548405828
 40
0.059781551763818
  0
CIRCLE
  8
_1-1_
  6
CONTINUOUS
 62
    7
 10
165.59976938608531
 20
130.89826429212417
 40
0.059781551763818
  0
CIRCLE
  8
_1-1_
  6
CONTINUOUS
 62
    7
 10
164.96679357580237
 20
132.64650087098818
 40
0.059781551763818
  0
CIRCLE
  8
_1-1_
  6
CONTINUOUS
 62
    7
 10
164.36395593591641
 20
133.82205035235432
 40
0.059781551763818
  0
CIRCLE
  8
_1-1_
  6
CONTINUOUS
 62
    7
 10
164.21324033994932
 20
134.33446110905828
 40
0.059781551763818
  0
CIRCLE
  8
_1-1_
  6
CONTINUOUS
 62
    7
 10
166.68489198426943
 20
134.87702240815034
 40
0.059781551763818
  0
CIRCLE
  8
_1-1_
  6
CONTINUOUS
 62
    7
 10
167.40830704972552
 20
135.35929499445734
 40
0.059781551763818
  0
CIRCLE
  8
_1-1_
  6
CONTINUOUS
 62
    7
 10
166.08205434438347
 20
135.4195837072424
 40
0.059781551763818
  0
CIRCLE
  8
_1-1_
  6
CONTINUOUS
 62
    7
 10
167.61929898648648
 20
134.33446110905828
 40
0.059781551763818
  0
CIRCLE
  8
_1-1_
  6
CONTINUOUS
 62
    7
 10
166.62461564347552
 20
133.64119658599029
 40
0.059781551763818
  0
CIRCLE
  8
_1-1_
  6
CONTINUOUS
 62
    7
 10
166.08205434438347
 20
133.27948905326227
 40
0.059781551763818
  0
CIRCLE
  8
_1-1_
  6
CONTINUOUS
 62
    7
 10
166.50403821790542
 20
132.64650087098818
 40
0.059781551763818
  0
CIRCLE
  8
_1-1_
  6
CONTINUOUS
 62
    7
 10
166.77531886745143
 20
132.25465516786318
 40
0.059781551763818
  0
CIRCLE
  8
_1-1_
  6
CONTINUOUS
 62
    7
 10
167.83029092324747
 20
132.46565947661529
 40
0.059781551763818
  0
CIRCLE
  8
_1-1_
  6
CONTINUOUS
 62
    7
 10
169.45796244853253
 20
133.27948905326227
 40
0.059781551763818
  0
CIRCLE
  8
_1-1_
  6
CONTINUOUS
 62
    7
 10
169.09625491580448
 20
133.55076970280828
 40
0.059781551763818
  0
CIRCLE
  8
_1-1_
  6
CONTINUOUS
 62
    7
 10
168.22213662637247
 20
131.62167935758023
 40
0.059781551763818
  0
CIRCLE
  8
_1-1_
  6
CONTINUOUS
 62
    7
 10
169.00582803262247
 20
132.07380140149917
 40
0.059781551763818
  0
CIRCLE
  8
_1-1_
  6
CONTINUOUS
 62
    7
 10
166.35332262193836
 20
131.38054925042229
 40
0.059781551763818
  0
CIRCLE
  8
_1-1_
  6
CONTINUOUS
 62
    7
 10
165.62991992847341
 20
135.14829068570523
 40
0.059781551763818
  0
CIRCLE
  8
_1-1_
  6
CONTINUOUS
 62
    7
 10
166.92602209142737
 20
134.96744929133234
 40
0.059781551763818
  0
CIRCLE
  8
_1-1_
  6
CONTINUOUS
 62
    7
 10
168.19199845597552
 20
134.99758746172932
 40
0.059781551763818
  0
CIRCLE
  8
_1-1_
  6
CONTINUOUS
 62
    7
 10
167.58916081608953
 20
133.82205035235432
 40
0.059781551763818
  0
CIRCLE
  8
_1-1_
  6
CONTINUOUS
 62
    7
 10
168.79483609586148
 20
135.60043747360643
 40
0.059781551763818
  0
CIRCLE
  8
_1-1_
  6
CONTINUOUS
 62
    7
 10
169.42781190614443
 20
136.41426705025339
 40
0.059781551763818
  0
CIRCLE
  8
_1-1_
  6
CONTINUOUS
 62
    7
 10
158.21134000211148
 20
127.58344908018371
 40
0.059781551763818
  0
CIRCLE
  8
_1-1_
  6
CONTINUOUS
 62
    7
 10
158.57304753483953
 20
128.7891367319468
 40
0.059781551763818
  0
CIRCLE
  8
_1-1_
  6
CONTINUOUS
 62
    7
 10
159.02518195074958
 20
129.09054317989865
 40
0.059781551763818
  0
CIRCLE
  8
_1-1_
  6
CONTINUOUS
 62
    7
 10
158.84432818438557
 20
128.21643726245779
 40
0.059781551763818
  0
CIRCLE
  8
_1-1_
  6
CONTINUOUS
 62
    7
 10
158.12092549092063
 20
127.19160337705871
 40
0.059781551763818
  0
CIRCLE
  8
_1-1_
  6
CONTINUOUS
 62
    7
 10
157.48793730864654
 20
126.70933079075169
 40
0.059781551763818
  0
CIRCLE
  8
_1-1_
  6
CONTINUOUS
 62
    7
 10
158.39219376847552
 20
126.34762325802366
 40
0.059781551763818
  0
CIRCLE
  8
_1-1_
  6
CONTINUOUS
 62
    7
 10
159.47731636665964
 20
126.67919262035474
 40
0.059781551763818
  0
CIRCLE
  8
_1-1_
  6
CONTINUOUS
 62
    7
 10
159.17588517472552
 20
126.37776142842061
 40
0.059781551763818
  0
CIRCLE
  8
_1-1_
  6
CONTINUOUS
 62
    7
 10
158.54290936444258
 20
128.12599800728464
 40
0.059781551763818
  0
CIRCLE
  8
_1-1_
  6
CONTINUOUS
 62
    7
 10
157.94007172455659
 20
129.30154748865075
 40
0.059781551763818
  0
CIRCLE
  8
_1-1_
  6
CONTINUOUS
 62
    7
 10
157.78935612858953
 20
129.81395824535474
 40
0.059781551763818
  0
CIRCLE
  8
_1-1_
  6
CONTINUOUS
 62
    7
 10
160.26100777290964
 20
130.3565195444468
 40
0.059781551763818
  0
CIRCLE
  8
_1-1_
  6
CONTINUOUS
 62
    7
 10
160.98442283836573
 20
130.8387921307538
 40
0.059781551763818
  0
CIRCLE
  8
_1-1_
  6
CONTINUOUS
 62
    7
 10
159.65817013302365
 20
130.89908084353885
 40
0.059781551763818
  0
CIRCLE
  8
_1-1_
  6
CONTINUOUS
 62
    7
 10
161.19541477512669
 20
129.81395824535474
 40
0.059781551763818
  0
CIRCLE
  8
_1-1_
  6
CONTINUOUS
 62
    7
 10
160.20073143211573
 20
129.12069372228675
 40
0.059781551763818
  0
CIRCLE
  8
_1-1_
  6
CONTINUOUS
 62
    7
 10
159.65817013302365
 20
128.7589861895587
 40
0.059781551763818
  0
CIRCLE
  8
_1-1_
  6
CONTINUOUS
 62
    7
 10
160.08015400654563
 20
128.12599800728464
 40
0.059781551763818
  0
CIRCLE
  8
_1-1_
  6
CONTINUOUS
 62
    7
 10
160.35143465609164
 20
127.73415230415964
 40
0.059781551763818
  0
CIRCLE
  8
_1-1_
  6
CONTINUOUS
 62
    7
 10
161.40640671188768
 20
127.94515661291175
 40
0.059781551763818
  0
CIRCLE
  8
_1-1_
  6
CONTINUOUS
 62
    7
 10
163.03407823717274
 20
128.7589861895587
 40
0.059781551763818
  0
CIRCLE
  8
_1-1_
  6
CONTINUOUS
 62
    7
 10
162.67237070444469
 20
129.03026683910474
 40
0.059781551763818
  0
CIRCLE
  8
_1-1_
  6
CONTINUOUS
 62
    7
 10
161.79825241501268
 20
127.10117649387669
 40
0.059781551763818
  0
CIRCLE
  8
_1-1_
  6
CONTINUOUS
 62
    7
 10
162.58194382126268
 20
127.55329853779561
 40
0.059781551763818
  0
CIRCLE
  8
_1-1_
  6
CONTINUOUS
 62
    7
 10
159.92943841057857
 20
126.86004638671875
 40
0.059781551763818
  0
CIRCLE
  8
_1-1_
  6
CONTINUOUS
 62
    7
 10
159.20603571711359
 20
130.62778782200169
 40
0.059781551763818
  0
CIRCLE
  8
_1-1_
  6
CONTINUOUS
 62
    7
 10
160.50213788006758
 20
130.4469464276288
 40
0.059781551763818
  0
CIRCLE
  8
_1-1_
  6
CONTINUOUS
 62
    7
 10
161.76811424461573
 20
130.47708459802575
 40
0.059781551763818
  0
CIRCLE
  8
_1-1_
  6
CONTINUOUS
 62
    7
 10
161.16527660472974
 20
129.30154748865075
 40
0.059781551763818
  0
CIRCLE
  8
_1-1_
  6
CONTINUOUS
 62
    7
 10
162.37095188450169
 20
131.07993460990289
 40
0.059781551763818
  0
CIRCLE
  8
_1-1_
  6
CONTINUOUS
 62
    7
 10
163.00392769478464
 20
131.89376418654984
 40
0.059781551763818
  0
CIRCLE
  8
_1-1_
  6
CONTINUOUS
 62
    7
 10
170.34534351245779
 20
133.29356837917018
 40
0.059781551763818
  0
CIRCLE
  8
_1-1_
  6
CONTINUOUS
 62
    7
 10
170.70705104518581
 20
134.49925603093328
 40
0.059781551763818
  0
CIRCLE
  8
_1-1_
  6
CONTINUOUS
 62
    7
 10
171.15917308910474
 20
134.80066247888513
 40
0.059781551763818
  0
CIRCLE
  8
_1-1_
  6
CONTINUOUS
 62
    7
 10
170.97831932274073
 20
133.92655656144427
 40
0.059781551763818
  0
CIRCLE
  8
_1-1_
  6
CONTINUOUS
 62
    7
 10
170.25490425728464
 20
132.90172267604518
 40
0.059781551763818
  0
CIRCLE
  8
_1-1_
  6
CONTINUOUS
 62
    7
 10
169.62192844700169
 20
132.41945008973818
 40
0.059781551763818
  0
CIRCLE
  8
_1-1_
  6
CONTINUOUS
 62
    7
 10
170.5261972788218
 20
132.05774255701013
 40
0.059781551763818
  0
CIRCLE
  8
_1-1_
  6
CONTINUOUS
 62
    7
 10
171.61130750501479
 20
132.38931191934122
 40
0.059781551763818
  0
CIRCLE
  8
_1-1_
  6
CONTINUOUS
 62
    7
 10
171.3098886850718
 20
132.08788072740711
 40
0.059781551763818
  0
CIRCLE
  8
_1-1_
  6
CONTINUOUS
 62
    7
 10
170.67690050279774
 20
133.83611730627112
 40
0.059781551763818
  0
CIRCLE
  8
_1-1_
  6
CONTINUOUS
 62
    7
 10
170.07406286291175
 20
135.01166678763727
 40
0.059781551763818
  0
CIRCLE
  8
_1-1_
  6
CONTINUOUS
 62
    7
 10
169.92334726694469
 20
135.52407754434122
 40
0.059781551763818
  0
CIRCLE
  8
_1-1_
  6
CONTINUOUS
 62
    7
 10
172.39499891126479
 20
136.06663884343328
 40
0.059781551763818
  0
CIRCLE
  8
_1-1_
  6
CONTINUOUS
 62
    7
 10
173.11840160472974
 20
136.54891142974029
 40
0.059781551763818
  0
CIRCLE
  8
_1-1_
  6
CONTINUOUS
 62
    7
 10
171.79214889938768
 20
136.60920014252534
 40
0.059781551763818
  0
CIRCLE
  8
_1-1_
  6
CONTINUOUS
 62
    7
 10
173.32939354149073
 20
135.52407754434122
 40
0.059781551763818
  0
CIRCLE
  8
_1-1_
  6
CONTINUOUS
 62
    7
 10
172.33471019847974
 20
134.83081302127323
 40
0.059781551763818
  0
CIRCLE
  8
_1-1_
  6
CONTINUOUS
 62
    7
 10
171.79214889938768
 20
134.46910548854518
 40
0.059781551763818
  0
CIRCLE
  8
_1-1_
  6
CONTINUOUS
 62
    7
 10
172.21414514490078
 20
133.83611730627112
 40
0.059781551763818
  0
CIRCLE
  8
_1-1_
  6
CONTINUOUS
 62
    7
 10
172.4854257944468
 20
133.44427160314612
 40
0.059781551763818
  0
CIRCLE
  8
_1-1_
  6
CONTINUOUS
 62
    7
 10
173.54039785024284
 20
133.65527591189823
 40
0.059781551763818
  0
CIRCLE
  8
_1-1_
  6
CONTINUOUS
 62
    7
 10
175.16806937552789
 20
134.46910548854518
 40
0.059781551763818
  0
CIRCLE
  8
_1-1_
  6
CONTINUOUS
 62
    7
 10
174.80636184279984
 20
134.74038613809122
 40
0.059781551763818
  0
CIRCLE
  8
_1-1_
  6
CONTINUOUS
 62
    7
 10
173.93224355336784
 20
132.81129579286318
 40
0.059781551763818
  0
CIRCLE
  8
_1-1_
  6
CONTINUOUS
 62
    7
 10
174.71593495961784
 20
133.26341783678211
 40
0.059781551763818
  0
CIRCLE
  8
_1-1_
  6
CONTINUOUS
 62
    7
 10
172.06344192092484
 20
132.57016568570523
 40
0.059781551763818
  0
CIRCLE
  8
_1-1_
  6
CONTINUOUS
 62
    7
 10
171.34002685546875
 20
136.33790712098818
 40
0.059781551763818
  0
CIRCLE
  8
_1-1_
  6
CONTINUOUS
 62
    7
 10
172.63614139041385
 20
136.15706572661529
 40
0.059781551763818
  0
CIRCLE
  8
_1-1_
  6
CONTINUOUS
 62
    7
 10
173.90209301097974
 20
136.18720389701227
 40
0.059781551763818
  0
CIRCLE
  8
_1-1_
  6
CONTINUOUS
 62
    7
 10
173.29925537109375
 20
135.01166678763727
 40
0.059781551763818
  0
CIRCLE
  8
_1-1_
  6
CONTINUOUS
 62
    7
 10
174.50494302285685
 20
136.79005390888938
 40
0.059781551763818
  0
CIRCLE
  8
_1-1_
  6
CONTINUOUS
 62
    7
 10
175.13793120513091
 20
137.60388348553633
 40
0.059781551763818
  0
CIRCLE
  8
_1-1_
  6
CONTINUOUS
 62
    7
 10
189.85488479201859
 20
142.57249986803211
 40
0.059781551763818
  0
CIRCLE
  8
_1-1_
  6
CONTINUOUS
 62
    7
 10
190.21659232474664
 20
143.77817514780406
 40
0.059781551763818
  0
CIRCLE
  8
_1-1_
  6
CONTINUOUS
 62
    7
 10
190.66871436866555
 20
144.07960633973818
 40
0.059781551763818
  0
CIRCLE
  8
_1-1_
  6
CONTINUOUS
 62
    7
 10
190.48786060230154
 20
143.20547567831505
 40
0.059781551763818
  0
CIRCLE
  8
_1-1_
  6
CONTINUOUS
 62
    7
 10
189.76445790883659
 20
142.18065416490711
 40
0.059781551763818
  0
CIRCLE
  8
_1-1_
  6
CONTINUOUS
 62
    7
 10
189.1314697265625
 20
141.69838157860011
 40
0.059781551763818
  0
CIRCLE
  8
_1-1_
  6
CONTINUOUS
 62
    7
 10
190.0357385583826
 20
141.33667404587206
 40
0.059781551763818
  0
CIRCLE
  8
_1-1_
  6
CONTINUOUS
 62
    7
 10
191.12086115656675
 20
141.66823103621201
 40
0.059781551763818
  0
CIRCLE
  8
_1-1_
  6
CONTINUOUS
 62
    7
 10
190.8194299646326
 20
141.36682458826013
 40
0.059781551763818
  0
CIRCLE
  8
_1-1_
  6
CONTINUOUS
 62
    7
 10
190.18645415434966
 20
143.11506116712417
 40
0.059781551763818
  0
CIRCLE
  8
_1-1_
  6
CONTINUOUS
 62
    7
 10
189.5836165144637
 20
144.29059827649917
 40
0.059781551763818
  0
CIRCLE
  8
_1-1_
  6
CONTINUOUS
 62
    7
 10
189.43290091849664
 20
144.80300903320312
 40
0.059781551763818
  0
CIRCLE
  8
_1-1_
  6
CONTINUOUS
 62
    7
 10
191.90455256281675
 20
145.34557033229518
 40
0.059781551763818
  0
CIRCLE
  8
_1-1_
  6
CONTINUOUS
 62
    7
 10
192.62795525628169
 20
145.82784291860222
 40
0.059781551763818
  0
CIRCLE
  8
_1-1_
  6
CONTINUOUS
 62
    7
 10
191.30170255093961
 20
145.88811925939612
 40
0.059781551763818
  0
CIRCLE
  8
_1-1_
  6
CONTINUOUS
 62
    7
 10
192.83894719304266
 20
144.80300903320312
 40
0.059781551763818
  0
CIRCLE
  8
_1-1_
  6
CONTINUOUS
 62
    7
 10
191.84426385003169
 20
144.10974451013513
 40
0.059781551763818
  0
CIRCLE
  8
_1-1_
  6
CONTINUOUS
 62
    7
 10
191.30170255093961
 20
143.74803697740711
 40
0.059781551763818
  0
CIRCLE
  8
_1-1_
  6
CONTINUOUS
 62
    7
 10
191.72369879645271
 20
143.11506116712417
 40
0.059781551763818
  0
CIRCLE
  8
_1-1_
  6
CONTINUOUS
 62
    7
 10
191.9949670740076
 20
142.72321546399917
 40
0.059781551763818
  0
CIRCLE
  8
_1-1_
  6
CONTINUOUS
 62
    7
 10
193.04995150179477
 20
142.93420740076013
 40
0.059781551763818
  0
CIRCLE
  8
_1-1_
  6
CONTINUOUS
 62
    7
 10
194.6776106550887
 20
143.74803697740711
 40
0.059781551763818
  0
CIRCLE
  8
_1-1_
  6
CONTINUOUS
 62
    7
 10
194.31590312236065
 20
144.01931762695312
 40
0.059781551763818
  0
CIRCLE
  8
_1-1_
  6
CONTINUOUS
 62
    7
 10
193.44179720491977
 20
142.09022728172511
 40
0.059781551763818
  0
CIRCLE
  8
_1-1_
  6
CONTINUOUS
 62
    7
 10
194.22548861116977
 20
142.54236169763513
 40
0.059781551763818
  0
CIRCLE
  8
_1-1_
  6
CONTINUOUS
 62
    7
 10
191.57298320048565
 20
141.84908480257602
 40
0.059781551763818
  0
CIRCLE
  8
_1-1_
  6
CONTINUOUS
 62
    7
 10
190.84956813502959
 20
145.61685098184122
 40
0.059781551763818
  0
CIRCLE
  8
_1-1_
  6
CONTINUOUS
 62
    7
 10
192.14568266997466
 20
145.43599721547722
 40
0.059781551763818
  0
CIRCLE
  8
_1-1_
  6
CONTINUOUS
 62
    7
 10
193.41164666253169
 20
145.46613538587417
 40
0.059781551763818
  0
CIRCLE
  8
_1-1_
  6
CONTINUOUS
 62
    7
 10
192.8088090226457
 20
144.29059827649917
 40
0.059781551763818
  0
CIRCLE
  8
_1-1_
  6
CONTINUOUS
 62
    7
 10
194.0144966744088
 20
146.06897302576013
 40
0.059781551763818
  0
CIRCLE
  8
_1-1_
  6
CONTINUOUS
 62
    7
 10
194.64747248469175
 20
146.88281497439823
 40
0.059781551763818
  0
CIRCLE
  8
_1-1_
  6
CONTINUOUS
 62
    7
 10
182.00347075591216
 20
139.00367530616555
 40
0.059781551763818
  0
CIRCLE
  8
_1-1_
  6
CONTINUOUS
 62
    7
 10
182.36517828864021
 20
140.2093505859375
 40
0.059781551763818
  0
CIRCLE
  8
_1-1_
  6
CONTINUOUS
 62
    7
 10
182.81731270455026
 20
140.51078177787164
 40
0.059781551763818
  0
CIRCLE
  8
_1-1_
  6
CONTINUOUS
 62
    7
 10
182.63645893818625
 20
139.63665111644849
 40
0.059781551763818
  0
CIRCLE
  8
_1-1_
  6
CONTINUOUS
 62
    7
 10
181.9130562447213
 20
138.61182960304055
 40
0.059781551763818
  0
CIRCLE
  8
_1-1_
  6
CONTINUOUS
 62
    7
 10
181.28006806244721
 20
138.12955701673354
 40
0.059781551763818
  0
CIRCLE
  8
_1-1_
  6
CONTINUOUS
 62
    7
 10
182.1843245222762
 20
137.7678494840055
 40
0.059781551763818
  0
CIRCLE
  8
_1-1_
  6
CONTINUOUS
 62
    7
 10
183.26944712046031
 20
138.09940647434544
 40
0.059781551763818
  0
CIRCLE
  8
_1-1_
  6
CONTINUOUS
 62
    7
 10
182.9680159285262
 20
137.79800002639359
 40
0.059781551763818
  0
CIRCLE
  8
_1-1_
  6
CONTINUOUS
 62
    7
 10
182.33504011824326
 20
139.5462366052576
 40
0.059781551763818
  0
CIRCLE
  8
_1-1_
  6
CONTINUOUS
 62
    7
 10
181.73220247835727
 20
140.7217737146326
 40
0.059781551763818
  0
CIRCLE
  8
_1-1_
  6
CONTINUOUS
 62
    7
 10
181.58148688239021
 20
141.23418447133659
 40
0.059781551763818
  0
CIRCLE
  8
_1-1_
  6
CONTINUOUS
 62
    7
 10
184.05313852671031
 20
141.77674577042865
 40
0.059781551763818
  0
CIRCLE
  8
_1-1_
  6
CONTINUOUS
 62
    7
 10
184.77655359216641
 20
142.25901835673565
 40
0.059781551763818
  0
CIRCLE
  8
_1-1_
  6
CONTINUOUS
 62
    7
 10
183.45030088682432
 20
142.31929469752956
 40
0.059781551763818
  0
CIRCLE
  8
_1-1_
  6
CONTINUOUS
 62
    7
 10
184.98754552892737
 20
141.23418447133659
 40
0.059781551763818
  0
CIRCLE
  8
_1-1_
  6
CONTINUOUS
 62
    7
 10
183.99286218591641
 20
140.54091994826859
 40
0.059781551763818
  0
CIRCLE
  8
_1-1_
  6
CONTINUOUS
 62
    7
 10
183.45030088682432
 20
140.17921241554055
 40
0.059781551763818
  0
CIRCLE
  8
_1-1_
  6
CONTINUOUS
 62
    7
 10
183.8722847603463
 20
139.5462366052576
 40
0.059781551763818
  0
CIRCLE
  8
_1-1_
  6
CONTINUOUS
 62
    7
 10
184.14356540989232
 20
139.1543909021326
 40
0.059781551763818
  0
CIRCLE
  8
_1-1_
  6
CONTINUOUS
 62
    7
 10
185.19853746568836
 20
139.36538283889359
 40
0.059781551763818
  0
CIRCLE
  8
_1-1_
  6
CONTINUOUS
 62
    7
 10
186.82620899097341
 20
140.17921241554055
 40
0.059781551763818
  0
CIRCLE
  8
_1-1_
  6
CONTINUOUS
 62
    7
 10
186.46450145824537
 20
140.45049306508659
 40
0.059781551763818
  0
CIRCLE
  8
_1-1_
  6
CONTINUOUS
 62
    7
 10
185.59038316881336
 20
138.52140271985854
 40
0.059781551763818
  0
CIRCLE
  8
_1-1_
  6
CONTINUOUS
 62
    7
 10
186.37407457506336
 20
138.97353713576859
 40
0.059781551763818
  0
CIRCLE
  8
_1-1_
  6
CONTINUOUS
 62
    7
 10
183.72156916437925
 20
138.28026024070948
 40
0.059781551763818
  0
CIRCLE
  8
_1-1_
  6
CONTINUOUS
 62
    7
 10
182.99816647091427
 20
142.04802641997466
 40
0.059781551763818
  0
CIRCLE
  8
_1-1_
  6
CONTINUOUS
 62
    7
 10
184.29426863386826
 20
141.86717265361065
 40
0.059781551763818
  0
CIRCLE
  8
_1-1_
  6
CONTINUOUS
 62
    7
 10
185.56024499841641
 20
141.8973108240076
 40
0.059781551763818
  0
CIRCLE
  8
_1-1_
  6
CONTINUOUS
 62
    7
 10
184.95740735853042
 20
140.7217737146326
 40
0.059781551763818
  0
CIRCLE
  8
_1-1_
  6
CONTINUOUS
 62
    7
 10
186.16308263830237
 20
142.50014846389359
 40
0.059781551763818
  0
CIRCLE
  8
_1-1_
  6
CONTINUOUS
 62
    7
 10
186.79605844858531
 20
143.31399041253167
 40
0.059781551763818
  0
CIRCLE
  8
_1-1_
  6
CONTINUOUS
 62
    7
 10
176.29337620090794
 20
136.38654141812711
 40
0.059781551763818
  0
CIRCLE
  8
_1-1_
  6
CONTINUOUS
 62
    7
 10
176.65508373363599
 20
137.59222906989021
 40
0.059781551763818
  0
CIRCLE
  8
_1-1_
  6
CONTINUOUS
 62
    7
 10
177.1072057775549
 20
137.89363551784206
 40
0.059781551763818
  0
CIRCLE
  8
_1-1_
  6
CONTINUOUS
 62
    7
 10
176.92635201119089
 20
137.0195296004012
 40
0.059781551763818
  0
CIRCLE
  8
_1-1_
  6
CONTINUOUS
 62
    7
 10
176.20293694573482
 20
135.99469571500211
 40
0.059781551763818
  0
CIRCLE
  8
_1-1_
  6
CONTINUOUS
 62
    7
 10
175.56996113545188
 20
135.5124231286951
 40
0.059781551763818
  0
CIRCLE
  8
_1-1_
  6
CONTINUOUS
 62
    7
 10
176.47422996727198
 20
135.15071559596706
 40
0.059781551763818
  0
CIRCLE
  8
_1-1_
  6
CONTINUOUS
 62
    7
 10
177.55934019346495
 20
135.48228495829815
 40
0.059781551763818
  0
CIRCLE
  8
_1-1_
  6
CONTINUOUS
 62
    7
 10
177.25792137352198
 20
135.18085376636404
 40
0.059781551763818
  0
CIRCLE
  8
_1-1_
  6
CONTINUOUS
 62
    7
 10
176.62493319124789
 20
136.92909034522805
 40
0.059781551763818
  0
CIRCLE
  8
_1-1_
  6
CONTINUOUS
 62
    7
 10
176.02209555136193
 20
138.10463982659417
 40
0.059781551763818
  0
CIRCLE
  8
_1-1_
  6
CONTINUOUS
 62
    7
 10
175.87137995539487
 20
138.61705058329815
 40
0.059781551763818
  0
CIRCLE
  8
_1-1_
  6
CONTINUOUS
 62
    7
 10
178.34303159971495
 20
139.15961188239021
 40
0.059781551763818
  0
CIRCLE
  8
_1-1_
  6
CONTINUOUS
 62
    7
 10
179.0664342931799
 20
139.64188446869721
 40
0.059781551763818
  0
CIRCLE
  8
_1-1_
  6
CONTINUOUS
 62
    7
 10
177.74018158783784
 20
139.70217318148227
 40
0.059781551763818
  0
CIRCLE
  8
_1-1_
  6
CONTINUOUS
 62
    7
 10
179.27742622994089
 20
138.61705058329815
 40
0.059781551763818
  0
CIRCLE
  8
_1-1_
  6
CONTINUOUS
 62
    7
 10
178.2827428869299
 20
137.92378606023016
 40
0.059781551763818
  0
CIRCLE
  8
_1-1_
  6
CONTINUOUS
 62
    7
 10
177.74018158783784
 20
137.56207852750211
 40
0.059781551763818
  0
CIRCLE
  8
_1-1_
  6
CONTINUOUS
 62
    7
 10
178.16217783335094
 20
136.92909034522805
 40
0.059781551763818
  0
CIRCLE
  8
_1-1_
  6
CONTINUOUS
 62
    7
 10
178.43345848289698
 20
136.53724464210305
 40
0.059781551763818
  0
CIRCLE
  8
_1-1_
  6
CONTINUOUS
 62
    7
 10
179.488430538693
 20
136.74824895085516
 40
0.059781551763818
  0
CIRCLE
  8
_1-1_
  6
CONTINUOUS
 62
    7
 10
181.11610206397805
 20
137.56207852750211
 40
0.059781551763818
  0
CIRCLE
  8
_1-1_
  6
CONTINUOUS
 62
    7
 10
180.75439453125
 20
137.83335917704815
 40
0.059781551763818
  0
CIRCLE
  8
_1-1_
  6
CONTINUOUS
 62
    7
 10
179.880276241818
 20
135.9042688318201
 40
0.059781551763818
  0
CIRCLE
  8
_1-1_
  6
CONTINUOUS
 62
    7
 10
180.663967648068
 20
136.35639087573904
 40
0.059781551763818
  0
CIRCLE
  8
_1-1_
  6
CONTINUOUS
 62
    7
 10
178.011474609375
 20
135.66313872466216
 40
0.059781551763818
  0
CIRCLE
  8
_1-1_
  6
CONTINUOUS
 62
    7
 10
177.28805954391893
 20
139.4308801599451
 40
0.059781551763818
  0
CIRCLE
  8
_1-1_
  6
CONTINUOUS
 62
    7
 10
178.58417407886404
 20
139.25003876557221
 40
0.059781551763818
  0
CIRCLE
  8
_1-1_
  6
CONTINUOUS
 62
    7
 10
179.8501256994299
 20
139.28017693596917
 40
0.059781551763818
  0
CIRCLE
  8
_1-1_
  6
CONTINUOUS
 62
    7
 10
179.24728805954393
 20
138.10463982659417
 40
0.059781551763818
  0
CIRCLE
  8
_1-1_
  6
CONTINUOUS
 62
    7
 10
180.45297571130703
 20
139.8830269478463
 40
0.059781551763818
  0
CIRCLE
  8
_1-1_
  6
CONTINUOUS
 62
    7
 10
181.08596389358109
 20
140.69685652449326
 40
0.059781551763818
  0
CIRCLE
  8
_1-1_
  6
CONTINUOUS
 62
    7
 10
185.33438192831505
 20
140.90704428183068
 40
0.059781551763818
  0
CIRCLE
  8
_1-1_
  6
CONTINUOUS
 62
    7
 10
185.69608946104307
 20
142.11273193359375
 40
0.059781551763818
  0
CIRCLE
  8
_1-1_
  6
CONTINUOUS
 62
    7
 10
186.14822387695312
 20
142.41413838154563
 40
0.059781551763818
  0
CIRCLE
  8
_1-1_
  6
CONTINUOUS
 62
    7
 10
185.96737011058912
 20
141.54003246410474
 40
0.059781551763818
  0
CIRCLE
  8
_1-1_
  6
CONTINUOUS
 62
    7
 10
185.24396741712417
 20
140.51519857870568
 40
0.059781551763818
  0
CIRCLE
  8
_1-1_
  6
CONTINUOUS
 62
    7
 10
184.61097923485011
 20
140.03292599239865
 40
0.059781551763818
  0
CIRCLE
  8
_1-1_
  6
CONTINUOUS
 62
    7
 10
185.51523569467906
 20
139.67121845967063
 40
0.059781551763818
  0
CIRCLE
  8
_1-1_
  6
CONTINUOUS
 62
    7
 10
186.60035829286318
 20
140.00278782200169
 40
0.059781551763818
  0
CIRCLE
  8
_1-1_
  6
CONTINUOUS
 62
    7
 10
186.29892710092906
 20
139.70135663006758
 40
0.059781551763818
  0
CIRCLE
  8
_1-1_
  6
CONTINUOUS
 62
    7
 10
185.66595129064612
 20
141.44959320893159
 40
0.059781551763818
  0
CIRCLE
  8
_1-1_
  6
CONTINUOUS
 62
    7
 10
185.06311365076016
 20
142.62514269029774
 40
0.059781551763818
  0
CIRCLE
  8
_1-1_
  6
CONTINUOUS
 62
    7
 10
184.91239805479307
 20
143.13755344700169
 40
0.059781551763818
  0
CIRCLE
  8
_1-1_
  6
CONTINUOUS
 62
    7
 10
187.38404969911318
 20
143.68011474609375
 40
0.059781551763818
  0
CIRCLE
  8
_1-1_
  6
CONTINUOUS
 62
    7
 10
188.10746476456927
 20
144.16238733240075
 40
0.059781551763818
  0
CIRCLE
  8
_1-1_
  6
CONTINUOUS
 62
    7
 10
186.78121205922722
 20
144.22267604518581
 40
0.059781551763818
  0
CIRCLE
  8
_1-1_
  6
CONTINUOUS
 62
    7
 10
188.31845670133023
 20
143.13755344700169
 40
0.059781551763818
  0
CIRCLE
  8
_1-1_
  6
CONTINUOUS
 62
    7
 10
187.32377335831927
 20
142.4442889239337
 40
0.059781551763818
  0
CIRCLE
  8
_1-1_
  6
CONTINUOUS
 62
    7
 10
186.78121205922722
 20
142.08258139120568
 40
0.059781551763818
  0
CIRCLE
  8
_1-1_
  6
CONTINUOUS
 62
    7
 10
187.20319593274917
 20
141.44959320893159
 40
0.059781551763818
  0
CIRCLE
  8
_1-1_
  6
CONTINUOUS
 62
    7
 10
187.47447658229521
 20
141.05774750580659
 40
0.059781551763818
  0
CIRCLE
  8
_1-1_
  6
CONTINUOUS
 62
    7
 10
188.52944863809122
 20
141.2687518145587
 40
0.059781551763818
  0
CIRCLE
  8
_1-1_
  6
CONTINUOUS
 62
    7
 10
190.15712016337628
 20
142.08258139120568
 40
0.059781551763818
  0
CIRCLE
  8
_1-1_
  6
CONTINUOUS
 62
    7
 10
189.79541263064823
 20
142.35386204075169
 40
0.059781551763818
  0
CIRCLE
  8
_1-1_
  6
CONTINUOUS
 62
    7
 10
188.92129434121622
 20
140.42477169552365
 40
0.059781551763818
  0
CIRCLE
  8
_1-1_
  6
CONTINUOUS
 62
    7
 10
189.70498574746622
 20
140.87689373944258
 40
0.059781551763818
  0
CIRCLE
  8
_1-1_
  6
CONTINUOUS
 62
    7
 10
187.05248033678211
 20
140.18364158836573
 40
0.059781551763818
  0
CIRCLE
  8
_1-1_
  6
CONTINUOUS
 62
    7
 10
186.32907764331716
 20
143.95138302364865
 40
0.059781551763818
  0
CIRCLE
  8
_1-1_
  6
CONTINUOUS
 62
    7
 10
187.62517980627112
 20
143.77054162927575
 40
0.059781551763818
  0
CIRCLE
  8
_1-1_
  6
CONTINUOUS
 62
    7
 10
188.89115617081927
 20
143.80067979967274
 40
0.059781551763818
  0
CIRCLE
  8
_1-1_
  6
CONTINUOUS
 62
    7
 10
188.28831853093328
 20
142.62514269029774
 40
0.059781551763818
  0
CIRCLE
  8
_1-1_
  6
CONTINUOUS
 62
    7
 10
189.49399381070523
 20
144.40352981154984
 40
0.059781551763818
  0
CIRCLE
  8
_1-1_
  6
CONTINUOUS
 62
    7
 10
190.12696962098818
 20
145.2173593881968
 40
0.059781551763818
  0
CIRCLE
  8
_1-1_
  6
CONTINUOUS
 62
    7
 10
200.79927186708193
 20
146.85507697028083
 40
0.059781551763818
  0
CIRCLE
  8
_1-1_
  6
CONTINUOUS
 62
    7
 10
201.16097939980997
 20
148.06076462204393
 40
0.059781551763818
  0
CIRCLE
  8
_1-1_
  6
CONTINUOUS
 62
    7
 10
201.61310144372891
 20
148.36217106999578
 40
0.059781551763818
  0
CIRCLE
  8
_1-1_
  6
CONTINUOUS
 62
    7
 10
201.43224767736487
 20
147.4880651525549
 40
0.059781551763818
  0
CIRCLE
  8
_1-1_
  6
CONTINUOUS
 62
    7
 10
200.70884498389992
 20
146.46323126715583
 40
0.059781551763818
  0
CIRCLE
  8
_1-1_
  6
CONTINUOUS
 62
    7
 10
200.07585680162586
 20
145.98095868084883
 40
0.059781551763818
  0
CIRCLE
  8
_1-1_
  6
CONTINUOUS
 62
    7
 10
200.98012563344597
 20
145.61925114812078
 40
0.059781551763818
  0
CIRCLE
  8
_1-1_
  6
CONTINUOUS
 62
    7
 10
202.06524823163008
 20
145.95082051045188
 40
0.059781551763818
  0
CIRCLE
  8
_1-1_
  6
CONTINUOUS
 62
    7
 10
201.76381703969597
 20
145.64938931851773
 40
0.059781551763818
  0
CIRCLE
  8
_1-1_
  6
CONTINUOUS
 62
    7
 10
201.13084122941302
 20
147.39762589738177
 40
0.059781551763818
  0
CIRCLE
  8
_1-1_
  6
CONTINUOUS
 62
    7
 10
200.52800358952703
 20
148.57317537874789
 40
0.059781551763818
  0
CIRCLE
  8
_1-1_
  6
CONTINUOUS
 62
    7
 10
200.37728799355997
 20
149.08558613545188
 40
0.059781551763818
  0
CIRCLE
  8
_1-1_
  6
CONTINUOUS
 62
    7
 10
202.84893963788008
 20
149.62814743454393
 40
0.059781551763818
  0
CIRCLE
  8
_1-1_
  6
CONTINUOUS
 62
    7
 10
203.57234233134503
 20
150.11042002085094
 40
0.059781551763818
  0
CIRCLE
  8
_1-1_
  6
CONTINUOUS
 62
    7
 10
202.24608962600297
 20
150.17070873363599
 40
0.059781551763818
  0
CIRCLE
  8
_1-1_
  6
CONTINUOUS
 62
    7
 10
203.78333426810602
 20
149.08558613545188
 40
0.059781551763818
  0
CIRCLE
  8
_1-1_
  6
CONTINUOUS
 62
    7
 10
202.78865092509503
 20
148.39232161238388
 40
0.059781551763818
  0
CIRCLE
  8
_1-1_
  6
CONTINUOUS
 62
    7
 10
202.24608962600297
 20
148.03061407965583
 40
0.059781551763818
  0
CIRCLE
  8
_1-1_
  6
CONTINUOUS
 62
    7
 10
202.66808587151607
 20
147.39762589738177
 40
0.059781551763818
  0
CIRCLE
  8
_1-1_
  6
CONTINUOUS
 62
    7
 10
202.93935414907097
 20
147.00578019425677
 40
0.059781551763818
  0
CIRCLE
  8
_1-1_
  6
CONTINUOUS
 62
    7
 10
203.99433857685813
 20
147.21678450300888
 40
0.059781551763818
  0
CIRCLE
  8
_1-1_
  6
CONTINUOUS
 62
    7
 10
205.62199773015203
 20
148.03061407965583
 40
0.059781551763818
  0
CIRCLE
  8
_1-1_
  6
CONTINUOUS
 62
    7
 10
205.26029019742398
 20
148.30189472920188
 40
0.059781551763818
  0
CIRCLE
  8
_1-1_
  6
CONTINUOUS
 62
    7
 10
204.38618427998313
 20
146.37280438397383
 40
0.059781551763818
  0
CIRCLE
  8
_1-1_
  6
CONTINUOUS
 62
    7
 10
205.16987568623313
 20
146.82492642789273
 40
0.059781551763818
  0
CIRCLE
  8
_1-1_
  6
CONTINUOUS
 62
    7
 10
202.51737027554898
 20
146.13167427681589
 40
0.059781551763818
  0
CIRCLE
  8
_1-1_
  6
CONTINUOUS
 62
    7
 10
201.79395521009292
 20
149.89941571209883
 40
0.059781551763818
  0
CIRCLE
  8
_1-1_
  6
CONTINUOUS
 62
    7
 10
203.09006974503802
 20
149.71857431772594
 40
0.059781551763818
  0
CIRCLE
  8
_1-1_
  6
CONTINUOUS
 62
    7
 10
204.35603373759503
 20
149.74871248812289
 40
0.059781551763818
  0
CIRCLE
  8
_1-1_
  6
CONTINUOUS
 62
    7
 10
203.75319609770904
 20
148.57317537874789
 40
0.059781551763818
  0
CIRCLE
  8
_1-1_
  6
CONTINUOUS
 62
    7
 10
204.95888374947214
 20
150.3515625
 40
0.059781551763818
  0
CIRCLE
  8
_1-1_
  6
CONTINUOUS
 62
    7
 10
205.59185955975508
 20
151.16539207664698
 40
0.059781551763818
  0
CIRCLE
  8
_1-1_
  6
CONTINUOUS
 62
    7
 10
194.85123917863177
 20
143.76210393132391
 40
0.059781551763818
  0
CIRCLE
  8
_1-1_
  6
CONTINUOUS
 62
    7
 10
195.21294671135982
 20
144.96779158308701
 40
0.059781551763818
  0
CIRCLE
  8
_1-1_
  6
CONTINUOUS
 62
    7
 10
195.66506875527872
 20
145.26919803103885
 40
0.059781551763818
  0
CIRCLE
  8
_1-1_
  6
CONTINUOUS
 62
    7
 10
195.48421498891472
 20
144.39509211359797
 40
0.059781551763818
  0
CIRCLE
  8
_1-1_
  6
CONTINUOUS
 62
    7
 10
194.76081229544977
 20
143.37025822819891
 40
0.059781551763818
  0
CIRCLE
  8
_1-1_
  6
CONTINUOUS
 62
    7
 10
194.12782411317568
 20
142.8879856418919
 40
0.059781551763818
  0
CIRCLE
  8
_1-1_
  6
CONTINUOUS
 62
    7
 10
195.03209294499578
 20
142.52627810916385
 40
0.059781551763818
  0
CIRCLE
  8
_1-1_
  6
CONTINUOUS
 62
    7
 10
196.1172155431799
 20
142.85784747149495
 40
0.059781551763818
  0
CIRCLE
  8
_1-1_
  6
CONTINUOUS
 62
    7
 10
195.81578435124578
 20
142.55641627956081
 40
0.059781551763818
  0
CIRCLE
  8
_1-1_
  6
CONTINUOUS
 62
    7
 10
195.18280854096284
 20
144.30465285842484
 40
0.059781551763818
  0
CIRCLE
  8
_1-1_
  6
CONTINUOUS
 62
    7
 10
194.57997090107688
 20
145.48020233979096
 40
0.059781551763818
  0
CIRCLE
  8
_1-1_
  6
CONTINUOUS
 62
    7
 10
194.42925530510982
 20
145.99261309649495
 40
0.059781551763818
  0
CIRCLE
  8
_1-1_
  6
CONTINUOUS
 62
    7
 10
196.9009069494299
 20
146.53517439558701
 40
0.059781551763818
  0
CIRCLE
  8
_1-1_
  6
CONTINUOUS
 62
    7
 10
197.62430964289487
 20
147.01744698189401
 40
0.059781551763818
  0
CIRCLE
  8
_1-1_
  6
CONTINUOUS
 62
    7
 10
196.29805693755279
 20
147.07773569467906
 40
0.059781551763818
  0
CIRCLE
  8
_1-1_
  6
CONTINUOUS
 62
    7
 10
197.83530157965583
 20
145.99261309649495
 40
0.059781551763818
  0
CIRCLE
  8
_1-1_
  6
CONTINUOUS
 62
    7
 10
196.84061823664487
 20
145.29934857342695
 40
0.059781551763818
  0
CIRCLE
  8
_1-1_
  6
CONTINUOUS
 62
    7
 10
196.29805693755279
 20
144.93764104069891
 40
0.059781551763818
  0
CIRCLE
  8
_1-1_
  6
CONTINUOUS
 62
    7
 10
196.72005318306589
 20
144.30465285842484
 40
0.059781551763818
  0
CIRCLE
  8
_1-1_
  6
CONTINUOUS
 62
    7
 10
196.99132146062078
 20
143.91280715529984
 40
0.059781551763818
  0
CIRCLE
  8
_1-1_
  6
CONTINUOUS
 62
    7
 10
198.04630588840794
 20
144.12381146405195
 40
0.059781551763818
  0
CIRCLE
  8
_1-1_
  6
CONTINUOUS
 62
    7
 10
199.67396504170188
 20
144.93764104069891
 40
0.059781551763818
  0
CIRCLE
  8
_1-1_
  6
CONTINUOUS
 62
    7
 10
199.31225750897383
 20
145.20892169024495
 40
0.059781551763818
  0
CIRCLE
  8
_1-1_
  6
CONTINUOUS
 62
    7
 10
198.43815159153294
 20
143.2798313450169
 40
0.059781551763818
  0
CIRCLE
  8
_1-1_
  6
CONTINUOUS
 62
    7
 10
199.22184299778294
 20
143.73195338893581
 40
0.059781551763818
  0
CIRCLE
  8
_1-1_
  6
CONTINUOUS
 62
    7
 10
196.56933758709883
 20
143.03870123785896
 40
0.059781551763818
  0
CIRCLE
  8
_1-1_
  6
CONTINUOUS
 62
    7
 10
195.84592252164273
 20
146.8064426731419
 40
0.059781551763818
  0
CIRCLE
  8
_1-1_
  6
CONTINUOUS
 62
    7
 10
197.14203705658784
 20
146.62560127876901
 40
0.059781551763818
  0
CIRCLE
  8
_1-1_
  6
CONTINUOUS
 62
    7
 10
198.40800104914487
 20
146.65573944916596
 40
0.059781551763818
  0
CIRCLE
  8
_1-1_
  6
CONTINUOUS
 62
    7
 10
197.80516340925888
 20
145.48020233979096
 40
0.059781551763818
  0
CIRCLE
  8
_1-1_
  6
CONTINUOUS
 62
    7
 10
199.01085106102198
 20
147.25858946104307
 40
0.059781551763818
  0
CIRCLE
  8
_1-1_
  6
CONTINUOUS
 62
    7
 10
199.6438268713049
 20
148.07241903769005
 40
0.059781551763818
  0
CIRCLE
  8
_1-1_
  6
CONTINUOUS
 62
    7
 10
205.31974998680323
 20
149.94805000923776
 40
0.059781551763818
  0
CIRCLE
  8
_1-1_
  6
CONTINUOUS
 62
    7
 10
205.68145751953125
 20
151.15373766100086
 40
0.059781551763818
  0
CIRCLE
  8
_1-1_
  6
CONTINUOUS
 62
    7
 10
206.13357956345018
 20
151.45514410895271
 40
0.059781551763818
  0
CIRCLE
  8
_1-1_
  6
CONTINUOUS
 62
    7
 10
205.95272579708617
 20
150.58103819151182
 40
0.059781551763818
  0
CIRCLE
  8
_1-1_
  6
CONTINUOUS
 62
    7
 10
205.2293231036212
 20
149.55620430611276
 40
0.059781551763818
  0
CIRCLE
  8
_1-1_
  6
CONTINUOUS
 62
    7
 10
204.59633492134714
 20
149.07393171980576
 40
0.059781551763818
  0
CIRCLE
  8
_1-1_
  6
CONTINUOUS
 62
    7
 10
205.50060375316724
 20
148.71222418707771
 40
0.059781551763818
  0
CIRCLE
  8
_1-1_
  6
CONTINUOUS
 62
    7
 10
206.58572635135135
 20
149.0437935494088
 40
0.059781551763818
  0
CIRCLE
  8
_1-1_
  6
CONTINUOUS
 62
    7
 10
206.28429515941724
 20
148.74236235747466
 40
0.059781551763818
  0
CIRCLE
  8
_1-1_
  6
CONTINUOUS
 62
    7
 10
205.6513193491343
 20
150.4905989363387
 40
0.059781551763818
  0
CIRCLE
  8
_1-1_
  6
CONTINUOUS
 62
    7
 10
205.04848170924834
 20
151.66614841770482
 40
0.059781551763818
  0
CIRCLE
  8
_1-1_
  6
CONTINUOUS
 62
    7
 10
204.89776611328125
 20
152.1785591744088
 40
0.059781551763818
  0
CIRCLE
  8
_1-1_
  6
CONTINUOUS
 62
    7
 10
207.36941775760135
 20
152.72112047350086
 40
0.059781551763818
  0
CIRCLE
  8
_1-1_
  6
CONTINUOUS
 62
    7
 10
208.09283282305745
 20
153.20339305980787
 40
0.059781551763818
  0
CIRCLE
  8
_1-1_
  6
CONTINUOUS
 62
    7
 10
206.76656774572425
 20
153.26368177259292
 40
0.059781551763818
  0
CIRCLE
  8
_1-1_
  6
CONTINUOUS
 62
    7
 10
208.30380001583617
 20
152.1785591744088
 40
0.059781551763818
  0
CIRCLE
  8
_1-1_
  6
CONTINUOUS
 62
    7
 10
207.3091290448163
 20
151.48529465134081
 40
0.059781551763818
  0
CIRCLE
  8
_1-1_
  6
CONTINUOUS
 62
    7
 10
206.76656774572425
 20
151.12358711861276
 40
0.059781551763818
  0
CIRCLE
  8
_1-1_
  6
CONTINUOUS
 62
    7
 10
207.18856399123734
 20
150.4905989363387
 40
0.059781551763818
  0
CIRCLE
  8
_1-1_
  6
CONTINUOUS
 62
    7
 10
207.45983226879224
 20
150.0987532332137
 40
0.059781551763818
  0
CIRCLE
  8
_1-1_
  6
CONTINUOUS
 62
    7
 10
208.5148166965794
 20
150.30975754196581
 40
0.059781551763818
  0
CIRCLE
  8
_1-1_
  6
CONTINUOUS
 62
    7
 10
210.14247584987334
 20
151.12358711861276
 40
0.059781551763818
  0
CIRCLE
  8
_1-1_
  6
CONTINUOUS
 62
    7
 10
209.78076831714529
 20
151.3948677681588
 40
0.059781551763818
  0
CIRCLE
  8
_1-1_
  6
CONTINUOUS
 62
    7
 10
208.9066623997044
 20
149.46577742293076
 40
0.059781551763818
  0
CIRCLE
  8
_1-1_
  6
CONTINUOUS
 62
    7
 10
209.6903538059544
 20
149.91789946684966
 40
0.059781551763818
  0
CIRCLE
  8
_1-1_
  6
CONTINUOUS
 62
    7
 10
207.03784839527029
 20
149.22464731577281
 40
0.059781551763818
  0
CIRCLE
  8
_1-1_
  6
CONTINUOUS
 62
    7
 10
206.31443332981419
 20
152.99238875105576
 40
0.059781551763818
  0
CIRCLE
  8
_1-1_
  6
CONTINUOUS
 62
    7
 10
207.6105478647593
 20
152.81154735668287
 40
0.059781551763818
  0
CIRCLE
  8
_1-1_
  6
CONTINUOUS
 62
    7
 10
208.87652422930745
 20
152.84168552707982
 40
0.059781551763818
  0
CIRCLE
  8
_1-1_
  6
CONTINUOUS
 62
    7
 10
208.27366184543919
 20
151.66614841770482
 40
0.059781551763818
  0
CIRCLE
  8
_1-1_
  6
CONTINUOUS
 62
    7
 10
209.47936186919341
 20
153.44453553895693
 40
0.059781551763818
  0
CIRCLE
  8
_1-1_
  6
CONTINUOUS
 62
    7
 10
210.11233767947635
 20
154.25836511560388
 40
0.059781551763818
  0
CIRCLE
  8
_1-1_
  6
CONTINUOUS
 62
    7
 10
220.0708750131968
 20
156.60984761006125
 40
0.059781551763818
  0
CIRCLE
  8
_1-1_
  6
CONTINUOUS
 62
    7
 10
220.43258254592484
 20
157.81553526182432
 40
0.059781551763818
  0
CIRCLE
  8
_1-1_
  6
CONTINUOUS
 62
    7
 10
220.88470458984375
 20
158.1169417097762
 40
0.059781551763818
  0
CIRCLE
  8
_1-1_
  6
CONTINUOUS
 62
    7
 10
220.70385082347974
 20
157.24283579233531
 40
0.059781551763818
  0
CIRCLE
  8
_1-1_
  6
CONTINUOUS
 62
    7
 10
219.98043575802367
 20
156.21800190693625
 40
0.059781551763818
  0
CIRCLE
  8
_1-1_
  6
CONTINUOUS
 62
    7
 10
219.34745994774073
 20
155.73572932062922
 40
0.059781551763818
  0
CIRCLE
  8
_1-1_
  6
CONTINUOUS
 62
    7
 10
220.25172877956084
 20
155.3740217879012
 40
0.059781551763818
  0
CIRCLE
  8
_1-1_
  6
CONTINUOUS
 62
    7
 10
221.33685137774495
 20
155.70559115023227
 40
0.059781551763818
  0
CIRCLE
  8
_1-1_
  6
CONTINUOUS
 62
    7
 10
221.03542018581084
 20
155.40415995829815
 40
0.059781551763818
  0
CIRCLE
  8
_1-1_
  6
CONTINUOUS
 62
    7
 10
220.40244437552789
 20
157.15239653716216
 40
0.059781551763818
  0
CIRCLE
  8
_1-1_
  6
CONTINUOUS
 62
    7
 10
219.7996067356419
 20
158.32794601852831
 40
0.059781551763818
  0
CIRCLE
  8
_1-1_
  6
CONTINUOUS
 62
    7
 10
219.64889113967484
 20
158.84035677523227
 40
0.059781551763818
  0
CIRCLE
  8
_1-1_
  6
CONTINUOUS
 62
    7
 10
222.12054278399495
 20
159.38291807432432
 40
0.059781551763818
  0
CIRCLE
  8
_1-1_
  6
CONTINUOUS
 62
    7
 10
222.84395784945102
 20
159.86519066063136
 40
0.059781551763818
  0
CIRCLE
  8
_1-1_
  6
CONTINUOUS
 62
    7
 10
221.51768040012669
 20
159.92547937341641
 40
0.059781551763818
  0
CIRCLE
  8
_1-1_
  6
CONTINUOUS
 62
    7
 10
223.05492504222974
 20
158.84035677523227
 40
0.059781551763818
  0
CIRCLE
  8
_1-1_
  6
CONTINUOUS
 62
    7
 10
222.06026644320102
 20
158.14709225216427
 40
0.059781551763818
  0
CIRCLE
  8
_1-1_
  6
CONTINUOUS
 62
    7
 10
221.51768040012669
 20
157.78538471943625
 40
0.059781551763818
  0
CIRCLE
  8
_1-1_
  6
CONTINUOUS
 62
    7
 10
221.93968901763091
 20
157.15239653716216
 40
0.059781551763818
  0
CIRCLE
  8
_1-1_
  6
CONTINUOUS
 62
    7
 10
222.21095729518584
 20
156.76055083403716
 40
0.059781551763818
  0
CIRCLE
  8
_1-1_
  6
CONTINUOUS
 62
    7
 10
223.265941722973
 20
156.97155514278927
 40
0.059781551763818
  0
CIRCLE
  8
_1-1_
  6
CONTINUOUS
 62
    7
 10
224.8936008762669
 20
157.78538471943625
 40
0.059781551763818
  0
CIRCLE
  8
_1-1_
  6
CONTINUOUS
 62
    7
 10
224.53189334353885
 20
158.05666536898227
 40
0.059781551763818
  0
CIRCLE
  8
_1-1_
  6
CONTINUOUS
 62
    7
 10
223.657787426098
 20
156.12757502375422
 40
0.059781551763818
  0
CIRCLE
  8
_1-1_
  6
CONTINUOUS
 62
    7
 10
224.441478832348
 20
156.57969706767315
 40
0.059781551763818
  0
CIRCLE
  8
_1-1_
  6
CONTINUOUS
 62
    7
 10
221.78897342166385
 20
155.8864449165963
 40
0.059781551763818
  0
CIRCLE
  8
_1-1_
  6
CONTINUOUS
 62
    7
 10
221.06555835620779
 20
159.65418635187922
 40
0.059781551763818
  0
CIRCLE
  8
_1-1_
  6
CONTINUOUS
 62
    7
 10
222.36167289115289
 20
159.47334495750636
 40
0.059781551763818
  0
CIRCLE
  8
_1-1_
  6
CONTINUOUS
 62
    7
 10
223.62764925570102
 20
159.50348312790331
 40
0.059781551763818
  0
CIRCLE
  8
_1-1_
  6
CONTINUOUS
 62
    7
 10
223.02478687183279
 20
158.32794601852831
 40
0.059781551763818
  0
CIRCLE
  8
_1-1_
  6
CONTINUOUS
 62
    7
 10
224.23048689558701
 20
160.10633313978042
 40
0.059781551763818
  0
CIRCLE
  8
_1-1_
  6
CONTINUOUS
 62
    7
 10
224.86346270586995
 20
160.92016271642737
 40
0.059781551763818
  0
CIRCLE
  8
_1-1_
  6
CONTINUOUS
 62
    7
 10
216.02622367240289
 20
153.99272609401393
 40
0.059781551763818
  0
CIRCLE
  8
_1-1_
  6
CONTINUOUS
 62
    7
 10
216.38793120513091
 20
155.19841374577703
 40
0.059781551763818
  0
CIRCLE
  8
_1-1_
  6
CONTINUOUS
 62
    7
 10
216.84005324904984
 20
155.49982019372888
 40
0.059781551763818
  0
CIRCLE
  8
_1-1_
  6
CONTINUOUS
 62
    7
 10
216.65919948268584
 20
154.62571427628802
 40
0.059781551763818
  0
CIRCLE
  8
_1-1_
  6
CONTINUOUS
 62
    7
 10
215.93578441722974
 20
153.60088039088893
 40
0.059781551763818
  0
CIRCLE
  8
_1-1_
  6
CONTINUOUS
 62
    7
 10
215.3028086069468
 20
153.11860780458193
 40
0.059781551763818
  0
CIRCLE
  8
_1-1_
  6
CONTINUOUS
 62
    7
 10
216.2070774387669
 20
152.75690027185388
 40
0.059781551763818
  0
CIRCLE
  8
_1-1_
  6
CONTINUOUS
 62
    7
 10
217.29220003695102
 20
153.08846963418497
 40
0.059781551763818
  0
CIRCLE
  8
_1-1_
  6
CONTINUOUS
 62
    7
 10
216.9907688450169
 20
152.78703844225086
 40
0.059781551763818
  0
CIRCLE
  8
_1-1_
  6
CONTINUOUS
 62
    7
 10
216.35779303473396
 20
154.53527502111487
 40
0.059781551763818
  0
CIRCLE
  8
_1-1_
  6
CONTINUOUS
 62
    7
 10
215.754955394848
 20
155.71082450248102
 40
0.059781551763818
  0
CIRCLE
  8
_1-1_
  6
CONTINUOUS
 62
    7
 10
215.60423979888091
 20
156.22323525918497
 40
0.059781551763818
  0
CIRCLE
  8
_1-1_
  6
CONTINUOUS
 62
    7
 10
218.07589144320102
 20
156.76579655827703
 40
0.059781551763818
  0
CIRCLE
  8
_1-1_
  6
CONTINUOUS
 62
    7
 10
218.79930650865711
 20
157.24806914458404
 40
0.059781551763818
  0
CIRCLE
  8
_1-1_
  6
CONTINUOUS
 62
    7
 10
217.47302905933279
 20
157.30835785736909
 40
0.059781551763818
  0
CIRCLE
  8
_1-1_
  6
CONTINUOUS
 62
    7
 10
219.01027370143584
 20
156.22323525918497
 40
0.059781551763818
  0
CIRCLE
  8
_1-1_
  6
CONTINUOUS
 62
    7
 10
218.01561510240711
 20
155.52997073611698
 40
0.059781551763818
  0
CIRCLE
  8
_1-1_
  6
CONTINUOUS
 62
    7
 10
217.47302905933279
 20
155.16826320338893
 40
0.059781551763818
  0
CIRCLE
  8
_1-1_
  6
CONTINUOUS
 62
    7
 10
217.89503767683701
 20
154.53527502111487
 40
0.059781551763818
  0
CIRCLE
  8
_1-1_
  6
CONTINUOUS
 62
    7
 10
218.1663059543919
 20
154.14342931798987
 40
0.059781551763818
  0
CIRCLE
  8
_1-1_
  6
CONTINUOUS
 62
    7
 10
219.22129038217906
 20
154.35443362674198
 40
0.059781551763818
  0
CIRCLE
  8
_1-1_
  6
CONTINUOUS
 62
    7
 10
220.848949535473
 20
155.16826320338893
 40
0.059781551763818
  0
CIRCLE
  8
_1-1_
  6
CONTINUOUS
 62
    7
 10
220.48724200274495
 20
155.43954385293497
 40
0.059781551763818
  0
CIRCLE
  8
_1-1_
  6
CONTINUOUS
 62
    7
 10
219.61313608530406
 20
153.51045350770693
 40
0.059781551763818
  0
CIRCLE
  8
_1-1_
  6
CONTINUOUS
 62
    7
 10
220.39682749155406
 20
153.96257555162586
 40
0.059781551763818
  0
CIRCLE
  8
_1-1_
  6
CONTINUOUS
 62
    7
 10
217.74432208086995
 20
153.26932340054898
 40
0.059781551763818
  0
CIRCLE
  8
_1-1_
  6
CONTINUOUS
 62
    7
 10
217.02090701541385
 20
157.03706483583193
 40
0.059781551763818
  0
CIRCLE
  8
_1-1_
  6
CONTINUOUS
 62
    7
 10
218.31702155035896
 20
156.85622344145904
 40
0.059781551763818
  0
CIRCLE
  8
_1-1_
  6
CONTINUOUS
 62
    7
 10
219.58299791490711
 20
156.88636161185602
 40
0.059781551763818
  0
CIRCLE
  8
_1-1_
  6
CONTINUOUS
 62
    7
 10
218.98013553103885
 20
155.71082450248102
 40
0.059781551763818
  0
CIRCLE
  8
_1-1_
  6
CONTINUOUS
 62
    7
 10
220.18583555479307
 20
157.48921162373313
 40
0.059781551763818
  0
CIRCLE
  8
_1-1_
  6
CONTINUOUS
 62
    7
 10
220.81881136507602
 20
158.30304120038008
 40
0.059781551763818
  0
CIRCLE
  8
_1-1_
  6
CONTINUOUS
 62
    7
 10
208.65066115920609
 20
151.1376664445207
 40
0.059781551763818
  0
CIRCLE
  8
_1-1_
  6
CONTINUOUS
 62
    7
 10
209.01236869193414
 20
152.3433540962838
 40
0.059781551763818
  0
CIRCLE
  8
_1-1_
  6
CONTINUOUS
 62
    7
 10
209.46449073585305
 20
152.64476054423565
 40
0.059781551763818
  0
CIRCLE
  8
_1-1_
  6
CONTINUOUS
 62
    7
 10
209.28363696948904
 20
151.77065462679477
 40
0.059781551763818
  0
CIRCLE
  8
_1-1_
  6
CONTINUOUS
 62
    7
 10
208.56024664801521
 20
150.7458207413957
 40
0.059781551763818
  0
CIRCLE
  8
_1-1_
  6
CONTINUOUS
 62
    7
 10
207.92724609375
 20
150.2635481550887
 40
0.059781551763818
  0
CIRCLE
  8
_1-1_
  6
CONTINUOUS
 62
    7
 10
208.8315149255701
 20
149.90184062236065
 40
0.059781551763818
  0
CIRCLE
  8
_1-1_
  6
CONTINUOUS
 62
    7
 10
209.91663752375425
 20
150.23340998469172
 40
0.059781551763818
  0
CIRCLE
  8
_1-1_
  6
CONTINUOUS
 62
    7
 10
209.6152063318201
 20
149.9319787927576
 40
0.059781551763818
  0
CIRCLE
  8
_1-1_
  6
CONTINUOUS
 62
    7
 10
208.98223052153716
 20
151.68021537162164
 40
0.059781551763818
  0
CIRCLE
  8
_1-1_
  6
CONTINUOUS
 62
    7
 10
208.3793928816512
 20
152.85576485298776
 40
0.059781551763818
  0
CIRCLE
  8
_1-1_
  6
CONTINUOUS
 62
    7
 10
208.22867728568414
 20
153.36817560969172
 40
0.059781551763818
  0
CIRCLE
  8
_1-1_
  6
CONTINUOUS
 62
    7
 10
210.70032893000425
 20
153.9107369087838
 40
0.059781551763818
  0
CIRCLE
  8
_1-1_
  6
CONTINUOUS
 62
    7
 10
211.42371925147805
 20
154.39300949509081
 40
0.059781551763818
  0
CIRCLE
  8
_1-1_
  6
CONTINUOUS
 62
    7
 10
210.09749129011826
 20
154.45329820787586
 40
0.059781551763818
  0
CIRCLE
  8
_1-1_
  6
CONTINUOUS
 62
    7
 10
211.6347359322213
 20
153.36817560969172
 40
0.059781551763818
  0
CIRCLE
  8
_1-1_
  6
CONTINUOUS
 62
    7
 10
210.64002784522805
 20
152.67491108662375
 40
0.059781551763818
  0
CIRCLE
  8
_1-1_
  6
CONTINUOUS
 62
    7
 10
210.09749129011826
 20
152.3132035538957
 40
0.059781551763818
  0
CIRCLE
  8
_1-1_
  6
CONTINUOUS
 62
    7
 10
210.51947516364021
 20
151.68021537162164
 40
0.059781551763818
  0
CIRCLE
  8
_1-1_
  6
CONTINUOUS
 62
    7
 10
210.7907434411951
 20
151.28836966849664
 40
0.059781551763818
  0
CIRCLE
  8
_1-1_
  6
CONTINUOUS
 62
    7
 10
211.84572786898227
 20
151.49937397724875
 40
0.059781551763818
  0
CIRCLE
  8
_1-1_
  6
CONTINUOUS
 62
    7
 10
213.4733870222762
 20
152.3132035538957
 40
0.059781551763818
  0
CIRCLE
  8
_1-1_
  6
CONTINUOUS
 62
    7
 10
213.11167948954815
 20
152.58448420344172
 40
0.059781551763818
  0
CIRCLE
  8
_1-1_
  6
CONTINUOUS
 62
    7
 10
212.23757357210727
 20
150.6553938582137
 40
0.059781551763818
  0
CIRCLE
  8
_1-1_
  6
CONTINUOUS
 62
    7
 10
213.02126497835727
 20
151.1075159021326
 40
0.059781551763818
  0
CIRCLE
  8
_1-1_
  6
CONTINUOUS
 62
    7
 10
210.36875956767315
 20
150.41426375105576
 40
0.059781551763818
  0
CIRCLE
  8
_1-1_
  6
CONTINUOUS
 62
    7
 10
209.64534450221709
 20
154.1820051863387
 40
0.059781551763818
  0
CIRCLE
  8
_1-1_
  6
CONTINUOUS
 62
    7
 10
210.94145903716216
 20
154.00116379196581
 40
0.059781551763818
  0
CIRCLE
  8
_1-1_
  6
CONTINUOUS
 62
    7
 10
212.20741065772805
 20
154.03130196236276
 40
0.059781551763818
  0
CIRCLE
  8
_1-1_
  6
CONTINUOUS
 62
    7
 10
211.60459776182432
 20
152.85576485298776
 40
0.059781551763818
  0
CIRCLE
  8
_1-1_
  6
CONTINUOUS
 62
    7
 10
212.8102730415963
 20
154.63415197423987
 40
0.059781551763818
  0
CIRCLE
  8
_1-1_
  6
CONTINUOUS
 62
    7
 10
213.44324885187925
 20
155.44798155088682
 40
0.059781551763818
  0
CIRCLE
  8
_1-1_
  6
CONTINUOUS
 62
    7
 10
211.98157233160896
 20
152.56519626926732
 40
0.059781551763818
  0
CIRCLE
  8
_1-1_
  6
CONTINUOUS
 62
    7
 10
212.34327986433701
 20
153.77088392103042
 40
0.059781551763818
  0
CIRCLE
  8
_1-1_
  6
CONTINUOUS
 62
    7
 10
212.79540190825591
 20
154.07229036898227
 40
0.059781551763818
  0
CIRCLE
  8
_1-1_
  6
CONTINUOUS
 62
    7
 10
212.6145481418919
 20
153.19818445154138
 40
0.059781551763818
  0
CIRCLE
  8
_1-1_
  6
CONTINUOUS
 62
    7
 10
211.89113307643584
 20
152.17335056614232
 40
0.059781551763818
  0
CIRCLE
  8
_1-1_
  6
CONTINUOUS
 62
    7
 10
211.25815726615289
 20
151.69107797983531
 40
0.059781551763818
  0
CIRCLE
  8
_1-1_
  6
CONTINUOUS
 62
    7
 10
212.162426097973
 20
151.32937044710727
 40
0.059781551763818
  0
CIRCLE
  8
_1-1_
  6
CONTINUOUS
 62
    7
 10
213.24754869615711
 20
151.66093980943836
 40
0.059781551763818
  0
CIRCLE
  8
_1-1_
  6
CONTINUOUS
 62
    7
 10
212.946117504223
 20
151.35950861750422
 40
0.059781551763818
  0
CIRCLE
  8
_1-1_
  6
CONTINUOUS
 62
    7
 10
212.31314169394005
 20
153.10774519636826
 40
0.059781551763818
  0
CIRCLE
  8
_1-1_
  6
CONTINUOUS
 62
    7
 10
211.71030405405406
 20
154.28329467773437
 40
0.059781551763818
  0
CIRCLE
  8
_1-1_
  6
CONTINUOUS
 62
    7
 10
211.55958845808701
 20
154.79570543443836
 40
0.059781551763818
  0
CIRCLE
  8
_1-1_
  6
CONTINUOUS
 62
    7
 10
214.03124010240711
 20
155.33826673353042
 40
0.059781551763818
  0
CIRCLE
  8
_1-1_
  6
CONTINUOUS
 62
    7
 10
214.75465516786318
 20
155.82053931983742
 40
0.059781551763818
  0
CIRCLE
  8
_1-1_
  6
CONTINUOUS
 62
    7
 10
213.42837771853885
 20
155.88082803262247
 40
0.059781551763818
  0
CIRCLE
  8
_1-1_
  6
CONTINUOUS
 62
    7
 10
214.9656223606419
 20
154.79570543443836
 40
0.059781551763818
  0
CIRCLE
  8
_1-1_
  6
CONTINUOUS
 62
    7
 10
213.97096376161318
 20
154.10244091137037
 40
0.059781551763818
  0
CIRCLE
  8
_1-1_
  6
CONTINUOUS
 62
    7
 10
213.42837771853885
 20
153.74073337864232
 40
0.059781551763818
  0
CIRCLE
  8
_1-1_
  6
CONTINUOUS
 62
    7
 10
213.85038633604307
 20
153.10774519636826
 40
0.059781551763818
  0
CIRCLE
  8
_1-1_
  6
CONTINUOUS
 62
    7
 10
214.121654613598
 20
152.71589949324326
 40
0.059781551763818
  0
CIRCLE
  8
_1-1_
  6
CONTINUOUS
 62
    7
 10
215.17663904138516
 20
152.92690380199537
 40
0.059781551763818
  0
CIRCLE
  8
_1-1_
  6
CONTINUOUS
 62
    7
 10
216.80429819467906
 20
153.74073337864232
 40
0.059781551763818
  0
CIRCLE
  8
_1-1_
  6
CONTINUOUS
 62
    7
 10
216.44259066195102
 20
154.01201402818836
 40
0.059781551763818
  0
CIRCLE
  8
_1-1_
  6
CONTINUOUS
 62
    7
 10
215.56848474451016
 20
152.08292368296031
 40
0.059781551763818
  0
CIRCLE
  8
_1-1_
  6
CONTINUOUS
 62
    7
 10
216.35217615076016
 20
152.53504572687922
 40
0.059781551763818
  0
CIRCLE
  8
_1-1_
  6
CONTINUOUS
 62
    7
 10
213.69967074007602
 20
151.84179357580237
 40
0.059781551763818
  0
CIRCLE
  8
_1-1_
  6
CONTINUOUS
 62
    7
 10
212.97625567461995
 20
155.60953501108531
 40
0.059781551763818
  0
CIRCLE
  8
_1-1_
  6
CONTINUOUS
 62
    7
 10
214.27237020956505
 20
155.42869361671242
 40
0.059781551763818
  0
CIRCLE
  8
_1-1_
  6
CONTINUOUS
 62
    7
 10
215.53834657411318
 20
155.45883178710937
 40
0.059781551763818
  0
CIRCLE
  8
_1-1_
  6
CONTINUOUS
 62
    7
 10
214.93548419024495
 20
154.28329467773437
 40
0.059781551763818
  0
CIRCLE
  8
_1-1_
  6
CONTINUOUS
 62
    7
 10
216.14118421399917
 20
156.06168179898648
 40
0.059781551763818
  0
CIRCLE
  8
_1-1_
  6
CONTINUOUS
 62
    7
 10
216.77416002428211
 20
156.87551137563347
 40
0.059781551763818
  0
CIRCLE
  8
_1-1_
  6
CONTINUOUS
 62
    7
 10
227.20852413692992
 20
158.03737743480787
 40
0.059781551763818
  0
CIRCLE
  8
_1-1_
  6
CONTINUOUS
 62
    7
 10
227.57023166965794
 20
159.24306508657097
 40
0.059781551763818
  0
CIRCLE
  8
_1-1_
  6
CONTINUOUS
 62
    7
 10
228.02235371357688
 20
159.54447153452281
 40
0.059781551763818
  0
CIRCLE
  8
_1-1_
  6
CONTINUOUS
 62
    7
 10
227.84149994721284
 20
158.67036561708193
 40
0.059781551763818
  0
CIRCLE
  8
_1-1_
  6
CONTINUOUS
 62
    7
 10
227.11808488175677
 20
157.64553173168287
 40
0.059781551763818
  0
CIRCLE
  8
_1-1_
  6
CONTINUOUS
 62
    7
 10
226.48510907147383
 20
157.16325914537586
 40
0.059781551763818
  0
CIRCLE
  8
_1-1_
  6
CONTINUOUS
 62
    7
 10
227.38937790329393
 20
156.80155161264781
 40
0.059781551763818
  0
CIRCLE
  8
_1-1_
  6
CONTINUOUS
 62
    7
 10
228.47450050147805
 20
157.13312097497888
 40
0.059781551763818
  0
CIRCLE
  8
_1-1_
  6
CONTINUOUS
 62
    7
 10
228.17306930954393
 20
156.83168978304477
 40
0.059781551763818
  0
CIRCLE
  8
_1-1_
  6
CONTINUOUS
 62
    7
 10
227.54009349926099
 20
158.5799263619088
 40
0.059781551763818
  0
CIRCLE
  8
_1-1_
  6
CONTINUOUS
 62
    7
 10
226.937255859375
 20
159.75547584327492
 40
0.059781551763818
  0
CIRCLE
  8
_1-1_
  6
CONTINUOUS
 62
    7
 10
226.78654026340794
 20
160.26788659997891
 40
0.059781551763818
  0
CIRCLE
  8
_1-1_
  6
CONTINUOUS
 62
    7
 10
229.25819190772805
 20
160.81044789907097
 40
0.059781551763818
  0
CIRCLE
  8
_1-1_
  6
CONTINUOUS
 62
    7
 10
229.98160697318414
 20
161.29272048537797
 40
0.059781551763818
  0
CIRCLE
  8
_1-1_
  6
CONTINUOUS
 62
    7
 10
228.65532952385982
 20
161.35300919816302
 40
0.059781551763818
  0
CIRCLE
  8
_1-1_
  6
CONTINUOUS
 62
    7
 10
230.19257416596284
 20
160.26788659997891
 40
0.059781551763818
  0
CIRCLE
  8
_1-1_
  6
CONTINUOUS
 62
    7
 10
229.19791556693414
 20
159.57462207691091
 40
0.059781551763818
  0
CIRCLE
  8
_1-1_
  6
CONTINUOUS
 62
    7
 10
228.65532952385982
 20
159.21291454418287
 40
0.059781551763818
  0
CIRCLE
  8
_1-1_
  6
CONTINUOUS
 62
    7
 10
229.07733814136404
 20
158.5799263619088
 40
0.059781551763818
  0
CIRCLE
  8
_1-1_
  6
CONTINUOUS
 62
    7
 10
229.34860641891893
 20
158.1880806587838
 40
0.059781551763818
  0
CIRCLE
  8
_1-1_
  6
CONTINUOUS
 62
    7
 10
230.40359084670609
 20
158.39908496753591
 40
0.059781551763818
  0
CIRCLE
  8
_1-1_
  6
CONTINUOUS
 62
    7
 10
232.03125
 20
159.21291454418287
 40
0.059781551763818
  0
CIRCLE
  8
_1-1_
  6
CONTINUOUS
 62
    7
 10
231.66954246727198
 20
159.48419519372891
 40
0.059781551763818
  0
CIRCLE
  8
_1-1_
  6
CONTINUOUS
 62
    7
 10
230.79543654983109
 20
157.55510484850086
 40
0.059781551763818
  0
CIRCLE
  8
_1-1_
  6
CONTINUOUS
 62
    7
 10
231.57912795608109
 20
158.00722689241977
 40
0.059781551763818
  0
CIRCLE
  8
_1-1_
  6
CONTINUOUS
 62
    7
 10
228.92662254539698
 20
157.31397474134292
 40
0.059781551763818
  0
CIRCLE
  8
_1-1_
  6
CONTINUOUS
 62
    7
 10
228.20320747994089
 20
161.08171617662586
 40
0.059781551763818
  0
CIRCLE
  8
_1-1_
  6
CONTINUOUS
 62
    7
 10
229.49932201488599
 20
160.90087478225297
 40
0.059781551763818
  0
CIRCLE
  8
_1-1_
  6
CONTINUOUS
 62
    7
 10
230.76529837943414
 20
160.93101295264992
 40
0.059781551763818
  0
CIRCLE
  8
_1-1_
  6
CONTINUOUS
 62
    7
 10
230.16243599556589
 20
159.75547584327492
 40
0.059781551763818
  0
CIRCLE
  8
_1-1_
  6
CONTINUOUS
 62
    7
 10
231.3681360193201
 20
161.53386296452703
 40
0.059781551763818
  0
CIRCLE
  8
_1-1_
  6
CONTINUOUS
 62
    7
 10
232.00111182960305
 20
162.34769254117398
 40
0.059781551763818
  0
CIRCLE
  8
_1-1_
  6
CONTINUOUS
 62
    7
 10
232.91864343591641
 20
162.79580605996622
 40
0.059781551763818
  0
CIRCLE
  8
_1-1_
  6
CONTINUOUS
 62
    7
 10
233.28035096864443
 20
164.00148133973818
 40
0.059781551763818
  0
CIRCLE
  8
_1-1_
  6
CONTINUOUS
 62
    7
 10
233.73247301256336
 20
164.30291253167232
 40
0.059781551763818
  0
CIRCLE
  8
_1-1_
  6
CONTINUOUS
 62
    7
 10
233.55161924619935
 20
163.42878187024917
 40
0.059781551763818
  0
CIRCLE
  8
_1-1_
  6
CONTINUOUS
 62
    7
 10
232.82820418074326
 20
162.40396035684122
 40
0.059781551763818
  0
CIRCLE
  8
_1-1_
  6
CONTINUOUS
 62
    7
 10
232.19522837046031
 20
161.92168777053422
 40
0.059781551763818
  0
CIRCLE
  8
_1-1_
  6
CONTINUOUS
 62
    7
 10
233.09949720228042
 20
161.55998023780617
 40
0.059781551763818
  0
CIRCLE
  8
_1-1_
  6
CONTINUOUS
 62
    7
 10
234.18461980046453
 20
161.89153722814612
 40
0.059781551763818
  0
CIRCLE
  8
_1-1_
  6
CONTINUOUS
 62
    7
 10
233.88318860853042
 20
161.59013078019427
 40
0.059781551763818
  0
CIRCLE
  8
_1-1_
  6
CONTINUOUS
 62
    7
 10
233.25021279824747
 20
163.33836735905828
 40
0.059781551763818
  0
CIRCLE
  8
_1-1_
  6
CONTINUOUS
 62
    7
 10
232.64737515836151
 20
164.51390446843328
 40
0.059781551763818
  0
CIRCLE
  8
_1-1_
  6
CONTINUOUS
 62
    7
 10
232.49665956239443
 20
165.02631522513727
 40
0.059781551763818
  0
CIRCLE
  8
_1-1_
  6
CONTINUOUS
 62
    7
 10
234.96831120671453
 20
165.56887652422932
 40
0.059781551763818
  0
CIRCLE
  8
_1-1_
  6
CONTINUOUS
 62
    7
 10
235.69172627217063
 20
166.05114911053633
 40
0.059781551763818
  0
CIRCLE
  8
_1-1_
  6
CONTINUOUS
 62
    7
 10
234.3654488228463
 20
166.11142545133023
 40
0.059781551763818
  0
CIRCLE
  8
_1-1_
  6
CONTINUOUS
 62
    7
 10
235.90269346494935
 20
165.02631522513727
 40
0.059781551763818
  0
CIRCLE
  8
_1-1_
  6
CONTINUOUS
 62
    7
 10
234.90803486592063
 20
164.33305070206927
 40
0.059781551763818
  0
CIRCLE
  8
_1-1_
  6
CONTINUOUS
 62
    7
 10
234.3654488228463
 20
163.97134316934122
 40
0.059781551763818
  0
CIRCLE
  8
_1-1_
  6
CONTINUOUS
 62
    7
 10
234.78745744035052
 20
163.33836735905828
 40
0.059781551763818
  0
CIRCLE
  8
_1-1_
  6
CONTINUOUS
 62
    7
 10
235.05872571790542
 20
162.94652165593328
 40
0.059781551763818
  0
CIRCLE
  8
_1-1_
  6
CONTINUOUS
 62
    7
 10
236.11371014569258
 20
163.15751359269427
 40
0.059781551763818
  0
CIRCLE
  8
_1-1_
  6
CONTINUOUS
 62
    7
 10
237.74136929898651
 20
163.97134316934122
 40
0.059781551763818
  0
CIRCLE
  8
_1-1_
  6
CONTINUOUS
 62
    7
 10
237.37966176625847
 20
164.24262381888727
 40
0.059781551763818
  0
CIRCLE
  8
_1-1_
  6
CONTINUOUS
 62
    7
 10
236.50555584881758
 20
162.31353347365922
 40
0.059781551763818
  0
CIRCLE
  8
_1-1_
  6
CONTINUOUS
 62
    7
 10
237.28924725506758
 20
162.76566788956927
 40
0.059781551763818
  0
CIRCLE
  8
_1-1_
  6
CONTINUOUS
 62
    7
 10
234.63674184438347
 20
162.07239099451016
 40
0.059781551763818
  0
CIRCLE
  8
_1-1_
  6
CONTINUOUS
 62
    7
 10
233.91332677892737
 20
165.84015717377534
 40
0.059781551763818
  0
CIRCLE
  8
_1-1_
  6
CONTINUOUS
 62
    7
 10
235.20944131387247
 20
165.65930340741133
 40
0.059781551763818
  0
CIRCLE
  8
_1-1_
  6
CONTINUOUS
 62
    7
 10
236.47541767842063
 20
165.68944157780828
 40
0.059781551763818
  0
CIRCLE
  8
_1-1_
  6
CONTINUOUS
 62
    7
 10
235.87255529455237
 20
164.51390446843328
 40
0.059781551763818
  0
CIRCLE
  8
_1-1_
  6
CONTINUOUS
 62
    7
 10
237.07825531830659
 20
166.29227921769427
 40
0.059781551763818
  0
CIRCLE
  8
_1-1_
  6
CONTINUOUS
 62
    7
 10
237.71123112858953
 20
167.10612116633234
 40
0.059781551763818
  0
CIRCLE
  8
_1-1_
  6
CONTINUOUS
 62
    7
 10
232.91864343591641
 20
161.8441153861381
 40
0.059781551763818
  0
CIRCLE
  8
_1-1_
  6
CONTINUOUS
 62
    7
 10
233.28035096864443
 20
163.0498030379012
 40
0.059781551763818
  0
CIRCLE
  8
_1-1_
  6
CONTINUOUS
 62
    7
 10
233.73247301256336
 20
163.35120948585305
 40
0.059781551763818
  0
CIRCLE
  8
_1-1_
  6
CONTINUOUS
 62
    7
 10
233.55161924619935
 20
162.47710356841216
 40
0.059781551763818
  0
CIRCLE
  8
_1-1_
  6
CONTINUOUS
 62
    7
 10
232.82820418074326
 20
161.4522696830131
 40
0.059781551763818
  0
CIRCLE
  8
_1-1_
  6
CONTINUOUS
 62
    7
 10
232.19522837046031
 20
160.96999709670609
 40
0.059781551763818
  0
CIRCLE
  8
_1-1_
  6
CONTINUOUS
 62
    7
 10
233.09949720228042
 20
160.60828956397805
 40
0.059781551763818
  0
CIRCLE
  8
_1-1_
  6
CONTINUOUS
 62
    7
 10
234.18461980046453
 20
160.93985892630914
 40
0.059781551763818
  0
CIRCLE
  8
_1-1_
  6
CONTINUOUS
 62
    7
 10
233.88318860853042
 20
160.638427734375
 40
0.059781551763818
  0
CIRCLE
  8
_1-1_
  6
CONTINUOUS
 62
    7
 10
233.25021279824747
 20
162.38666431323904
 40
0.059781551763818
  0
CIRCLE
  8
_1-1_
  6
CONTINUOUS
 62
    7
 10
232.64737515836151
 20
163.56221379460516
 40
0.059781551763818
  0
CIRCLE
  8
_1-1_
  6
CONTINUOUS
 62
    7
 10
232.49665956239443
 20
164.07462455130914
 40
0.059781551763818
  0
CIRCLE
  8
_1-1_
  6
CONTINUOUS
 62
    7
 10
234.96831120671453
 20
164.6171858504012
 40
0.059781551763818
  0
CIRCLE
  8
_1-1_
  6
CONTINUOUS
 62
    7
 10
235.69172627217063
 20
165.0994584367082
 40
0.059781551763818
  0
CIRCLE
  8
_1-1_
  6
CONTINUOUS
 62
    7
 10
234.3654488228463
 20
165.15974714949326
 40
0.059781551763818
  0
CIRCLE
  8
_1-1_
  6
CONTINUOUS
 62
    7
 10
235.90269346494935
 20
164.07462455130914
 40
0.059781551763818
  0
CIRCLE
  8
_1-1_
  6
CONTINUOUS
 62
    7
 10
234.90803486592063
 20
163.38136002824115
 40
0.059781551763818
  0
CIRCLE
  8
_1-1_
  6
CONTINUOUS
 62
    7
 10
234.3654488228463
 20
163.0196524955131
 40
0.059781551763818
  0
CIRCLE
  8
_1-1_
  6
CONTINUOUS
 62
    7
 10
234.78745744035052
 20
162.38666431323904
 40
0.059781551763818
  0
CIRCLE
  8
_1-1_
  6
CONTINUOUS
 62
    7
 10
235.05872571790542
 20
161.99481861011404
 40
0.059781551763818
  0
CIRCLE
  8
_1-1_
  6
CONTINUOUS
 62
    7
 10
236.11371014569258
 20
162.20582291886615
 40
0.059781551763818
  0
CIRCLE
  8
_1-1_
  6
CONTINUOUS
 62
    7
 10
237.74136929898651
 20
163.0196524955131
 40
0.059781551763818
  0
CIRCLE
  8
_1-1_
  6
CONTINUOUS
 62
    7
 10
237.37966176625847
 20
163.29093314505914
 40
0.059781551763818
  0
CIRCLE
  8
_1-1_
  6
CONTINUOUS
 62
    7
 10
236.50555584881758
 20
161.36184279983109
 40
0.059781551763818
  0
CIRCLE
  8
_1-1_
  6
CONTINUOUS
 62
    7
 10
237.28924725506758
 20
161.81396484375
 40
0.059781551763818
  0
CIRCLE
  8
_1-1_
  6
CONTINUOUS
 62
    7
 10
234.63674184438347
 20
161.12071269267315
 40
0.059781551763818
  0
CIRCLE
  8
_1-1_
  6
CONTINUOUS
 62
    7
 10
233.91332677892737
 20
164.88845412795609
 40
0.059781551763818
  0
CIRCLE
  8
_1-1_
  6
CONTINUOUS
 62
    7
 10
235.20944131387247
 20
164.7076127335832
 40
0.059781551763818
  0
CIRCLE
  8
_1-1_
  6
CONTINUOUS
 62
    7
 10
236.47541767842063
 20
164.73775090398016
 40
0.059781551763818
  0
CIRCLE
  8
_1-1_
  6
CONTINUOUS
 62
    7
 10
235.87255529455237
 20
163.56221379460516
 40
0.059781551763818
  0
CIRCLE
  8
_1-1_
  6
CONTINUOUS
 62
    7
 10
237.07825531830659
 20
165.34060091585727
 40
0.059781551763818
  0
CIRCLE
  8
_1-1_
  6
CONTINUOUS
 62
    7
 10
237.71123112858953
 20
166.15443049250422
 40
0.059781551763818
  0
CIRCLE
  8
_1-1_
  6
CONTINUOUS
 62
    7
 10
237.43914629961995
 20
163.74749673379435
 40
0.059781551763818
  0
CIRCLE
  8
_1-1_
  6
CONTINUOUS
 62
    7
 10
237.800853832348
 20
164.95318438555745
 40
0.059781551763818
  0
CIRCLE
  8
_1-1_
  6
CONTINUOUS
 62
    7
 10
238.2529758762669
 20
165.2545908335093
 40
0.059781551763818
  0
CIRCLE
  8
_1-1_
  6
CONTINUOUS
 62
    7
 10
238.07212210990289
 20
164.38048491606841
 40
0.059781551763818
  0
CIRCLE
  8
_1-1_
  6
CONTINUOUS
 62
    7
 10
237.34873178842906
 20
163.35565103066935
 40
0.059781551763818
  0
CIRCLE
  8
_1-1_
  6
CONTINUOUS
 62
    7
 10
236.71573123416385
 20
162.87337844436234
 40
0.059781551763818
  0
CIRCLE
  8
_1-1_
  6
CONTINUOUS
 62
    7
 10
237.62000006598396
 20
162.5116709116343
 40
0.059781551763818
  0
CIRCLE
  8
_1-1_
  6
CONTINUOUS
 62
    7
 10
238.7051226641681
 20
162.84324027396539
 40
0.059781551763818
  0
CIRCLE
  8
_1-1_
  6
CONTINUOUS
 62
    7
 10
238.40369147223396
 20
162.54180908203125
 40
0.059781551763818
  0
CIRCLE
  8
_1-1_
  6
CONTINUOUS
 62
    7
 10
237.77071566195102
 20
164.29004566089529
 40
0.059781551763818
  0
CIRCLE
  8
_1-1_
  6
CONTINUOUS
 62
    7
 10
237.16787802206505
 20
165.46559514226141
 40
0.059781551763818
  0
CIRCLE
  8
_1-1_
  6
CONTINUOUS
 62
    7
 10
237.017162426098
 20
165.97800589896539
 40
0.059781551763818
  0
CIRCLE
  8
_1-1_
  6
CONTINUOUS
 62
    7
 10
239.4888140704181
 20
166.52056719805745
 40
0.059781551763818
  0
CIRCLE
  8
_1-1_
  6
CONTINUOUS
 62
    7
 10
240.2122043918919
 20
167.00283978436445
 40
0.059781551763818
  0
CIRCLE
  8
_1-1_
  6
CONTINUOUS
 62
    7
 10
238.88597643053211
 20
167.06312849714951
 40
0.059781551763818
  0
CIRCLE
  8
_1-1_
  6
CONTINUOUS
 62
    7
 10
240.42322107263516
 20
165.97800589896539
 40
0.059781551763818
  0
CIRCLE
  8
_1-1_
  6
CONTINUOUS
 62
    7
 10
239.4285129856419
 20
165.2847413758974
 40
0.059781551763818
  0
CIRCLE
  8
_1-1_
  6
CONTINUOUS
 62
    7
 10
238.88597643053211
 20
164.92303384316935
 40
0.059781551763818
  0
CIRCLE
  8
_1-1_
  6
CONTINUOUS
 62
    7
 10
239.30796030405406
 20
164.29004566089529
 40
0.059781551763818
  0
CIRCLE
  8
_1-1_
  6
CONTINUOUS
 62
    7
 10
239.57922858160896
 20
163.89819995777029
 40
0.059781551763818
  0
CIRCLE
  8
_1-1_
  6
CONTINUOUS
 62
    7
 10
240.63421300939612
 20
164.1092042665224
 40
0.059781551763818
  0
CIRCLE
  8
_1-1_
  6
CONTINUOUS
 62
    7
 10
242.26187216269005
 20
164.92303384316935
 40
0.059781551763818
  0
CIRCLE
  8
_1-1_
  6
CONTINUOUS
 62
    7
 10
241.90016462996201
 20
165.19431449271539
 40
0.059781551763818
  0
CIRCLE
  8
_1-1_
  6
CONTINUOUS
 62
    7
 10
241.02605871252112
 20
163.26522414748734
 40
0.059781551763818
  0
CIRCLE
  8
_1-1_
  6
CONTINUOUS
 62
    7
 10
241.80975011877112
 20
163.71734619140625
 40
0.059781551763818
  0
CIRCLE
  8
_1-1_
  6
CONTINUOUS
 62
    7
 10
239.15724470808701
 20
163.0240940403294
 40
0.059781551763818
  0
CIRCLE
  8
_1-1_
  6
CONTINUOUS
 62
    7
 10
238.43382964263091
 20
166.79183547561234
 40
0.059781551763818
  0
CIRCLE
  8
_1-1_
  6
CONTINUOUS
 62
    7
 10
239.72994417757602
 20
166.61099408123945
 40
0.059781551763818
  0
CIRCLE
  8
_1-1_
  6
CONTINUOUS
 62
    7
 10
240.9958957981419
 20
166.64113225163641
 40
0.059781551763818
  0
CIRCLE
  8
_1-1_
  6
CONTINUOUS
 62
    7
 10
240.39308290223818
 20
165.46559514226141
 40
0.059781551763818
  0
CIRCLE
  8
_1-1_
  6
CONTINUOUS
 62
    7
 10
241.59875818201016
 20
167.24398226351352
 40
0.059781551763818
  0
CIRCLE
  8
_1-1_
  6
CONTINUOUS
 62
    7
 10
242.2317339922931
 20
168.05781184016047
 40
0.059781551763818
  0
CIRCLE
  8
_1-1_
  6
CONTINUOUS
 62
    7
 10
245.05262220228042
 20
167.55423468512458
 40
0.059781551763818
  0
CIRCLE
  8
_1-1_
  6
CONTINUOUS
 62
    7
 10
245.41432973500847
 20
168.75992233688768
 40
0.059781551763818
  0
CIRCLE
  8
_1-1_
  6
CONTINUOUS
 62
    7
 10
245.86645177892737
 20
169.06132878483953
 40
0.059781551763818
  0
CIRCLE
  8
_1-1_
  6
CONTINUOUS
 62
    7
 10
245.68559801256336
 20
168.18722286739865
 40
0.059781551763818
  0
CIRCLE
  8
_1-1_
  6
CONTINUOUS
 62
    7
 10
244.96220769108953
 20
167.16238898199958
 40
0.059781551763818
  0
CIRCLE
  8
_1-1_
  6
CONTINUOUS
 62
    7
 10
244.32920713682435
 20
166.68011639569258
 40
0.059781551763818
  0
CIRCLE
  8
_1-1_
  6
CONTINUOUS
 62
    7
 10
245.23347596864443
 20
166.31840886296453
 40
0.059781551763818
  0
CIRCLE
  8
_1-1_
  6
CONTINUOUS
 62
    7
 10
246.31859856682857
 20
166.64997822529563
 40
0.059781551763818
  0
CIRCLE
  8
_1-1_
  6
CONTINUOUS
 62
    7
 10
246.01716737489443
 20
166.34854703336148
 40
0.059781551763818
  0
CIRCLE
  8
_1-1_
  6
CONTINUOUS
 62
    7
 10
245.38419156461151
 20
168.09678361222552
 40
0.059781551763818
  0
CIRCLE
  8
_1-1_
  6
CONTINUOUS
 62
    7
 10
244.78135392472552
 20
169.27233309359164
 40
0.059781551763818
  0
CIRCLE
  8
_1-1_
  6
CONTINUOUS
 62
    7
 10
244.63063832875847
 20
169.78474385029563
 40
0.059781551763818
  0
CIRCLE
  8
_1-1_
  6
CONTINUOUS
 62
    7
 10
247.10228997307857
 20
170.32730514938768
 40
0.059781551763818
  0
CIRCLE
  8
_1-1_
  6
CONTINUOUS
 62
    7
 10
247.82568029455237
 20
170.80957773569469
 40
0.059781551763818
  0
CIRCLE
  8
_1-1_
  6
CONTINUOUS
 62
    7
 10
246.49945233319258
 20
170.86986644847974
 40
0.059781551763818
  0
CIRCLE
  8
_1-1_
  6
CONTINUOUS
 62
    7
 10
248.03669697529563
 20
169.78474385029563
 40
0.059781551763818
  0
CIRCLE
  8
_1-1_
  6
CONTINUOUS
 62
    7
 10
247.04198888830237
 20
169.09147932722763
 40
0.059781551763818
  0
CIRCLE
  8
_1-1_
  6
CONTINUOUS
 62
    7
 10
246.49945233319258
 20
168.72977179449958
 40
0.059781551763818
  0
CIRCLE
  8
_1-1_
  6
CONTINUOUS
 62
    7
 10
246.92143620671453
 20
168.09678361222552
 40
0.059781551763818
  0
CIRCLE
  8
_1-1_
  6
CONTINUOUS
 62
    7
 10
247.19270448426943
 20
167.70493790910052
 40
0.059781551763818
  0
CIRCLE
  8
_1-1_
  6
CONTINUOUS
 62
    7
 10
248.24768891205659
 20
167.91594221785263
 40
0.059781551763818
  0
CIRCLE
  8
_1-1_
  6
CONTINUOUS
 62
    7
 10
249.87534806535052
 20
168.72977179449958
 40
0.059781551763818
  0
CIRCLE
  8
_1-1_
  6
CONTINUOUS
 62
    7
 10
249.51364053262247
 20
169.00105244404563
 40
0.059781551763818
  0
CIRCLE
  8
_1-1_
  6
CONTINUOUS
 62
    7
 10
248.63953461518159
 20
167.07196209881758
 40
0.059781551763818
  0
CIRCLE
  8
_1-1_
  6
CONTINUOUS
 62
    7
 10
249.42322602143159
 20
167.52408414273648
 40
0.059781551763818
  0
CIRCLE
  8
_1-1_
  6
CONTINUOUS
 62
    7
 10
246.77072061074747
 20
166.83083199165964
 40
0.059781551763818
  0
CIRCLE
  8
_1-1_
  6
CONTINUOUS
 62
    7
 10
246.04730554529141
 20
170.59857342694258
 40
0.059781551763818
  0
CIRCLE
  8
_1-1_
  6
CONTINUOUS
 62
    7
 10
247.34342008023651
 20
170.41773203256969
 40
0.059781551763818
  0
CIRCLE
  8
_1-1_
  6
CONTINUOUS
 62
    7
 10
248.60937170080237
 20
170.44787020296664
 40
0.059781551763818
  0
CIRCLE
  8
_1-1_
  6
CONTINUOUS
 62
    7
 10
248.00655880489867
 20
169.27233309359164
 40
0.059781551763818
  0
CIRCLE
  8
_1-1_
  6
CONTINUOUS
 62
    7
 10
249.21223408467063
 20
171.05072021484375
 40
0.059781551763818
  0
CIRCLE
  8
_1-1_
  6
CONTINUOUS
 62
    7
 10
249.84520989495357
 20
171.86454979149073
 40
0.059781551763818
  0
CIRCLE
  8
_1-1_
  6
CONTINUOUS
 62
    7
 10
248.62144676414698
 20
170.17136857316302
 40
0.059781551763818
  0
CIRCLE
  8
_1-1_
  6
CONTINUOUS
 62
    7
 10
248.983154296875
 20
171.37704385293497
 40
0.059781551763818
  0
CIRCLE
  8
_1-1_
  6
CONTINUOUS
 62
    7
 10
249.43527634079393
 20
171.67847504486909
 40
0.059781551763818
  0
CIRCLE
  8
_1-1_
  6
CONTINUOUS
 62
    7
 10
249.25442257442992
 20
170.80434438344597
 40
0.059781551763818
  0
CIRCLE
  8
_1-1_
  6
CONTINUOUS
 62
    7
 10
248.53103225295609
 20
169.77952287003802
 40
0.059781551763818
  0
CIRCLE
  8
_1-1_
  6
CONTINUOUS
 62
    7
 10
247.89803169869089
 20
169.29725028373102
 40
0.059781551763818
  0
CIRCLE
  8
_1-1_
  6
CONTINUOUS
 62
    7
 10
248.80230053051099
 20
168.93554275100297
 40
0.059781551763818
  0
CIRCLE
  8
_1-1_
  6
CONTINUOUS
 62
    7
 10
249.8874231286951
 20
169.26709974134292
 40
0.059781551763818
  0
CIRCLE
  8
_1-1_
  6
CONTINUOUS
 62
    7
 10
249.58599193676099
 20
168.96569329339107
 40
0.059781551763818
  0
CIRCLE
  8
_1-1_
  6
CONTINUOUS
 62
    7
 10
248.95301612647805
 20
170.71392987225508
 40
0.059781551763818
  0
CIRCLE
  8
_1-1_
  6
CONTINUOUS
 62
    7
 10
248.35017848659209
 20
171.88946698163008
 40
0.059781551763818
  0
CIRCLE
  8
_1-1_
  6
CONTINUOUS
 62
    7
 10
251.39450485641893
 20
173.42671162373313
 40
0.059781551763818
  0
CIRCLE
  8
_1-1_
  6
CONTINUOUS
 62
    7
 10
250.06827689505914
 20
173.48698796452703
 40
0.059781551763818
  0
CIRCLE
  8
_1-1_
  6
CONTINUOUS
 62
    7
 10
251.60552153716219
 20
172.40187773833404
 40
0.059781551763818
  0
CIRCLE
  8
_1-1_
  6
CONTINUOUS
 62
    7
 10
250.61081345016893
 20
171.70861321526607
 40
0.059781551763818
  0
CIRCLE
  8
_1-1_
  6
CONTINUOUS
 62
    7
 10
250.06827689505914
 20
171.34690568253802
 40
0.059781551763818
  0
CIRCLE
  8
_1-1_
  6
CONTINUOUS
 62
    7
 10
250.49026076858109
 20
170.71392987225508
 40
0.059781551763818
  0
CIRCLE
  8
_1-1_
  6
CONTINUOUS
 62
    7
 10
250.76152904613599
 20
170.32208416913008
 40
0.059781551763818
  0
CIRCLE
  8
_1-1_
  6
CONTINUOUS
 62
    7
 10
251.81651347392315
 20
170.53307610589107
 40
0.059781551763818
  0
CIRCLE
  8
_1-1_
  6
CONTINUOUS
 62
    7
 10
253.44417262721709
 20
171.34690568253802
 40
0.059781551763818
  0
CIRCLE
  8
_1-1_
  6
CONTINUOUS
 62
    7
 10
253.08246509448904
 20
171.61818633208404
 40
0.059781551763818
  0
CIRCLE
  8
_1-1_
  6
CONTINUOUS
 62
    7
 10
252.20835917704815
 20
169.68909598685602
 40
0.059781551763818
  0
CIRCLE
  8
_1-1_
  6
CONTINUOUS
 62
    7
 10
252.99205058329815
 20
170.14123040276607
 40
0.059781551763818
  0
CIRCLE
  8
_1-1_
  6
CONTINUOUS
 62
    7
 10
250.33954517261404
 20
169.44795350770693
 40
0.059781551763818
  0
CIRCLE
  8
_1-1_
  6
CONTINUOUS
 62
    7
 10
252.17819626266893
 20
173.06500409100508
 40
0.059781551763818
  0
CIRCLE
  8
_1-1_
  6
CONTINUOUS
 62
    7
 10
251.57538336676521
 20
171.88946698163008
 40
0.059781551763818
  0
CIRCLE
  8
_1-1_
  6
CONTINUOUS
 62
    7
 10
252.78105864653719
 20
173.66784173089107
 40
0.059781551763818
  0
CIRCLE
  8
_1-1_
  6
CONTINUOUS
 62
    7
 10
253.4140344568201
 20
174.48168367952914
 40
0.059781551763818
  0
CIRCLE
  8
_1-1_
  6
CONTINUOUS
 62
    7
 10
238.86667612436656
 20
165.65086570945948
 40
0.059781551763818
  0
CIRCLE
  8
_1-1_
  6
CONTINUOUS
 62
    7
 10
239.22838365709461
 20
166.85654098923143
 40
0.059781551763818
  0
CIRCLE
  8
_1-1_
  6
CONTINUOUS
 62
    7
 10
239.68050570101352
 20
167.15797218116555
 40
0.059781551763818
  0
CIRCLE
  8
_1-1_
  6
CONTINUOUS
 62
    7
 10
239.49965193464951
 20
166.2838415197424
 40
0.059781551763818
  0
CIRCLE
  8
_1-1_
  6
CONTINUOUS
 62
    7
 10
238.77626161317568
 20
165.25902000633448
 40
0.059781551763818
  0
CIRCLE
  8
_1-1_
  6
CONTINUOUS
 62
    7
 10
238.1432610589105
 20
164.77674742002745
 40
0.059781551763818
  0
CIRCLE
  8
_1-1_
  6
CONTINUOUS
 62
    7
 10
239.0475298907306
 20
164.41503988729943
 40
0.059781551763818
  0
CIRCLE
  8
_1-1_
  6
CONTINUOUS
 62
    7
 10
240.13265248891472
 20
164.74659687763938
 40
0.059781551763818
  0
CIRCLE
  8
_1-1_
  6
CONTINUOUS
 62
    7
 10
239.8312212969806
 20
164.4451904296875
 40
0.059781551763818
  0
CIRCLE
  8
_1-1_
  6
CONTINUOUS
 62
    7
 10
239.19824548669766
 20
166.19342700855154
 40
0.059781551763818
  0
CIRCLE
  8
_1-1_
  6
CONTINUOUS
 62
    7
 10
238.59540784681167
 20
167.36896411792654
 40
0.059781551763818
  0
CIRCLE
  8
_1-1_
  6
CONTINUOUS
 62
    7
 10
241.63973421663852
 20
168.90620876002956
 40
0.059781551763818
  0
CIRCLE
  8
_1-1_
  6
CONTINUOUS
 62
    7
 10
241.85075089738177
 20
167.8813748746305
 40
0.059781551763818
  0
CIRCLE
  8
_1-1_
  6
CONTINUOUS
 62
    7
 10
240.85604281038852
 20
167.1881103515625
 40
0.059781551763818
  0
CIRCLE
  8
_1-1_
  6
CONTINUOUS
 62
    7
 10
240.31350625527872
 20
166.82640281883448
 40
0.059781551763818
  0
CIRCLE
  8
_1-1_
  6
CONTINUOUS
 62
    7
 10
240.73549012880068
 20
166.19342700855154
 40
0.059781551763818
  0
CIRCLE
  8
_1-1_
  6
CONTINUOUS
 62
    7
 10
241.0067584063556
 20
165.80158130542654
 40
0.059781551763818
  0
CIRCLE
  8
_1-1_
  6
CONTINUOUS
 62
    7
 10
242.06174283414276
 20
166.0125732421875
 40
0.059781551763818
  0
CIRCLE
  8
_1-1_
  6
CONTINUOUS
 62
    7
 10
243.68940198743667
 20
166.82640281883448
 40
0.059781551763818
  0
CIRCLE
  8
_1-1_
  6
CONTINUOUS
 62
    7
 10
243.32769445470862
 20
167.0976834683805
 40
0.059781551763818
  0
CIRCLE
  8
_1-1_
  6
CONTINUOUS
 62
    7
 10
242.45358853726776
 20
165.16859312315245
 40
0.059781551763818
  0
CIRCLE
  8
_1-1_
  6
CONTINUOUS
 62
    7
 10
243.23727994351776
 20
165.6207275390625
 40
0.059781551763818
  0
CIRCLE
  8
_1-1_
  6
CONTINUOUS
 62
    7
 10
240.58477453283362
 20
164.92745064400339
 40
0.059781551763818
  0
CIRCLE
  8
_1-1_
  6
CONTINUOUS
 62
    7
 10
241.15747400232266
 20
168.51436305690456
 40
0.059781551763818
  0
CIRCLE
  8
_1-1_
  6
CONTINUOUS
 62
    7
 10
242.42342562288852
 20
168.54450122730154
 40
0.059781551763818
  0
CIRCLE
  8
_1-1_
  6
CONTINUOUS
 62
    7
 10
241.82061272698482
 20
167.36896411792654
 40
0.059781551763818
  0
CIRCLE
  8
_1-1_
  6
CONTINUOUS
 62
    7
 10
243.02628800675677
 20
169.1473388671875
 40
0.059781551763818
  0
CIRCLE
  8
_1-1_
  6
CONTINUOUS
 62
    7
 10
243.65926381703972
 20
169.9611808158256
 40
0.059781551763818
  0
CIRCLE
  8
_1-1_
  6
CONTINUOUS
 62
    7
 10
87.448610872835729
 20
92.19686972128379
 40
0.059781551763818
  0
CIRCLE
  8
_1-1_
  6
CONTINUOUS
 62
    7
 10
88.081592869114232
 20
92.829851717562292
 40
0.059781551763818
  0
CIRCLE
  8
_1-1_
  6
CONTINUOUS
 62
    7
 10
87.358183989653725
 20
91.80502401815879
 40
0.059781551763818
  0
CIRCLE
  8
_1-1_
  6
CONTINUOUS
 62
    7
 10
86.725201993375222
 20
91.322751431851785
 40
0.059781551763818
  0
CIRCLE
  8
_1-1_
  6
CONTINUOUS
 62
    7
 10
87.629464639199753
 20
90.961043899123737
 40
0.059781551763818
  0
CIRCLE
  8
_1-1_
  6
CONTINUOUS
 62
    7
 10
88.714581051388308
 20
91.292607075459259
 40
0.059781551763818
  0
CIRCLE
  8
_1-1_
  6
CONTINUOUS
 62
    7
 10
88.413156045449753
 20
90.991188255516263
 40
0.059781551763818
  0
CIRCLE
  8
_1-1_
  6
CONTINUOUS
 62
    7
 10
87.780174049171251
 20
92.739424834380287
 40
0.059781551763818
  0
CIRCLE
  8
_1-1_
  6
CONTINUOUS
 62
    7
 10
89.317418691274284
 20
92.739424834380287
 40
0.059781551763818
  0
CIRCLE
  8
_1-1_
  6
CONTINUOUS
 62
    7
 10
89.588699340820313
 20
92.347579131255287
 40
0.059781551763818
  0
CIRCLE
  8
_1-1_
  6
CONTINUOUS
 62
    7
 10
90.643671396616341
 20
92.558577254011823
 40
0.059781551763818
  0
CIRCLE
  8
_1-1_
  6
CONTINUOUS
 62
    7
 10
91.035517099741341
 20
91.714597134976785
 40
0.059781551763818
  0
CIRCLE
  8
_1-1_
  6
CONTINUOUS
 62
    7
 10
91.819208505991341
 20
92.166725364891263
 40
0.059781551763818
  0
CIRCLE
  8
_1-1_
  6
CONTINUOUS
 62
    7
 10
89.166709281302786
 20
91.473460841823268
 40
0.059781551763818
  0
CIRCLE
  8
_1-1_
  6
CONTINUOUS
 62
    7
 10
84.343105006862331
 20
92.39096151815879
 40
0.059781551763818
  0
CIRCLE
  8
_1-1_
  6
CONTINUOUS
 62
    7
 10
84.976087003140847
 20
93.023943514437292
 40
0.059781551763818
  0
CIRCLE
  8
_1-1_
  6
CONTINUOUS
 62
    7
 10
84.252678123680326
 20
91.99911581503379
 40
0.059781551763818
  0
CIRCLE
  8
_1-1_
  6
CONTINUOUS
 62
    7
 10
83.619696127401824
 20
91.516843228726785
 40
0.059781551763818
  0
CIRCLE
  8
_1-1_
  6
CONTINUOUS
 62
    7
 10
84.523958773226354
 20
91.155135695998737
 40
0.059781551763818
  0
CIRCLE
  8
_1-1_
  6
CONTINUOUS
 62
    7
 10
85.609075185414909
 20
91.486698872334259
 40
0.059781551763818
  0
CIRCLE
  8
_1-1_
  6
CONTINUOUS
 62
    7
 10
85.307650179476354
 20
91.185280052391263
 40
0.059781551763818
  0
CIRCLE
  8
_1-1_
  6
CONTINUOUS
 62
    7
 10
84.674668183197852
 20
92.933516631255287
 40
0.059781551763818
  0
CIRCLE
  8
_1-1_
  6
CONTINUOUS
 62
    7
 10
86.211912825300885
 20
92.933516631255287
 40
0.059781551763818
  0
CIRCLE
  8
_1-1_
  6
CONTINUOUS
 62
    7
 10
86.483193474846928
 20
92.541670928130287
 40
0.059781551763818
  0
CIRCLE
  8
_1-1_
  6
CONTINUOUS
 62
    7
 10
87.538165530642956
 20
92.752669050886823
 40
0.059781551763818
  0
CIRCLE
  8
_1-1_
  6
CONTINUOUS
 62
    7
 10
87.930011233767956
 20
91.908688931851785
 40
0.059781551763818
  0
CIRCLE
  8
_1-1_
  6
CONTINUOUS
 62
    7
 10
88.713702640017956
 20
92.360817161766263
 40
0.059781551763818
  0
CIRCLE
  8
_1-1_
  6
CONTINUOUS
 62
    7
 10
86.061203415329402
 20
91.667552638698268
 40
0.059781551763818
  0
CIRCLE
  8
_1-1_
  6
CONTINUOUS
 62
    7
 10
91.912759316934128
 20
94.720087824641055
 40
0.059781551763818
  0
CIRCLE
  8
_1-1_
  6
CONTINUOUS
 62
    7
 10
92.545741313212631
 20
95.353069820919558
 40
0.059781551763818
  0
CIRCLE
  8
_1-1_
  6
CONTINUOUS
 62
    7
 10
91.822332433752123
 20
94.328242121516055
 40
0.059781551763818
  0
CIRCLE
  8
_1-1_
  6
CONTINUOUS
 62
    7
 10
91.189350437473607
 20
93.845969535209036
 40
0.059781551763818
  0
CIRCLE
  8
_1-1_
  6
CONTINUOUS
 62
    7
 10
92.093613083298152
 20
93.484262002481003
 40
0.059781551763818
  0
CIRCLE
  8
_1-1_
  6
CONTINUOUS
 62
    7
 10
93.178729495486706
 20
93.81582517881651
 40
0.059781551763818
  0
CIRCLE
  8
_1-1_
  6
CONTINUOUS
 62
    7
 10
92.877304489548152
 20
93.514406358873529
 40
0.059781551763818
  0
CIRCLE
  8
_1-1_
  6
CONTINUOUS
 62
    7
 10
92.244322493269635
 20
95.262642937737553
 40
0.059781551763818
  0
CIRCLE
  8
_1-1_
  6
CONTINUOUS
 62
    7
 10
93.781567135372683
 20
95.262642937737553
 40
0.059781551763818
  0
CIRCLE
  8
_1-1_
  6
CONTINUOUS
 62
    7
 10
94.052847784918711
 20
94.870797234612553
 40
0.059781551763818
  0
CIRCLE
  8
_1-1_
  6
CONTINUOUS
 62
    7
 10
95.10781984071474
 20
95.081795357369089
 40
0.059781551763818
  0
CIRCLE
  8
_1-1_
  6
CONTINUOUS
 62
    7
 10
95.49966554383974
 20
94.237815238334036
 40
0.059781551763818
  0
CIRCLE
  8
_1-1_
  6
CONTINUOUS
 62
    7
 10
96.28335695008974
 20
94.689943468248529
 40
0.059781551763818
  0
CIRCLE
  8
_1-1_
  6
CONTINUOUS
 62
    7
 10
93.630857725401185
 20
93.996678945180534
 40
0.059781551763818
  0
CIRCLE
  8
_1-1_
  6
CONTINUOUS
 62
    7
 10
96.57101192989866
 20
96.078742774757188
 40
0.059781551763818
  0
CIRCLE
  8
_1-1_
  6
CONTINUOUS
 62
    7
 10
97.203993926177162
 20
96.711724771035691
 40
0.059781551763818
  0
CIRCLE
  8
_1-1_
  6
CONTINUOUS
 62
    7
 10
96.480585046716641
 20
95.686897071632188
 40
0.059781551763818
  0
CIRCLE
  8
_1-1_
  6
CONTINUOUS
 62
    7
 10
95.847603050438138
 20
95.204624485325169
 40
0.059781551763818
  0
CIRCLE
  8
_1-1_
  6
CONTINUOUS
 62
    7
 10
96.751865696262669
 20
94.842916952597136
 40
0.059781551763818
  0
CIRCLE
  8
_1-1_
  6
CONTINUOUS
 62
    7
 10
97.836982108451224
 20
95.174480128932643
 40
0.059781551763818
  0
CIRCLE
  8
_1-1_
  6
CONTINUOUS
 62
    7
 10
97.535557102512669
 20
94.873061308989662
 40
0.059781551763818
  0
CIRCLE
  8
_1-1_
  6
CONTINUOUS
 62
    7
 10
96.902575106234167
 20
96.621297887853686
 40
0.059781551763818
  0
CIRCLE
  8
_1-1_
  6
CONTINUOUS
 62
    7
 10
98.439819748337214
 20
96.621297887853686
 40
0.059781551763818
  0
CIRCLE
  8
_1-1_
  6
CONTINUOUS
 62
    7
 10
98.711100397883243
 20
96.229452184728686
 40
0.059781551763818
  0
CIRCLE
  8
_1-1_
  6
CONTINUOUS
 62
    7
 10
99.766072453679271
 20
96.440450307485222
 40
0.059781551763818
  0
CIRCLE
  8
_1-1_
  6
CONTINUOUS
 62
    7
 10
100.15791815680427
 20
95.596470188450169
 40
0.059781551763818
  0
CIRCLE
  8
_1-1_
  6
CONTINUOUS
 62
    7
 10
100.94160956305427
 20
96.048598418364662
 40
0.059781551763818
  0
CIRCLE
  8
_1-1_
  6
CONTINUOUS
 62
    7
 10
98.289110338365717
 20
95.355333895296667
 40
0.059781551763818
  0
CIRCLE
  8
_1-1_
  6
CONTINUOUS
 62
    7
 10
98.317850473764793
 20
97.243299742002748
 40
0.059781551763818
  0
CIRCLE
  8
_1-1_
  6
CONTINUOUS
 62
    7
 10
98.950832470043295
 20
97.87628173828125
 40
0.059781551763818
  0
CIRCLE
  8
_1-1_
  6
CONTINUOUS
 62
    7
 10
98.227423590582774
 20
96.851454038877748
 40
0.059781551763818
  0
CIRCLE
  8
_1-1_
  6
CONTINUOUS
 62
    7
 10
97.594441594304271
 20
96.369181452570743
 40
0.059781551763818
  0
CIRCLE
  8
_1-1_
  6
CONTINUOUS
 62
    7
 10
98.498704240128802
 20
96.007473919842695
 40
0.059781551763818
  0
CIRCLE
  8
_1-1_
  6
CONTINUOUS
 62
    7
 10
99.583820652317357
 20
96.339037096178217
 40
0.059781551763818
  0
CIRCLE
  8
_1-1_
  6
CONTINUOUS
 62
    7
 10
99.282395646378802
 20
96.037618276235222
 40
0.059781551763818
  0
CIRCLE
  8
_1-1_
  6
CONTINUOUS
 62
    7
 10
98.6494136501003
 20
97.785854855099245
 40
0.059781551763818
  0
CIRCLE
  8
_1-1_
  6
CONTINUOUS
 62
    7
 10
100.18665829220335
 20
97.785854855099245
 40
0.059781551763818
  0
CIRCLE
  8
_1-1_
  6
CONTINUOUS
 62
    7
 10
100.45793894174938
 20
97.394009151974245
 40
0.059781551763818
  0
CIRCLE
  8
_1-1_
  6
CONTINUOUS
 62
    7
 10
101.5129109975454
 20
97.605007274730795
 40
0.059781551763818
  0
CIRCLE
  8
_1-1_
  6
CONTINUOUS
 62
    7
 10
101.9047567006704
 20
96.761027155695743
 40
0.059781551763818
  0
CIRCLE
  8
_1-1_
  6
CONTINUOUS
 62
    7
 10
102.6884481069204
 20
97.213155385610222
 40
0.059781551763818
  0
CIRCLE
  8
_1-1_
  6
CONTINUOUS
 62
    7
 10
100.03594888223185
 20
96.51989086254224
 40
0.059781551763818
  0
CIRCLE
  8
_1-1_
  6
CONTINUOUS
 62
    7
 10
102.19972352723818
 20
98.407862895243881
 40
0.059781551763818
  0
CIRCLE
  8
_1-1_
  6
CONTINUOUS
 62
    7
 10
102.83270552351668
 20
99.040844891522383
 40
0.059781551763818
  0
CIRCLE
  8
_1-1_
  6
CONTINUOUS
 62
    7
 10
102.10929664405617
 20
98.016017192118881
 40
0.059781551763818
  0
CIRCLE
  8
_1-1_
  6
CONTINUOUS
 62
    7
 10
101.47631464777767
 20
97.533744605811876
 40
0.059781551763818
  0
CIRCLE
  8
_1-1_
  6
CONTINUOUS
 62
    7
 10
102.3805772936022
 20
97.172037073083828
 40
0.059781551763818
  0
CIRCLE
  8
_1-1_
  6
CONTINUOUS
 62
    7
 10
103.46569370579076
 20
97.50360024941935
 40
0.059781551763818
  0
CIRCLE
  8
_1-1_
  6
CONTINUOUS
 62
    7
 10
103.1642686998522
 20
97.202181429476354
 40
0.059781551763818
  0
CIRCLE
  8
_1-1_
  6
CONTINUOUS
 62
    7
 10
102.5312867035737
 20
98.950418008340378
 40
0.059781551763818
  0
CIRCLE
  8
_1-1_
  6
CONTINUOUS
 62
    7
 10
104.06853753167231
 20
98.950418008340378
 40
0.059781551763818
  0
CIRCLE
  8
_1-1_
  6
CONTINUOUS
 62
    7
 10
104.3398058092272
 20
98.558572305215378
 40
0.059781551763818
  0
CIRCLE
  8
_1-1_
  6
CONTINUOUS
 62
    7
 10
105.39479023701436
 20
98.769570427971928
 40
0.059781551763818
  0
CIRCLE
  8
_1-1_
  6
CONTINUOUS
 62
    7
 10
105.78663594013936
 20
97.925590308936876
 40
0.059781551763818
  0
CIRCLE
  8
_1-1_
  6
CONTINUOUS
 62
    7
 10
106.57032734638936
 20
98.377718538851354
 40
0.059781551763818
  0
CIRCLE
  8
_1-1_
  6
CONTINUOUS
 62
    7
 10
103.91782193570525
 20
97.684454015783373
 40
0.059781551763818
  0
CIRCLE
  8
_1-1_
  6
CONTINUOUS
 62
    7
 10
95.794632370407527
 20
99.572426048485013
 40
0.059781551763818
  0
CIRCLE
  8
_1-1_
  6
CONTINUOUS
 62
    7
 10
96.427614366686029
 20
100.20540804476352
 40
0.059781551763818
  0
CIRCLE
  8
_1-1_
  6
CONTINUOUS
 62
    7
 10
95.704205487225508
 20
99.180580345360013
 40
0.059781551763818
  0
CIRCLE
  8
_1-1_
  6
CONTINUOUS
 62
    7
 10
95.071223490947006
 20
98.698307759053009
 40
0.059781551763818
  0
CIRCLE
  8
_1-1_
  6
CONTINUOUS
 62
    7
 10
95.975486136771536
 20
98.336600226324961
 40
0.059781551763818
  0
CIRCLE
  8
_1-1_
  6
CONTINUOUS
 62
    7
 10
97.060602548960105
 20
98.668163402660483
 40
0.059781551763818
  0
CIRCLE
  8
_1-1_
  6
CONTINUOUS
 62
    7
 10
96.759177543021536
 20
98.366744582717487
 40
0.059781551763818
  0
CIRCLE
  8
_1-1_
  6
CONTINUOUS
 62
    7
 10
96.126195546743034
 20
100.11498116158151
 40
0.059781551763818
  0
CIRCLE
  8
_1-1_
  6
CONTINUOUS
 62
    7
 10
97.663440188846081
 20
100.11498116158151
 40
0.059781551763818
  0
CIRCLE
  8
_1-1_
  6
CONTINUOUS
 62
    7
 10
97.93472083839211
 20
99.723135458456511
 40
0.059781551763818
  0
CIRCLE
  8
_1-1_
  6
CONTINUOUS
 62
    7
 10
98.989692894188138
 20
99.934133581213061
 40
0.059781551763818
  0
CIRCLE
  8
_1-1_
  6
CONTINUOUS
 62
    7
 10
99.381538597313138
 20
99.090153462178009
 40
0.059781551763818
  0
CIRCLE
  8
_1-1_
  6
CONTINUOUS
 62
    7
 10
100.16523000356314
 20
99.542281692092487
 40
0.059781551763818
  0
CIRCLE
  8
_1-1_
  6
CONTINUOUS
 62
    7
 10
97.512730778874584
 20
98.849017169024492
 40
0.059781551763818
  0
CIRCLE
  8
_1-1_
  6
CONTINUOUS
 62
    7
 10
91.912759316934128
 20
98.796052674989454
 40
0.059781551763818
  0
CIRCLE
  8
_1-1_
  6
CONTINUOUS
 62
    7
 10
92.545741313212631
 20
99.429034671267956
 40
0.059781551763818
  0
CIRCLE
  8
_1-1_
  6
CONTINUOUS
 62
    7
 10
91.822332433752123
 20
98.404206971864454
 40
0.059781551763818
  0
CIRCLE
  8
_1-1_
  6
CONTINUOUS
 62
    7
 10
91.189350437473607
 20
97.921934385557435
 40
0.059781551763818
  0
CIRCLE
  8
_1-1_
  6
CONTINUOUS
 62
    7
 10
92.093613083298152
 20
97.560226852829402
 40
0.059781551763818
  0
CIRCLE
  8
_1-1_
  6
CONTINUOUS
 62
    7
 10
93.178729495486706
 20
97.891790029164909
 40
0.059781551763818
  0
CIRCLE
  8
_1-1_
  6
CONTINUOUS
 62
    7
 10
92.877304489548152
 20
97.590371209221928
 40
0.059781551763818
  0
CIRCLE
  8
_1-1_
  6
CONTINUOUS
 62
    7
 10
92.244322493269635
 20
99.338607788085938
 40
0.059781551763818
  0
CIRCLE
  8
_1-1_
  6
CONTINUOUS
 62
    7
 10
93.781567135372683
 20
99.338607788085938
 40
0.059781551763818
  0
CIRCLE
  8
_1-1_
  6
CONTINUOUS
 62
    7
 10
94.052847784918711
 20
98.946762084960938
 40
0.059781551763818
  0
CIRCLE
  8
_1-1_
  6
CONTINUOUS
 62
    7
 10
95.10781984071474
 20
99.157760207717487
 40
0.059781551763818
  0
CIRCLE
  8
_1-1_
  6
CONTINUOUS
 62
    7
 10
95.49966554383974
 20
98.313780088682435
 40
0.059781551763818
  0
CIRCLE
  8
_1-1_
  6
CONTINUOUS
 62
    7
 10
96.28335695008974
 20
98.765908318596928
 40
0.059781551763818
  0
CIRCLE
  8
_1-1_
  6
CONTINUOUS
 62
    7
 10
93.630857725401185
 20
98.072643795528933
 40
0.059781551763818
  0
CIRCLE
  8
_1-1_
  6
CONTINUOUS
 62
    7
 10
105.11113759633658
 20
99.572426048485013
 40
0.059781551763818
  0
CIRCLE
  8
_1-1_
  6
CONTINUOUS
 62
    7
 10
105.74412577861065
 20
100.20540804476352
 40
0.059781551763818
  0
CIRCLE
  8
_1-1_
  6
CONTINUOUS
 62
    7
 10
105.02071071315457
 20
99.180580345360013
 40
0.059781551763818
  0
CIRCLE
  8
_1-1_
  6
CONTINUOUS
 62
    7
 10
104.38773490287163
 20
98.698307759053009
 40
0.059781551763818
  0
CIRCLE
  8
_1-1_
  6
CONTINUOUS
 62
    7
 10
105.2919913627006
 20
98.336600226324961
 40
0.059781551763818
  0
CIRCLE
  8
_1-1_
  6
CONTINUOUS
 62
    7
 10
106.37710158889358
 20
98.668163402660483
 40
0.059781551763818
  0
CIRCLE
  8
_1-1_
  6
CONTINUOUS
 62
    7
 10
106.0756827689506
 20
98.366744582717487
 40
0.059781551763818
  0
CIRCLE
  8
_1-1_
  6
CONTINUOUS
 62
    7
 10
105.44269458667652
 20
100.11498116158151
 40
0.059781551763818
  0
CIRCLE
  8
_1-1_
  6
CONTINUOUS
 62
    7
 10
106.97993922877957
 20
100.11498116158151
 40
0.059781551763818
  0
CIRCLE
  8
_1-1_
  6
CONTINUOUS
 62
    7
 10
107.25123225031673
 20
99.723135458456511
 40
0.059781551763818
  0
CIRCLE
  8
_1-1_
  6
CONTINUOUS
 62
    7
 10
108.30619193412163
 20
99.934133581213061
 40
0.059781551763818
  0
CIRCLE
  8
_1-1_
  6
CONTINUOUS
 62
    7
 10
108.69803763724663
 20
99.090153462178009
 40
0.059781551763818
  0
CIRCLE
  8
_1-1_
  6
CONTINUOUS
 62
    7
 10
109.48172904349663
 20
99.542281692092487
 40
0.059781551763818
  0
CIRCLE
  8
_1-1_
  6
CONTINUOUS
 62
    7
 10
106.82923600480363
 20
98.849017169024492
 40
0.059781551763818
  0
CIRCLE
  8
_1-1_
  6
CONTINUOUS
 62
    7
 10
107.44025153082771
 20
101.90155235496728
 40
0.059781551763818
  0
CIRCLE
  8
_1-1_
  6
CONTINUOUS
 62
    7
 10
108.07322734111065
 20
102.53453435124578
 40
0.059781551763818
  0
CIRCLE
  8
_1-1_
  6
CONTINUOUS
 62
    7
 10
107.3498246476457
 20
101.50970665184228
 40
0.059781551763818
  0
CIRCLE
  8
_1-1_
  6
CONTINUOUS
 62
    7
 10
106.71683646537163
 20
101.02743406553527
 40
0.059781551763818
  0
CIRCLE
  8
_1-1_
  6
CONTINUOUS
 62
    7
 10
107.62110529719173
 20
100.66572653280723
 40
0.059781551763818
  0
CIRCLE
  8
_1-1_
  6
CONTINUOUS
 62
    7
 10
108.70622789537585
 20
100.99728970914275
 40
0.059781551763818
  0
CIRCLE
  8
_1-1_
  6
CONTINUOUS
 62
    7
 10
108.40479670344173
 20
100.69587088919975
 40
0.059781551763818
  0
CIRCLE
  8
_1-1_
  6
CONTINUOUS
 62
    7
 10
107.77182089315879
 20
102.44410746806378
 40
0.059781551763818
  0
CIRCLE
  8
_1-1_
  6
CONTINUOUS
 62
    7
 10
109.30906553526184
 20
102.44410746806378
 40
0.059781551763818
  0
CIRCLE
  8
_1-1_
  6
CONTINUOUS
 62
    7
 10
109.58033381281673
 20
102.05226176493878
 40
0.059781551763818
  0
CIRCLE
  8
_1-1_
  6
CONTINUOUS
 62
    7
 10
110.63531824060389
 20
102.26325988769531
 40
0.059781551763818
  0
CIRCLE
  8
_1-1_
  6
CONTINUOUS
 62
    7
 10
111.02716394372889
 20
101.41927976866027
 40
0.059781551763818
  0
CIRCLE
  8
_1-1_
  6
CONTINUOUS
 62
    7
 10
111.81085534997889
 20
101.87140799857475
 40
0.059781551763818
  0
CIRCLE
  8
_1-1_
  6
CONTINUOUS
 62
    7
 10
109.15834993929477
 20
101.17814347550676
 40
0.059781551763818
  0
CIRCLE
  8
_1-1_
  6
CONTINUOUS
 62
    7
 10
111.90441234691724
 20
104.2306848474451
 40
0.059781551763818
  0
CIRCLE
  8
_1-1_
  6
CONTINUOUS
 62
    7
 10
112.53738815720017
 20
104.86366065772805
 40
0.059781551763818
  0
CIRCLE
  8
_1-1_
  6
CONTINUOUS
 62
    7
 10
111.81398546373522
 20
103.8388391443201
 40
0.059781551763818
  0
CIRCLE
  8
_1-1_
  6
CONTINUOUS
 62
    7
 10
111.18099728146116
 20
103.35656037201753
 40
0.059781551763818
  0
CIRCLE
  8
_1-1_
  6
CONTINUOUS
 62
    7
 10
112.08526611328125
 20
102.99485283928949
 40
0.059781551763818
  0
CIRCLE
  8
_1-1_
  6
CONTINUOUS
 62
    7
 10
113.17038871146538
 20
103.326416015625
 40
0.059781551763818
  0
CIRCLE
  8
_1-1_
  6
CONTINUOUS
 62
    7
 10
112.86895751953125
 20
103.02499719568202
 40
0.059781551763818
  0
CIRCLE
  8
_1-1_
  6
CONTINUOUS
 62
    7
 10
112.23598170924832
 20
104.77323377454604
 40
0.059781551763818
  0
CIRCLE
  8
_1-1_
  6
CONTINUOUS
 62
    7
 10
113.77322635135135
 20
104.77323377454604
 40
0.059781551763818
  0
CIRCLE
  8
_1-1_
  6
CONTINUOUS
 62
    7
 10
114.04449462890625
 20
104.38138807142104
 40
0.059781551763818
  0
CIRCLE
  8
_1-1_
  6
CONTINUOUS
 62
    7
 10
115.09947905669343
 20
104.59239238017315
 40
0.059781551763818
  0
CIRCLE
  8
_1-1_
  6
CONTINUOUS
 62
    7
 10
115.49132475981843
 20
103.74840607514253
 40
0.059781551763818
  0
CIRCLE
  8
_1-1_
  6
CONTINUOUS
 62
    7
 10
116.27501616606843
 20
104.20053430505702
 40
0.059781551763818
  0
CIRCLE
  8
_1-1_
  6
CONTINUOUS
 62
    7
 10
113.6225107553843
 20
103.50726978198902
 40
0.059781551763818
  0
CIRCLE
  8
_1-1_
  6
CONTINUOUS
 62
    7
 10
114.03944685652451
 20
106.36570698506124
 40
0.059781551763818
  0
CIRCLE
  8
_1-1_
  6
CONTINUOUS
 62
    7
 10
114.67242266680744
 20
106.99869516733531
 40
0.059781551763818
  0
CIRCLE
  8
_1-1_
  6
CONTINUOUS
 62
    7
 10
113.94901997334249
 20
105.97386128193624
 40
0.059781551763818
  0
CIRCLE
  8
_1-1_
  6
CONTINUOUS
 62
    7
 10
113.31603179106841
 20
105.49158869562923
 40
0.059781551763818
  0
CIRCLE
  8
_1-1_
  6
CONTINUOUS
 62
    7
 10
114.22030062288852
 20
105.12988116290119
 40
0.059781551763818
  0
CIRCLE
  8
_1-1_
  6
CONTINUOUS
 62
    7
 10
115.30542322107264
 20
105.46145052523227
 40
0.059781551763818
  0
CIRCLE
  8
_1-1_
  6
CONTINUOUS
 62
    7
 10
115.00399202913852
 20
105.16001933329815
 40
0.059781551763818
  0
CIRCLE
  8
_1-1_
  6
CONTINUOUS
 62
    7
 10
114.37101621885559
 20
106.90825591216216
 40
0.059781551763818
  0
CIRCLE
  8
_1-1_
  6
CONTINUOUS
 62
    7
 10
115.90826086095862
 20
106.90825591216216
 40
0.059781551763818
  0
CIRCLE
  8
_1-1_
  6
CONTINUOUS
 62
    7
 10
116.17952913851352
 20
106.51641020903716
 40
0.059781551763818
  0
CIRCLE
  8
_1-1_
  6
CONTINUOUS
 62
    7
 10
117.23451356630068
 20
106.72741451778928
 40
0.059781551763818
  0
CIRCLE
  8
_1-1_
  6
CONTINUOUS
 62
    7
 10
117.62635926942568
 20
105.88343439875423
 40
0.059781551763818
  0
CIRCLE
  8
_1-1_
  6
CONTINUOUS
 62
    7
 10
118.41005067567568
 20
106.33555644267315
 40
0.059781551763818
  0
CIRCLE
  8
_1-1_
  6
CONTINUOUS
 62
    7
 10
115.75754526499156
 20
105.64230429159629
 40
0.059781551763818
  0
CIRCLE
  8
_1-1_
  6
CONTINUOUS
 62
    7
 10
117.72722811312289
 20
106.75390295080237
 40
0.059781551763818
  0
CIRCLE
  8
_1-1_
  6
CONTINUOUS
 62
    7
 10
118.36021629539697
 20
107.38687876108531
 40
0.059781551763818
  0
CIRCLE
  8
_1-1_
  6
CONTINUOUS
 62
    7
 10
117.63680122994089
 20
106.36205724767737
 40
0.059781551763818
  0
CIRCLE
  8
_1-1_
  6
CONTINUOUS
 62
    7
 10
117.00382541965794
 20
105.87978466137037
 40
0.059781551763818
  0
CIRCLE
  8
_1-1_
  6
CONTINUOUS
 62
    7
 10
117.90808187948691
 20
105.51807712864232
 40
0.059781551763818
  0
CIRCLE
  8
_1-1_
  6
CONTINUOUS
 62
    7
 10
118.99319210567991
 20
105.84963411898227
 40
0.059781551763818
  0
CIRCLE
  8
_1-1_
  6
CONTINUOUS
 62
    7
 10
118.69177328573691
 20
105.54822767103042
 40
0.059781551763818
  0
CIRCLE
  8
_1-1_
  6
CONTINUOUS
 62
    7
 10
118.05878510346284
 20
107.29646424989443
 40
0.059781551763818
  0
CIRCLE
  8
_1-1_
  6
CONTINUOUS
 62
    7
 10
119.59602974556589
 20
107.29646424989443
 40
0.059781551763818
  0
CIRCLE
  8
_1-1_
  6
CONTINUOUS
 62
    7
 10
119.86732276710305
 20
106.90461854676943
 40
0.059781551763818
  0
CIRCLE
  8
_1-1_
  6
CONTINUOUS
 62
    7
 10
120.92228245090794
 20
107.11561048353042
 40
0.059781551763818
  0
CIRCLE
  8
_1-1_
  6
CONTINUOUS
 62
    7
 10
121.31412815403294
 20
106.27163036449537
 40
0.059781551763818
  0
CIRCLE
  8
_1-1_
  6
CONTINUOUS
 62
    7
 10
122.09781956028294
 20
106.72376478040542
 40
0.059781551763818
  0
CIRCLE
  8
_1-1_
  6
CONTINUOUS
 62
    7
 10
119.44532652158996
 20
106.03048788534629
 40
0.059781551763818
  0
CIRCLE
  8
_1-1_
  6
CONTINUOUS
 62
    7
 10
123.55004387932856
 20
107.14208654455237
 40
0.059781551763818
  0
CIRCLE
  8
_1-1_
  6
CONTINUOUS
 62
    7
 10
124.1830196896115
 20
107.77506235483531
 40
0.059781551763818
  0
CIRCLE
  8
_1-1_
  6
CONTINUOUS
 62
    7
 10
123.45961699614655
 20
106.75024084142737
 40
0.059781551763818
  0
CIRCLE
  8
_1-1_
  6
CONTINUOUS
 62
    7
 10
122.82662881387247
 20
106.26796825512037
 40
0.059781551763818
  0
CIRCLE
  8
_1-1_
  6
CONTINUOUS
 62
    7
 10
123.73089764569258
 20
105.90626072239232
 40
0.059781551763818
  0
CIRCLE
  8
_1-1_
  6
CONTINUOUS
 62
    7
 10
124.81602024387669
 20
106.23781771273227
 40
0.059781551763818
  0
CIRCLE
  8
_1-1_
  6
CONTINUOUS
 62
    7
 10
124.51458905194258
 20
105.93641126478042
 40
0.059781551763818
  0
CIRCLE
  8
_1-1_
  6
CONTINUOUS
 62
    7
 10
123.88161324165964
 20
107.68464784364443
 40
0.059781551763818
  0
CIRCLE
  8
_1-1_
  6
CONTINUOUS
 62
    7
 10
125.41885788376267
 20
107.68464784364443
 40
0.059781551763818
  0
CIRCLE
  8
_1-1_
  6
CONTINUOUS
 62
    7
 10
125.69012616131758
 20
107.29280214051943
 40
0.059781551763818
  0
CIRCLE
  8
_1-1_
  6
CONTINUOUS
 62
    7
 10
126.74511058910474
 20
107.50379407728042
 40
0.059781551763818
  0
CIRCLE
  8
_1-1_
  6
CONTINUOUS
 62
    7
 10
127.13695629222974
 20
106.65981395824537
 40
0.059781551763818
  0
CIRCLE
  8
_1-1_
  6
CONTINUOUS
 62
    7
 10
127.92064769847974
 20
107.11194837415542
 40
0.059781551763818
  0
CIRCLE
  8
_1-1_
  6
CONTINUOUS
 62
    7
 10
125.26814228779561
 20
106.41867147909629
 40
0.059781551763818
  0
CIRCLE
  8
_1-1_
  6
CONTINUOUS
 62
    7
 10
123.93822747307856
 20
109.47121285103464
 40
0.059781551763818
  0
CIRCLE
  8
_1-1_
  6
CONTINUOUS
 62
    7
 10
124.5712032833615
 20
110.10418866131758
 40
0.059781551763818
  0
CIRCLE
  8
_1-1_
  6
CONTINUOUS
 62
    7
 10
123.84780058989655
 20
109.07936714790964
 40
0.059781551763818
  0
CIRCLE
  8
_1-1_
  6
CONTINUOUS
 62
    7
 10
123.21481240762247
 20
108.59709456160263
 40
0.059781551763818
  0
CIRCLE
  8
_1-1_
  6
CONTINUOUS
 62
    7
 10
124.11908123944258
 20
108.23538702887458
 40
0.059781551763818
  0
CIRCLE
  8
_1-1_
  6
CONTINUOUS
 62
    7
 10
125.20420383762669
 20
108.56694401921453
 40
0.059781551763818
  0
CIRCLE
  8
_1-1_
  6
CONTINUOUS
 62
    7
 10
124.90277264569258
 20
108.26553757126267
 40
0.059781551763818
  0
CIRCLE
  8
_1-1_
  6
CONTINUOUS
 62
    7
 10
124.26979683540964
 20
110.01377415012669
 40
0.059781551763818
  0
CIRCLE
  8
_1-1_
  6
CONTINUOUS
 62
    7
 10
125.80704147751267
 20
110.01377415012669
 40
0.059781551763818
  0
CIRCLE
  8
_1-1_
  6
CONTINUOUS
 62
    7
 10
126.07830975506758
 20
109.62192844700169
 40
0.059781551763818
  0
CIRCLE
  8
_1-1_
  6
CONTINUOUS
 62
    7
 10
127.13329418285474
 20
109.83292038376267
 40
0.059781551763818
  0
CIRCLE
  8
_1-1_
  6
CONTINUOUS
 62
    7
 10
127.52513988597974
 20
108.98894026472763
 40
0.059781551763818
  0
CIRCLE
  8
_1-1_
  6
CONTINUOUS
 62
    7
 10
128.30883129222974
 20
109.44107468063767
 40
0.059781551763818
  0
CIRCLE
  8
_1-1_
  6
CONTINUOUS
 62
    7
 10
125.65632588154561
 20
108.74779778557856
 40
0.059781551763818
  0
CIRCLE
  8
_1-1_
  6
CONTINUOUS
 62
    7
 10
123.74413567620356
 20
109.47121285103464
 40
0.059781551763818
  0
CIRCLE
  8
_1-1_
  6
CONTINUOUS
 62
    7
 10
124.3771114864865
 20
110.10418866131758
 40
0.059781551763818
  0
CIRCLE
  8
_1-1_
  6
CONTINUOUS
 62
    7
 10
123.65370879302155
 20
109.07936714790964
 40
0.059781551763818
  0
CIRCLE
  8
_1-1_
  6
CONTINUOUS
 62
    7
 10
123.02072061074747
 20
108.59709456160263
 40
0.059781551763818
  0
CIRCLE
  8
_1-1_
  6
CONTINUOUS
 62
    7
 10
123.92498944256758
 20
108.23538702887458
 40
0.059781551763818
  0
CIRCLE
  8
_1-1_
  6
CONTINUOUS
 62
    7
 10
125.01011204075169
 20
108.56694401921453
 40
0.059781551763818
  0
CIRCLE
  8
_1-1_
  6
CONTINUOUS
 62
    7
 10
124.70868084881758
 20
108.26553757126267
 40
0.059781551763818
  0
CIRCLE
  8
_1-1_
  6
CONTINUOUS
 62
    7
 10
124.07570503853464
 20
110.01377415012669
 40
0.059781551763818
  0
CIRCLE
  8
_1-1_
  6
CONTINUOUS
 62
    7
 10
125.61294968063767
 20
110.01377415012669
 40
0.059781551763818
  0
CIRCLE
  8
_1-1_
  6
CONTINUOUS
 62
    7
 10
125.88421795819258
 20
109.62192844700169
 40
0.059781551763818
  0
CIRCLE
  8
_1-1_
  6
CONTINUOUS
 62
    7
 10
126.93920238597974
 20
109.83292038376267
 40
0.059781551763818
  0
CIRCLE
  8
_1-1_
  6
CONTINUOUS
 62
    7
 10
127.33104808910474
 20
108.98894026472763
 40
0.059781551763818
  0
CIRCLE
  8
_1-1_
  6
CONTINUOUS
 62
    7
 10
128.11473949535474
 20
109.44107468063767
 40
0.059781551763818
  0
CIRCLE
  8
_1-1_
  6
CONTINUOUS
 62
    7
 10
125.46223408467061
 20
108.74779778557856
 40
0.059781551763818
  0
CIRCLE
  8
_1-1_
  6
CONTINUOUS
 62
    7
 10
117.14494035050676
 20
105.5893274255701
 40
0.059781551763818
  0
CIRCLE
  8
_1-1_
  6
CONTINUOUS
 62
    7
 10
117.7779161607897
 20
106.22230323585305
 40
0.059781551763818
  0
CIRCLE
  8
_1-1_
  6
CONTINUOUS
 62
    7
 10
117.05451346732475
 20
105.1974817224451
 40
0.059781551763818
  0
CIRCLE
  8
_1-1_
  6
CONTINUOUS
 62
    7
 10
116.42152528505068
 20
104.7152091361381
 40
0.059781551763818
  0
CIRCLE
  8
_1-1_
  6
CONTINUOUS
 62
    7
 10
117.32579411687078
 20
104.35350160341005
 40
0.059781551763818
  0
CIRCLE
  8
_1-1_
  6
CONTINUOUS
 62
    7
 10
118.41091671505491
 20
104.68505859375
 40
0.059781551763818
  0
CIRCLE
  8
_1-1_
  6
CONTINUOUS
 62
    7
 10
118.10948552312078
 20
104.38365214579815
 40
0.059781551763818
  0
CIRCLE
  8
_1-1_
  6
CONTINUOUS
 62
    7
 10
117.47650971283784
 20
106.13188872466216
 40
0.059781551763818
  0
CIRCLE
  8
_1-1_
  6
CONTINUOUS
 62
    7
 10
119.01375435494089
 20
106.13188872466216
 40
0.059781551763818
  0
CIRCLE
  8
_1-1_
  6
CONTINUOUS
 62
    7
 10
119.28502263249578
 20
105.74004302153716
 40
0.059781551763818
  0
CIRCLE
  8
_1-1_
  6
CONTINUOUS
 62
    7
 10
120.34000706028294
 20
105.95103495829815
 40
0.059781551763818
  0
CIRCLE
  8
_1-1_
  6
CONTINUOUS
 62
    7
 10
120.73185276340794
 20
105.1070548392631
 40
0.059781551763818
  0
CIRCLE
  8
_1-1_
  6
CONTINUOUS
 62
    7
 10
121.51554416965794
 20
105.55918925517315
 40
0.059781551763818
  0
CIRCLE
  8
_1-1_
  6
CONTINUOUS
 62
    7
 10
118.86303875897383
 20
104.86591236011402
 40
0.059781551763818
  0
CIRCLE
  8
_1-1_
  6
CONTINUOUS
 62
    7
 10
127.82010052655195
 20
110.24758003853464
 40
0.059781551763818
  0
CIRCLE
  8
_1-1_
  6
CONTINUOUS
 62
    7
 10
128.45308870882602
 20
110.88055584881758
 40
0.059781551763818
  0
CIRCLE
  8
_1-1_
  6
CONTINUOUS
 62
    7
 10
127.72967364336994
 20
109.85573433540964
 40
0.059781551763818
  0
CIRCLE
  8
_1-1_
  6
CONTINUOUS
 62
    7
 10
127.09669783308701
 20
109.37346174910263
 40
0.059781551763818
  0
CIRCLE
  8
_1-1_
  6
CONTINUOUS
 62
    7
 10
128.00095429291596
 20
109.01175421637458
 40
0.059781551763818
  0
CIRCLE
  8
_1-1_
  6
CONTINUOUS
 62
    7
 10
129.08606451910896
 20
109.34331120671453
 40
0.059781551763818
  0
CIRCLE
  8
_1-1_
  6
CONTINUOUS
 62
    7
 10
128.78464569916596
 20
109.04190475876267
 40
0.059781551763818
  0
CIRCLE
  8
_1-1_
  6
CONTINUOUS
 62
    7
 10
128.1516575168919
 20
110.79014133762669
 40
0.059781551763818
  0
CIRCLE
  8
_1-1_
  6
CONTINUOUS
 62
    7
 10
129.68890215899495
 20
110.79014133762669
 40
0.059781551763818
  0
CIRCLE
  8
_1-1_
  6
CONTINUOUS
 62
    7
 10
129.96019518053211
 20
110.39829563450169
 40
0.059781551763818
  0
CIRCLE
  8
_1-1_
  6
CONTINUOUS
 62
    7
 10
131.01515486433701
 20
110.60928757126267
 40
0.059781551763818
  0
CIRCLE
  8
_1-1_
  6
CONTINUOUS
 62
    7
 10
131.40700056746201
 20
109.76530745222763
 40
0.059781551763818
  0
CIRCLE
  8
_1-1_
  6
CONTINUOUS
 62
    7
 10
132.19069197371201
 20
110.21744186813767
 40
0.059781551763818
  0
CIRCLE
  8
_1-1_
  6
CONTINUOUS
 62
    7
 10
129.53819893501901
 20
109.52416497307856
 40
0.059781551763818
  0
CIRCLE
  8
_1-1_
  6
CONTINUOUS
 62
    7
 10
132.86653673326649
 20
113.3530735325169
 40
0.059781551763818
  0
CIRCLE
  8
_1-1_
  6
CONTINUOUS
 62
    7
 10
133.49952491554055
 20
113.98604934279983
 40
0.059781551763818
  0
CIRCLE
  8
_1-1_
  6
CONTINUOUS
 62
    7
 10
132.77610985008448
 20
112.9612278293919
 40
0.059781551763818
  0
CIRCLE
  8
_1-1_
  6
CONTINUOUS
 62
    7
 10
132.14313403980154
 20
112.47895524308488
 40
0.059781551763818
  0
CIRCLE
  8
_1-1_
  6
CONTINUOUS
 62
    7
 10
133.0473904996305
 20
112.11724771035685
 40
0.059781551763818
  0
CIRCLE
  8
_1-1_
  6
CONTINUOUS
 62
    7
 10
134.13250072582349
 20
112.4488047006968
 40
0.059781551763818
  0
CIRCLE
  8
_1-1_
  6
CONTINUOUS
 62
    7
 10
133.8310819058805
 20
112.14739825274494
 40
0.059781551763818
  0
CIRCLE
  8
_1-1_
  6
CONTINUOUS
 62
    7
 10
133.19809372360643
 20
113.89563483160896
 40
0.059781551763818
  0
CIRCLE
  8
_1-1_
  6
CONTINUOUS
 62
    7
 10
134.73533836570948
 20
113.89563483160896
 40
0.059781551763818
  0
CIRCLE
  8
_1-1_
  6
CONTINUOUS
 62
    7
 10
135.00663138724664
 20
113.50378912848396
 40
0.059781551763818
  0
CIRCLE
  8
_1-1_
  6
CONTINUOUS
 62
    7
 10
136.06159107105154
 20
113.71478106524494
 40
0.059781551763818
  0
CIRCLE
  8
_1-1_
  6
CONTINUOUS
 62
    7
 10
136.45343677417654
 20
112.87080094620988
 40
0.059781551763818
  0
CIRCLE
  8
_1-1_
  6
CONTINUOUS
 62
    7
 10
137.23712818042654
 20
113.32293536211994
 40
0.059781551763818
  0
CIRCLE
  8
_1-1_
  6
CONTINUOUS
 62
    7
 10
134.58463514173354
 20
112.62965846706082
 40
0.059781551763818
  0
CIRCLE
  8
_1-1_
  6
CONTINUOUS
 62
    7
 10
139.46571968697214
 20
116.0703958047403
 40
0.059781551763818
  0
CIRCLE
  8
_1-1_
  6
CONTINUOUS
 62
    7
 10
140.09869549725508
 20
116.70338398701436
 40
0.059781551763818
  0
CIRCLE
  8
_1-1_
  6
CONTINUOUS
 62
    7
 10
139.37529280379013
 20
115.6785501016153
 40
0.059781551763818
  0
CIRCLE
  8
_1-1_
  6
CONTINUOUS
 62
    7
 10
138.74230462151604
 20
115.19627751530828
 40
0.059781551763818
  0
CIRCLE
  8
_1-1_
  6
CONTINUOUS
 62
    7
 10
139.64657345333615
 20
114.83456998258025
 40
0.059781551763818
  0
CIRCLE
  8
_1-1_
  6
CONTINUOUS
 62
    7
 10
140.73169605152029
 20
115.16613934491133
 40
0.059781551763818
  0
CIRCLE
  8
_1-1_
  6
CONTINUOUS
 62
    7
 10
140.43026485958615
 20
114.8647081529772
 40
0.059781551763818
  0
CIRCLE
  8
_1-1_
  6
CONTINUOUS
 62
    7
 10
139.79728904930323
 20
116.61294473184122
 40
0.059781551763818
  0
CIRCLE
  8
_1-1_
  6
CONTINUOUS
 62
    7
 10
141.33453369140625
 20
116.61294473184122
 40
0.059781551763818
  0
CIRCLE
  8
_1-1_
  6
CONTINUOUS
 62
    7
 10
141.60580196896115
 20
116.22109902871622
 40
0.059781551763818
  0
CIRCLE
  8
_1-1_
  6
CONTINUOUS
 62
    7
 10
142.66078639674831
 20
116.43210333746833
 40
0.059781551763818
  0
CIRCLE
  8
_1-1_
  6
CONTINUOUS
 62
    7
 10
143.05263209987331
 20
115.58812321843328
 40
0.059781551763818
  0
CIRCLE
  8
_1-1_
  6
CONTINUOUS
 62
    7
 10
143.83632350612331
 20
116.0402452623522
 40
0.059781551763818
  0
CIRCLE
  8
_1-1_
  6
CONTINUOUS
 62
    7
 10
141.18381809543919
 20
115.34699311127534
 40
0.059781551763818
  0
CIRCLE
  8
_1-1_
  6
CONTINUOUS
 62
    7
 10
144.31806409681167
 20
118.20543031434755
 40
0.059781551763818
  0
CIRCLE
  8
_1-1_
  6
CONTINUOUS
 62
    7
 10
144.95103990709461
 20
118.83841849662163
 40
0.059781551763818
  0
CIRCLE
  8
_1-1_
  6
CONTINUOUS
 62
    7
 10
144.22763721362966
 20
117.81358461122255
 40
0.059781551763818
  0
CIRCLE
  8
_1-1_
  6
CONTINUOUS
 62
    7
 10
143.59464903135557
 20
117.33131202491555
 40
0.059781551763818
  0
CIRCLE
  8
_1-1_
  6
CONTINUOUS
 62
    7
 10
144.49891786317568
 20
116.9696044921875
 40
0.059781551763818
  0
CIRCLE
  8
_1-1_
  6
CONTINUOUS
 62
    7
 10
145.58404046135982
 20
117.30117385451858
 40
0.059781551763818
  0
CIRCLE
  8
_1-1_
  6
CONTINUOUS
 62
    7
 10
145.28260926942568
 20
116.99974266258447
 40
0.059781551763818
  0
CIRCLE
  8
_1-1_
  6
CONTINUOUS
 62
    7
 10
144.64963345914273
 20
118.74797924144849
 40
0.059781551763818
  0
CIRCLE
  8
_1-1_
  6
CONTINUOUS
 62
    7
 10
146.18687810124578
 20
118.74797924144849
 40
0.059781551763818
  0
CIRCLE
  8
_1-1_
  6
CONTINUOUS
 62
    7
 10
146.45814637880068
 20
118.35613353832349
 40
0.059781551763818
  0
CIRCLE
  8
_1-1_
  6
CONTINUOUS
 62
    7
 10
147.51313080658784
 20
118.5671378470756
 40
0.059781551763818
  0
CIRCLE
  8
_1-1_
  6
CONTINUOUS
 62
    7
 10
147.90497650971284
 20
117.72315772804055
 40
0.059781551763818
  0
CIRCLE
  8
_1-1_
  6
CONTINUOUS
 62
    7
 10
148.68866791596284
 20
118.17527977195947
 40
0.059781551763818
  0
CIRCLE
  8
_1-1_
  6
CONTINUOUS
 62
    7
 10
146.03616250527872
 20
117.4820276208826
 40
0.059781551763818
  0
CIRCLE
  8
_1-1_
  6
CONTINUOUS
 62
    7
 10
148.1999495222762
 20
120.34045245196369
 40
0.059781551763818
  0
CIRCLE
  8
_1-1_
  6
CONTINUOUS
 62
    7
 10
148.83292533255914
 20
120.97342826224663
 40
0.059781551763818
  0
CIRCLE
  8
_1-1_
  6
CONTINUOUS
 62
    7
 10
148.10952263909419
 20
119.94860674883869
 40
0.059781551763818
  0
CIRCLE
  8
_1-1_
  6
CONTINUOUS
 62
    7
 10
147.4765344568201
 20
119.46633416253168
 40
0.059781551763818
  0
CIRCLE
  8
_1-1_
  6
CONTINUOUS
 62
    7
 10
148.38080328864021
 20
119.10462662980363
 40
0.059781551763818
  0
CIRCLE
  8
_1-1_
  6
CONTINUOUS
 62
    7
 10
149.46592588682432
 20
119.43618362014358
 40
0.059781551763818
  0
CIRCLE
  8
_1-1_
  6
CONTINUOUS
 62
    7
 10
149.16449469489021
 20
119.13477717219173
 40
0.059781551763818
  0
CIRCLE
  8
_1-1_
  6
CONTINUOUS
 62
    7
 10
148.53151888460727
 20
120.88301375105576
 40
0.059781551763818
  0
CIRCLE
  8
_1-1_
  6
CONTINUOUS
 62
    7
 10
150.06876352671031
 20
120.88301375105576
 40
0.059781551763818
  0
CIRCLE
  8
_1-1_
  6
CONTINUOUS
 62
    7
 10
150.34003180426521
 20
120.49116804793076
 40
0.059781551763818
  0
CIRCLE
  8
_1-1_
  6
CONTINUOUS
 62
    7
 10
151.39501623205237
 20
120.70215998469173
 40
0.059781551763818
  0
CIRCLE
  8
_1-1_
  6
CONTINUOUS
 62
    7
 10
151.78686193517737
 20
119.85817986565668
 40
0.059781551763818
  0
CIRCLE
  8
_1-1_
  6
CONTINUOUS
 62
    7
 10
152.57055334142737
 20
120.31031428156673
 40
0.059781551763818
  0
CIRCLE
  8
_1-1_
  6
CONTINUOUS
 62
    7
 10
149.91804793074326
 20
119.6170373865076
 40
0.059781551763818
  0
CIRCLE
  8
_1-1_
  6
CONTINUOUS
 62
    7
 10
152.08181020375847
 20
121.50501560520482
 40
0.059781551763818
  0
CIRCLE
  8
_1-1_
  6
CONTINUOUS
 62
    7
 10
152.71478601404138
 20
122.13800378747889
 40
0.059781551763818
  0
CIRCLE
  8
_1-1_
  6
CONTINUOUS
 62
    7
 10
151.99138332057643
 20
121.11316990207982
 40
0.059781551763818
  0
CIRCLE
  8
_1-1_
  6
CONTINUOUS
 62
    7
 10
151.35839513830237
 20
120.63089731577281
 40
0.059781551763818
  0
CIRCLE
  8
_1-1_
  6
CONTINUOUS
 62
    7
 10
152.26266397012247
 20
120.26918978304477
 40
0.059781551763818
  0
CIRCLE
  8
_1-1_
  6
CONTINUOUS
 62
    7
 10
153.34778656830659
 20
120.60075914537585
 40
0.059781551763818
  0
CIRCLE
  8
_1-1_
  6
CONTINUOUS
 62
    7
 10
153.04635537637247
 20
120.29932795344173
 40
0.059781551763818
  0
CIRCLE
  8
_1-1_
  6
CONTINUOUS
 62
    7
 10
152.41337956608953
 20
122.04756453230576
 40
0.059781551763818
  0
CIRCLE
  8
_1-1_
  6
CONTINUOUS
 62
    7
 10
153.95062420819258
 20
122.04756453230576
 40
0.059781551763818
  0
CIRCLE
  8
_1-1_
  6
CONTINUOUS
 62
    7
 10
154.22189248574747
 20
121.65571882918076
 40
0.059781551763818
  0
CIRCLE
  8
_1-1_
  6
CONTINUOUS
 62
    7
 10
155.27687691353464
 20
121.86672313793287
 40
0.059781551763818
  0
CIRCLE
  8
_1-1_
  6
CONTINUOUS
 62
    7
 10
155.66872261665964
 20
121.02274301889781
 40
0.059781551763818
  0
CIRCLE
  8
_1-1_
  6
CONTINUOUS
 62
    7
 10
156.45241402290964
 20
121.47486506281673
 40
0.059781551763818
  0
CIRCLE
  8
_1-1_
  6
CONTINUOUS
 62
    7
 10
153.79990861222552
 20
120.78161291173987
 40
0.059781551763818
  0
CIRCLE
  8
_1-1_
  6
CONTINUOUS
 62
    7
 10
157.90462596996412
 20
124.41642967430322
 40
0.059781551763818
  0
CIRCLE
  8
_1-1_
  6
CONTINUOUS
 62
    7
 10
158.53761415223818
 20
125.04940548458616
 40
0.059781551763818
  0
CIRCLE
  8
_1-1_
  6
CONTINUOUS
 62
    7
 10
157.81419908678211
 20
124.02458397117822
 40
0.059781551763818
  0
CIRCLE
  8
_1-1_
  6
CONTINUOUS
 62
    7
 10
157.18122327649917
 20
123.54231138487121
 40
0.059781551763818
  0
CIRCLE
  8
_1-1_
  6
CONTINUOUS
 62
    7
 10
158.08547973632812
 20
123.18060385214316
 40
0.059781551763818
  0
CIRCLE
  8
_1-1_
  6
CONTINUOUS
 62
    7
 10
159.17058996252112
 20
123.51216084248311
 40
0.059781551763818
  0
CIRCLE
  8
_1-1_
  6
CONTINUOUS
 62
    7
 10
158.86917114257812
 20
123.21075439453125
 40
0.059781551763818
  0
CIRCLE
  8
_1-1_
  6
CONTINUOUS
 62
    7
 10
158.23618296030406
 20
124.95899097339527
 40
0.059781551763818
  0
CIRCLE
  8
_1-1_
  6
CONTINUOUS
 62
    7
 10
159.77342760240711
 20
124.95899097339527
 40
0.059781551763818
  0
CIRCLE
  8
_1-1_
  6
CONTINUOUS
 62
    7
 10
160.04472062394427
 20
124.56714527027027
 40
0.059781551763818
  0
CIRCLE
  8
_1-1_
  6
CONTINUOUS
 62
    7
 10
161.09968030774917
 20
124.77813720703125
 40
0.059781551763818
  0
CIRCLE
  8
_1-1_
  6
CONTINUOUS
 62
    7
 10
161.49152601087417
 20
123.93415708799621
 40
0.059781551763818
  0
CIRCLE
  8
_1-1_
  6
CONTINUOUS
 62
    7
 10
162.27521741712417
 20
124.38629150390625
 40
0.059781551763818
  0
CIRCLE
  8
_1-1_
  6
CONTINUOUS
 62
    7
 10
159.62272437843117
 20
123.69301460884714
 40
0.059781551763818
  0
CIRCLE
  8
_1-1_
  6
CONTINUOUS
 62
    7
 10
163.33925814241977
 20
127.13373957453548
 40
0.059781551763818
  0
CIRCLE
  8
_1-1_
  6
CONTINUOUS
 62
    7
 10
163.97223395270271
 20
127.76671538481843
 40
0.059781551763818
  0
CIRCLE
  8
_1-1_
  6
CONTINUOUS
 62
    7
 10
163.24883125923776
 20
126.74189387141048
 40
0.059781551763818
  0
CIRCLE
  8
_1-1_
  6
CONTINUOUS
 62
    7
 10
162.6158430769637
 20
126.25962128510346
 40
0.059781551763818
  0
CIRCLE
  8
_1-1_
  6
CONTINUOUS
 62
    7
 10
163.5201119087838
 20
125.89791375237543
 40
0.059781551763818
  0
CIRCLE
  8
_1-1_
  6
CONTINUOUS
 62
    7
 10
164.60523450696792
 20
126.22947074271538
 40
0.059781551763818
  0
CIRCLE
  8
_1-1_
  6
CONTINUOUS
 62
    7
 10
164.3038033150338
 20
125.92806429476352
 40
0.059781551763818
  0
CIRCLE
  8
_1-1_
  6
CONTINUOUS
 62
    7
 10
163.67082750475086
 20
127.67630087362754
 40
0.059781551763818
  0
CIRCLE
  8
_1-1_
  6
CONTINUOUS
 62
    7
 10
165.20807214685391
 20
127.67630087362754
 40
0.059781551763818
  0
CIRCLE
  8
_1-1_
  6
CONTINUOUS
 62
    7
 10
165.4793404244088
 20
127.28445517050254
 40
0.059781551763818
  0
CIRCLE
  8
_1-1_
  6
CONTINUOUS
 62
    7
 10
166.53432485219597
 20
127.49544710726352
 40
0.059781551763818
  0
CIRCLE
  8
_1-1_
  6
CONTINUOUS
 62
    7
 10
166.92617055532097
 20
126.65146698822846
 40
0.059781551763818
  0
CIRCLE
  8
_1-1_
  6
CONTINUOUS
 62
    7
 10
167.70986196157097
 20
127.10360140413852
 40
0.059781551763818
  0
CIRCLE
  8
_1-1_
  6
CONTINUOUS
 62
    7
 10
165.05735655088682
 20
126.4103245090794
 40
0.059781551763818
  0
CIRCLE
  8
_1-1_
  6
CONTINUOUS
 62
    7
 10
168.1916025522593
 20
129.85104947476773
 40
0.059781551763818
  0
CIRCLE
  8
_1-1_
  6
CONTINUOUS
 62
    7
 10
168.82457836254224
 20
130.48402528505068
 40
0.059781551763818
  0
CIRCLE
  8
_1-1_
  6
CONTINUOUS
 62
    7
 10
168.10117566907729
 20
129.45920377164273
 40
0.059781551763818
  0
CIRCLE
  8
_1-1_
  6
CONTINUOUS
 62
    7
 10
167.46818748680323
 20
128.97693118533573
 40
0.059781551763818
  0
CIRCLE
  8
_1-1_
  6
CONTINUOUS
 62
    7
 10
168.37245631862331
 20
128.61522365260768
 40
0.059781551763818
  0
CIRCLE
  8
_1-1_
  6
CONTINUOUS
 62
    7
 10
169.45757891680745
 20
128.94678064294763
 40
0.059781551763818
  0
CIRCLE
  8
_1-1_
  6
CONTINUOUS
 62
    7
 10
169.15614772487331
 20
128.64537419499578
 40
0.059781551763818
  0
CIRCLE
  8
_1-1_
  6
CONTINUOUS
 62
    7
 10
168.52317191459039
 20
130.39361077385979
 40
0.059781551763818
  0
CIRCLE
  8
_1-1_
  6
CONTINUOUS
 62
    7
 10
170.06041655669341
 20
130.39361077385979
 40
0.059781551763818
  0
CIRCLE
  8
_1-1_
  6
CONTINUOUS
 62
    7
 10
170.33168483424831
 20
130.00176507073479
 40
0.059781551763818
  0
CIRCLE
  8
_1-1_
  6
CONTINUOUS
 62
    7
 10
171.38666926203547
 20
130.21275700749578
 40
0.059781551763818
  0
CIRCLE
  8
_1-1_
  6
CONTINUOUS
 62
    7
 10
171.77851496516047
 20
129.36877688846073
 40
0.059781551763818
  0
CIRCLE
  8
_1-1_
  6
CONTINUOUS
 62
    7
 10
172.56220637141047
 20
129.82091130437078
 40
0.059781551763818
  0
CIRCLE
  8
_1-1_
  6
CONTINUOUS
 62
    7
 10
169.90970096072635
 20
129.12763440931167
 40
0.059781551763818
  0
CIRCLE
  8
_1-1_
  6
CONTINUOUS
 62
    7
 10
167.99749838339318
 20
131.01561262800888
 40
0.059781551763818
  0
CIRCLE
  8
_1-1_
  6
CONTINUOUS
 62
    7
 10
168.63048656566724
 20
131.64860081028294
 40
0.059781551763818
  0
CIRCLE
  8
_1-1_
  6
CONTINUOUS
 62
    7
 10
167.90707150021115
 20
130.62376692488388
 40
0.059781551763818
  0
CIRCLE
  8
_1-1_
  6
CONTINUOUS
 62
    7
 10
167.27409568992823
 20
130.14149433857688
 40
0.059781551763818
  0
CIRCLE
  8
_1-1_
  6
CONTINUOUS
 62
    7
 10
168.17835214975719
 20
129.77978680584883
 40
0.059781551763818
  0
CIRCLE
  8
_1-1_
  6
CONTINUOUS
 62
    7
 10
169.26346237595018
 20
130.1113561681799
 40
0.059781551763818
  0
CIRCLE
  8
_1-1_
  6
CONTINUOUS
 62
    7
 10
168.96204355600719
 20
129.80992497624578
 40
0.059781551763818
  0
CIRCLE
  8
_1-1_
  6
CONTINUOUS
 62
    7
 10
168.32905537373313
 20
131.55816155510979
 40
0.059781551763818
  0
CIRCLE
  8
_1-1_
  6
CONTINUOUS
 62
    7
 10
169.86630001583615
 20
131.55816155510979
 40
0.059781551763818
  0
CIRCLE
  8
_1-1_
  6
CONTINUOUS
 62
    7
 10
170.13759303737331
 20
131.16631585198479
 40
0.059781551763818
  0
CIRCLE
  8
_1-1_
  6
CONTINUOUS
 62
    7
 10
171.19255272117823
 20
131.37732016073693
 40
0.059781551763818
  0
CIRCLE
  8
_1-1_
  6
CONTINUOUS
 62
    7
 10
171.58439842430323
 20
130.53334004170188
 40
0.059781551763818
  0
CIRCLE
  8
_1-1_
  6
CONTINUOUS
 62
    7
 10
172.36808983055323
 20
130.98546208562078
 40
0.059781551763818
  0
CIRCLE
  8
_1-1_
  6
CONTINUOUS
 62
    7
 10
169.71559679186024
 20
130.29220993454393
 40
0.059781551763818
  0
CIRCLE
  8
_1-1_
  6
CONTINUOUS
 62
    7
 10
174.40258954022383
 20
131.20970442488388
 40
0.059781551763818
  0
CIRCLE
  8
_1-1_
  6
CONTINUOUS
 62
    7
 10
175.03556535050677
 20
131.84269260715794
 40
0.059781551763818
  0
CIRCLE
  8
_1-1_
  6
CONTINUOUS
 62
    7
 10
174.31216265704182
 20
130.81785872175888
 40
0.059781551763818
  0
CIRCLE
  8
_1-1_
  6
CONTINUOUS
 62
    7
 10
173.67917447476773
 20
130.33558613545188
 40
0.059781551763818
  0
CIRCLE
  8
_1-1_
  6
CONTINUOUS
 62
    7
 10
174.58344330658784
 20
129.97387860272383
 40
0.059781551763818
  0
CIRCLE
  8
_1-1_
  6
CONTINUOUS
 62
    7
 10
175.66856590477198
 20
130.3054479650549
 40
0.059781551763818
  0
CIRCLE
  8
_1-1_
  6
CONTINUOUS
 62
    7
 10
175.36713471283784
 20
130.00401677312078
 40
0.059781551763818
  0
CIRCLE
  8
_1-1_
  6
CONTINUOUS
 62
    7
 10
174.7341589025549
 20
131.75225335198479
 40
0.059781551763818
  0
CIRCLE
  8
_1-1_
  6
CONTINUOUS
 62
    7
 10
176.27140354465794
 20
131.75225335198479
 40
0.059781551763818
  0
CIRCLE
  8
_1-1_
  6
CONTINUOUS
 62
    7
 10
176.54267182221284
 20
131.36040764885979
 40
0.059781551763818
  0
CIRCLE
  8
_1-1_
  6
CONTINUOUS
 62
    7
 10
177.59765625
 20
131.57141195761193
 40
0.059781551763818
  0
CIRCLE
  8
_1-1_
  6
CONTINUOUS
 62
    7
 10
177.989501953125
 20
130.72743183857688
 40
0.059781551763818
  0
CIRCLE
  8
_1-1_
  6
CONTINUOUS
 62
    7
 10
178.773193359375
 20
131.17955388249578
 40
0.059781551763818
  0
CIRCLE
  8
_1-1_
  6
CONTINUOUS
 62
    7
 10
176.12068794869089
 20
130.48630173141893
 40
0.059781551763818
  0
CIRCLE
  8
_1-1_
  6
CONTINUOUS
 62
    7
 10
184.10727835990289
 20
137.42070378483953
 40
0.059781551763818
  0
CIRCLE
  8
_1-1_
  6
CONTINUOUS
 62
    7
 10
184.74025417018581
 20
138.05367959512247
 40
0.059781551763818
  0
CIRCLE
  8
_1-1_
  6
CONTINUOUS
 62
    7
 10
184.01685147672086
 20
137.02885808171453
 40
0.059781551763818
  0
CIRCLE
  8
_1-1_
  6
CONTINUOUS
 62
    7
 10
183.3838632944468
 20
136.54658549540753
 40
0.059781551763818
  0
CIRCLE
  8
_1-1_
  6
CONTINUOUS
 62
    7
 10
184.2881321262669
 20
136.18487796267948
 40
0.059781551763818
  0
CIRCLE
  8
_1-1_
  6
CONTINUOUS
 62
    7
 10
185.37325472445102
 20
136.51643495301943
 40
0.059781551763818
  0
CIRCLE
  8
_1-1_
  6
CONTINUOUS
 62
    7
 10
185.0718235325169
 20
136.21502850506758
 40
0.059781551763818
  0
CIRCLE
  8
_1-1_
  6
CONTINUOUS
 62
    7
 10
184.43884772223396
 20
137.96326508393159
 40
0.059781551763818
  0
CIRCLE
  8
_1-1_
  6
CONTINUOUS
 62
    7
 10
185.97609236433701
 20
137.96326508393159
 40
0.059781551763818
  0
CIRCLE
  8
_1-1_
  6
CONTINUOUS
 62
    7
 10
186.2473606418919
 20
137.57141938080659
 40
0.059781551763818
  0
CIRCLE
  8
_1-1_
  6
CONTINUOUS
 62
    7
 10
187.30234506967906
 20
137.78241131756758
 40
0.059781551763818
  0
CIRCLE
  8
_1-1_
  6
CONTINUOUS
 62
    7
 10
187.69419077280406
 20
136.93843119853253
 40
0.059781551763818
  0
CIRCLE
  8
_1-1_
  6
CONTINUOUS
 62
    7
 10
188.47788217905406
 20
137.39056561444258
 40
0.059781551763818
  0
CIRCLE
  8
_1-1_
  6
CONTINUOUS
 62
    7
 10
185.82537676836995
 20
136.69728871938347
 40
0.059781551763818
  0
CIRCLE
  8
_1-1_
  6
CONTINUOUS
 62
    7
 10
182.74863578177789
 20
134.50930208773227
 40
0.059781551763818
  0
CIRCLE
  8
_1-1_
  6
CONTINUOUS
 62
    7
 10
183.38161159206081
 20
135.14227789801521
 40
0.059781551763818
  0
CIRCLE
  8
_1-1_
  6
CONTINUOUS
 62
    7
 10
182.65820889859586
 20
134.11745638460727
 40
0.059781551763818
  0
CIRCLE
  8
_1-1_
  6
CONTINUOUS
 62
    7
 10
182.0252207163218
 20
133.63518379830026
 40
0.059781551763818
  0
CIRCLE
  8
_1-1_
  6
CONTINUOUS
 62
    7
 10
182.9294895481419
 20
133.27347626557221
 40
0.059781551763818
  0
CIRCLE
  8
_1-1_
  6
CONTINUOUS
 62
    7
 10
184.01461214632602
 20
133.60503325591216
 40
0.059781551763818
  0
CIRCLE
  8
_1-1_
  6
CONTINUOUS
 62
    7
 10
183.7131809543919
 20
133.30362680796031
 40
0.059781551763818
  0
CIRCLE
  8
_1-1_
  6
CONTINUOUS
 62
    7
 10
183.08020514410896
 20
135.05186338682432
 40
0.059781551763818
  0
CIRCLE
  8
_1-1_
  6
CONTINUOUS
 62
    7
 10
184.61744978621201
 20
135.05186338682432
 40
0.059781551763818
  0
CIRCLE
  8
_1-1_
  6
CONTINUOUS
 62
    7
 10
184.8887180637669
 20
134.66001768369932
 40
0.059781551763818
  0
CIRCLE
  8
_1-1_
  6
CONTINUOUS
 62
    7
 10
185.94370249155406
 20
134.87100962046031
 40
0.059781551763818
  0
CIRCLE
  8
_1-1_
  6
CONTINUOUS
 62
    7
 10
186.33554819467906
 20
134.02702950142526
 40
0.059781551763818
  0
CIRCLE
  8
_1-1_
  6
CONTINUOUS
 62
    7
 10
187.11923960092906
 20
134.47916391733531
 40
0.059781551763818
  0
CIRCLE
  8
_1-1_
  6
CONTINUOUS
 62
    7
 10
184.46673419024495
 20
133.7858870222762
 40
0.059781551763818
  0
CIRCLE
  8
_1-1_
  6
CONTINUOUS
 62
    7
 10
190.70647368559966
 20
138.19707097233953
 40
0.059781551763818
  0
CIRCLE
  8
_1-1_
  6
CONTINUOUS
 62
    7
 10
191.3394494958826
 20
138.83004678262247
 40
0.059781551763818
  0
CIRCLE
  8
_1-1_
  6
CONTINUOUS
 62
    7
 10
190.61604680241766
 20
137.80522526921453
 40
0.059781551763818
  0
CIRCLE
  8
_1-1_
  6
CONTINUOUS
 62
    7
 10
189.98305862014359
 20
137.32295268290753
 40
0.059781551763818
  0
CIRCLE
  8
_1-1_
  6
CONTINUOUS
 62
    7
 10
190.8873274519637
 20
136.96124515017948
 40
0.059781551763818
  0
CIRCLE
  8
_1-1_
  6
CONTINUOUS
 62
    7
 10
191.97245005014781
 20
137.29280214051943
 40
0.059781551763818
  0
CIRCLE
  8
_1-1_
  6
CONTINUOUS
 62
    7
 10
191.6710188582137
 20
136.99139569256758
 40
0.059781551763818
  0
CIRCLE
  8
_1-1_
  6
CONTINUOUS
 62
    7
 10
191.03804304793076
 20
138.73963227143159
 40
0.059781551763818
  0
CIRCLE
  8
_1-1_
  6
CONTINUOUS
 62
    7
 10
192.5752876900338
 20
138.73963227143159
 40
0.059781551763818
  0
CIRCLE
  8
_1-1_
  6
CONTINUOUS
 62
    7
 10
192.8465559675887
 20
138.34778656830659
 40
0.059781551763818
  0
CIRCLE
  8
_1-1_
  6
CONTINUOUS
 62
    7
 10
193.90154039537586
 20
138.55877850506758
 40
0.059781551763818
  0
CIRCLE
  8
_1-1_
  6
CONTINUOUS
 62
    7
 10
194.29338609850086
 20
137.71479838603253
 40
0.059781551763818
  0
CIRCLE
  8
_1-1_
  6
CONTINUOUS
 62
    7
 10
195.07707750475086
 20
138.16693280194258
 40
0.059781551763818
  0
CIRCLE
  8
_1-1_
  6
CONTINUOUS
 62
    7
 10
192.42457209406675
 20
137.47365590688347
 40
0.059781551763818
  0
CIRCLE
  8
_1-1_
  6
CONTINUOUS
 62
    7
 10
193.22969178895693
 20
139.5557382944468
 40
0.059781551763818
  0
CIRCLE
  8
_1-1_
  6
CONTINUOUS
 62
    7
 10
193.86266759923987
 20
140.18871410472974
 40
0.059781551763818
  0
CIRCLE
  8
_1-1_
  6
CONTINUOUS
 62
    7
 10
193.13926490577492
 20
139.1638925913218
 40
0.059781551763818
  0
CIRCLE
  8
_1-1_
  6
CONTINUOUS
 62
    7
 10
192.50627672350086
 20
138.68162000501479
 40
0.059781551763818
  0
CIRCLE
  8
_1-1_
  6
CONTINUOUS
 62
    7
 10
193.41054555532097
 20
138.31991247228675
 40
0.059781551763818
  0
CIRCLE
  8
_1-1_
  6
CONTINUOUS
 62
    7
 10
194.49566815350508
 20
138.65146946262669
 40
0.059781551763818
  0
CIRCLE
  8
_1-1_
  6
CONTINUOUS
 62
    7
 10
194.19423696157097
 20
138.35006301467484
 40
0.059781551763818
  0
CIRCLE
  8
_1-1_
  6
CONTINUOUS
 62
    7
 10
193.56126115128802
 20
140.09829959353885
 40
0.059781551763818
  0
CIRCLE
  8
_1-1_
  6
CONTINUOUS
 62
    7
 10
195.09850579339107
 20
140.09829959353885
 40
0.059781551763818
  0
CIRCLE
  8
_1-1_
  6
CONTINUOUS
 62
    7
 10
195.36977407094597
 20
139.70645389041385
 40
0.059781551763818
  0
CIRCLE
  8
_1-1_
  6
CONTINUOUS
 62
    7
 10
196.42475849873313
 20
139.91744582717484
 40
0.059781551763818
  0
CIRCLE
  8
_1-1_
  6
CONTINUOUS
 62
    7
 10
196.81660420185813
 20
139.07346570813979
 40
0.059781551763818
  0
CIRCLE
  8
_1-1_
  6
CONTINUOUS
 62
    7
 10
197.60029560810813
 20
139.52560012404984
 40
0.059781551763818
  0
CIRCLE
  8
_1-1_
  6
CONTINUOUS
 62
    7
 10
194.94779019742398
 20
138.83232322899073
 40
0.059781551763818
  0
CIRCLE
  8
_1-1_
  6
CONTINUOUS
 62
    7
 10
198.47021979254646
 20
142.27304819467906
 40
0.059781551763818
  0
CIRCLE
  8
_1-1_
  6
CONTINUOUS
 62
    7
 10
199.1031956028294
 20
142.90602400496201
 40
0.059781551763818
  0
CIRCLE
  8
_1-1_
  6
CONTINUOUS
 62
    7
 10
198.37979290936445
 20
141.88120249155406
 40
0.059781551763818
  0
CIRCLE
  8
_1-1_
  6
CONTINUOUS
 62
    7
 10
197.74680472709039
 20
141.39892990524706
 40
0.059781551763818
  0
CIRCLE
  8
_1-1_
  6
CONTINUOUS
 62
    7
 10
198.6510735589105
 20
141.03722237251901
 40
0.059781551763818
  0
CIRCLE
  8
_1-1_
  6
CONTINUOUS
 62
    7
 10
199.73619615709461
 20
141.36877936285896
 40
0.059781551763818
  0
CIRCLE
  8
_1-1_
  6
CONTINUOUS
 62
    7
 10
199.4347649651605
 20
141.06737291490711
 40
0.059781551763818
  0
CIRCLE
  8
_1-1_
  6
CONTINUOUS
 62
    7
 10
198.80178915487755
 20
142.81560949377112
 40
0.059781551763818
  0
CIRCLE
  8
_1-1_
  6
CONTINUOUS
 62
    7
 10
200.33903379698057
 20
142.81560949377112
 40
0.059781551763818
  0
CIRCLE
  8
_1-1_
  6
CONTINUOUS
 62
    7
 10
200.6103020745355
 20
142.42376379064612
 40
0.059781551763818
  0
CIRCLE
  8
_1-1_
  6
CONTINUOUS
 62
    7
 10
201.66528650232266
 20
142.63475572740711
 40
0.059781551763818
  0
CIRCLE
  8
_1-1_
  6
CONTINUOUS
 62
    7
 10
202.05713220544766
 20
141.79077560837206
 40
0.059781551763818
  0
CIRCLE
  8
_1-1_
  6
CONTINUOUS
 62
    7
 10
202.84082361169766
 20
142.24291002428211
 40
0.059781551763818
  0
CIRCLE
  8
_1-1_
  6
CONTINUOUS
 62
    7
 10
200.18831820101352
 20
141.54963312922297
 40
0.059781551763818
  0
CIRCLE
  8
_1-1_
  6
CONTINUOUS
 62
    7
 10
196.33518528293919
 20
142.27304819467906
 40
0.059781551763818
  0
CIRCLE
  8
_1-1_
  6
CONTINUOUS
 62
    7
 10
196.96816109322214
 20
142.90602400496201
 40
0.059781551763818
  0
CIRCLE
  8
_1-1_
  6
CONTINUOUS
 62
    7
 10
196.24475839975719
 20
141.88120249155406
 40
0.059781551763818
  0
CIRCLE
  8
_1-1_
  6
CONTINUOUS
 62
    7
 10
195.61177021748313
 20
141.39892990524706
 40
0.059781551763818
  0
CIRCLE
  8
_1-1_
  6
CONTINUOUS
 62
    7
 10
196.51603904930323
 20
141.03722237251901
 40
0.059781551763818
  0
CIRCLE
  8
_1-1_
  6
CONTINUOUS
 62
    7
 10
197.60116164748734
 20
141.36877936285896
 40
0.059781551763818
  0
CIRCLE
  8
_1-1_
  6
CONTINUOUS
 62
    7
 10
197.29973045555323
 20
141.06737291490711
 40
0.059781551763818
  0
CIRCLE
  8
_1-1_
  6
CONTINUOUS
 62
    7
 10
196.66675464527029
 20
142.81560949377112
 40
0.059781551763818
  0
CIRCLE
  8
_1-1_
  6
CONTINUOUS
 62
    7
 10
198.20399928737334
 20
142.81560949377112
 40
0.059781551763818
  0
CIRCLE
  8
_1-1_
  6
CONTINUOUS
 62
    7
 10
198.47526756492823
 20
142.42376379064612
 40
0.059781551763818
  0
CIRCLE
  8
_1-1_
  6
CONTINUOUS
 62
    7
 10
199.53025199271539
 20
142.63475572740711
 40
0.059781551763818
  0
CIRCLE
  8
_1-1_
  6
CONTINUOUS
 62
    7
 10
199.92209769584039
 20
141.79077560837206
 40
0.059781551763818
  0
CIRCLE
  8
_1-1_
  6
CONTINUOUS
 62
    7
 10
200.70578910209039
 20
142.24291002428211
 40
0.059781551763818
  0
CIRCLE
  8
_1-1_
  6
CONTINUOUS
 62
    7
 10
198.05328369140625
 20
141.54963312922297
 40
0.059781551763818
  0
CIRCLE
  8
_1-1_
  6
CONTINUOUS
 62
    7
 10
205.06940274625211
 20
144.79626629803633
 40
0.059781551763818
  0
CIRCLE
  8
_1-1_
  6
CONTINUOUS
 62
    7
 10
205.7023909285262
 20
145.42924210831927
 40
0.059781551763818
  0
CIRCLE
  8
_1-1_
  6
CONTINUOUS
 62
    7
 10
204.9789758630701
 20
144.40442059491133
 40
0.059781551763818
  0
CIRCLE
  8
_1-1_
  6
CONTINUOUS
 62
    7
 10
204.34600005278716
 20
143.92214800860432
 40
0.059781551763818
  0
CIRCLE
  8
_1-1_
  6
CONTINUOUS
 62
    7
 10
205.25025651261615
 20
143.56044047587628
 40
0.059781551763818
  0
CIRCLE
  8
_1-1_
  6
CONTINUOUS
 62
    7
 10
206.33536673880914
 20
143.89199746621622
 40
0.059781551763818
  0
CIRCLE
  8
_1-1_
  6
CONTINUOUS
 62
    7
 10
206.03394791886615
 20
143.59059101826438
 40
0.059781551763818
  0
CIRCLE
  8
_1-1_
  6
CONTINUOUS
 62
    7
 10
205.40095973659209
 20
145.33882759712839
 40
0.059781551763818
  0
CIRCLE
  8
_1-1_
  6
CONTINUOUS
 62
    7
 10
206.9382043786951
 20
145.33882759712839
 40
0.059781551763818
  0
CIRCLE
  8
_1-1_
  6
CONTINUOUS
 62
    7
 10
207.20949740023227
 20
144.94698189400339
 40
0.059781551763818
  0
CIRCLE
  8
_1-1_
  6
CONTINUOUS
 62
    7
 10
208.26445708403716
 20
145.15797383076438
 40
0.059781551763818
  0
CIRCLE
  8
_1-1_
  6
CONTINUOUS
 62
    7
 10
208.65630278716216
 20
144.31399371172932
 40
0.059781551763818
  0
CIRCLE
  8
_1-1_
  6
CONTINUOUS
 62
    7
 10
209.43999419341216
 20
144.76612812763938
 40
0.059781551763818
  0
CIRCLE
  8
_1-1_
  6
CONTINUOUS
 62
    7
 10
206.78750115471919
 20
144.07285123258023
 40
0.059781551763818
  0
CIRCLE
  8
_1-1_
  6
CONTINUOUS
 62
    7
 10
208.56309220597552
 20
148.67813935150971
 40
0.059781551763818
  0
CIRCLE
  8
_1-1_
  6
CONTINUOUS
 62
    7
 10
209.19606801625847
 20
149.3111275337838
 40
0.059781551763818
  0
CIRCLE
  8
_1-1_
  6
CONTINUOUS
 62
    7
 10
208.47265295080237
 20
148.28629364838471
 40
0.059781551763818
  0
CIRCLE
  8
_1-1_
  6
CONTINUOUS
 62
    7
 10
207.83967714051943
 20
147.80402106207771
 40
0.059781551763818
  0
CIRCLE
  8
_1-1_
  6
CONTINUOUS
 62
    7
 10
208.74394597233953
 20
147.44231352934966
 40
0.059781551763818
  0
CIRCLE
  8
_1-1_
  6
CONTINUOUS
 62
    7
 10
209.82906857052367
 20
147.77388289168076
 40
0.059781551763818
  0
CIRCLE
  8
_1-1_
  6
CONTINUOUS
 62
    7
 10
209.52763737858953
 20
147.47245169974664
 40
0.059781551763818
  0
CIRCLE
  8
_1-1_
  6
CONTINUOUS
 62
    7
 10
208.89466156830659
 20
149.22068827861065
 40
0.059781551763818
  0
CIRCLE
  8
_1-1_
  6
CONTINUOUS
 62
    7
 10
210.43190621040964
 20
149.22068827861065
 40
0.059781551763818
  0
CIRCLE
  8
_1-1_
  6
CONTINUOUS
 62
    7
 10
210.70317448796453
 20
148.82884257548565
 40
0.059781551763818
  0
CIRCLE
  8
_1-1_
  6
CONTINUOUS
 62
    7
 10
211.75815891575169
 20
149.03984688423776
 40
0.059781551763818
  0
CIRCLE
  8
_1-1_
  6
CONTINUOUS
 62
    7
 10
212.15000461887669
 20
148.19586676520271
 40
0.059781551763818
  0
CIRCLE
  8
_1-1_
  6
CONTINUOUS
 62
    7
 10
212.93369602512669
 20
148.64798880912164
 40
0.059781551763818
  0
CIRCLE
  8
_1-1_
  6
CONTINUOUS
 62
    7
 10
210.28119061444258
 20
147.95473665804477
 40
0.059781551763818
  0
CIRCLE
  8
_1-1_
  6
CONTINUOUS
 62
    7
 10
210.50401017472552
 20
148.28995575775971
 40
0.059781551763818
  0
CIRCLE
  8
_1-1_
  6
CONTINUOUS
 62
    7
 10
211.13698598500847
 20
148.9229439400338
 40
0.059781551763818
  0
CIRCLE
  8
_1-1_
  6
CONTINUOUS
 62
    7
 10
210.41357091955237
 20
147.89811005463471
 40
0.059781551763818
  0
CIRCLE
  8
_1-1_
  6
CONTINUOUS
 62
    7
 10
209.78059510926943
 20
147.41583746832771
 40
0.059781551763818
  0
CIRCLE
  8
_1-1_
  6
CONTINUOUS
 62
    7
 10
210.68486394108953
 20
147.05412993559966
 40
0.059781551763818
  0
CIRCLE
  8
_1-1_
  6
CONTINUOUS
 62
    7
 10
211.76998653927367
 20
147.38569929793076
 40
0.059781551763818
  0
CIRCLE
  8
_1-1_
  6
CONTINUOUS
 62
    7
 10
211.46855534733953
 20
147.08426810599664
 40
0.059781551763818
  0
CIRCLE
  8
_1-1_
  6
CONTINUOUS
 62
    7
 10
210.83557953705659
 20
148.83250468486065
 40
0.059781551763818
  0
CIRCLE
  8
_1-1_
  6
CONTINUOUS
 62
    7
 10
212.37282417915964
 20
148.83250468486065
 40
0.059781551763818
  0
CIRCLE
  8
_1-1_
  6
CONTINUOUS
 62
    7
 10
212.64409245671453
 20
148.44065898173565
 40
0.059781551763818
  0
CIRCLE
  8
_1-1_
  6
CONTINUOUS
 62
    7
 10
213.69907688450169
 20
148.65166329048776
 40
0.059781551763818
  0
CIRCLE
  8
_1-1_
  6
CONTINUOUS
 62
    7
 10
214.09092258762669
 20
147.80768317145271
 40
0.059781551763818
  0
CIRCLE
  8
_1-1_
  6
CONTINUOUS
 62
    7
 10
214.87461399387669
 20
148.25980521537164
 40
0.059781551763818
  0
CIRCLE
  8
_1-1_
  6
CONTINUOUS
 62
    7
 10
212.22210858319258
 20
147.56655306429477
 40
0.059781551763818
  0
CIRCLE
  8
_1-1_
  6
CONTINUOUS
 62
    7
 10
213.60952841269005
 20
149.64861070787586
 40
0.059781551763818
  0
CIRCLE
  8
_1-1_
  6
CONTINUOUS
 62
    7
 10
214.242504222973
 20
150.2815865181588
 40
0.059781551763818
  0
CIRCLE
  8
_1-1_
  6
CONTINUOUS
 62
    7
 10
213.5190891575169
 20
149.25676500475086
 40
0.059781551763818
  0
CIRCLE
  8
_1-1_
  6
CONTINUOUS
 62
    7
 10
212.88611334723396
 20
148.77449241844386
 40
0.059781551763818
  0
CIRCLE
  8
_1-1_
  6
CONTINUOUS
 62
    7
 10
213.79038217905406
 20
148.41278488571581
 40
0.059781551763818
  0
CIRCLE
  8
_1-1_
  6
CONTINUOUS
 62
    7
 10
214.87550477723818
 20
148.74434187605576
 40
0.059781551763818
  0
CIRCLE
  8
_1-1_
  6
CONTINUOUS
 62
    7
 10
214.57407358530406
 20
148.44293542810388
 40
0.059781551763818
  0
CIRCLE
  8
_1-1_
  6
CONTINUOUS
 62
    7
 10
213.94109777502112
 20
150.19117200696792
 40
0.059781551763818
  0
CIRCLE
  8
_1-1_
  6
CONTINUOUS
 62
    7
 10
215.47834241712417
 20
150.19117200696792
 40
0.059781551763818
  0
CIRCLE
  8
_1-1_
  6
CONTINUOUS
 62
    7
 10
215.74961069467906
 20
149.79932630384292
 40
0.059781551763818
  0
CIRCLE
  8
_1-1_
  6
CONTINUOUS
 62
    7
 10
216.80459512246622
 20
150.01031824060388
 40
0.059781551763818
  0
CIRCLE
  8
_1-1_
  6
CONTINUOUS
 62
    7
 10
217.19644082559122
 20
149.16633812156886
 40
0.059781551763818
  0
CIRCLE
  8
_1-1_
  6
CONTINUOUS
 62
    7
 10
217.98013223184122
 20
149.61847253747888
 40
0.059781551763818
  0
CIRCLE
  8
_1-1_
  6
CONTINUOUS
 62
    7
 10
215.32762682115711
 20
148.92519564241977
 40
0.059781551763818
  0
CIRCLE
  8
_1-1_
  6
CONTINUOUS
 62
    7
 10
216.90911370354732
 20
151.20135745486698
 40
0.059781551763818
  0
CIRCLE
  8
_1-1_
  6
CONTINUOUS
 62
    7
 10
217.54208951383026
 20
151.83434563714107
 40
0.059781551763818
  0
CIRCLE
  8
_1-1_
  6
CONTINUOUS
 62
    7
 10
216.81869919235643
 20
150.80951175174198
 40
0.059781551763818
  0
CIRCLE
  8
_1-1_
  6
CONTINUOUS
 62
    7
 10
216.18569863809122
 20
150.32723916543497
 40
0.059781551763818
  0
CIRCLE
  8
_1-1_
  6
CONTINUOUS
 62
    7
 10
217.08996746991133
 20
149.96553163270693
 40
0.059781551763818
  0
CIRCLE
  8
_1-1_
  6
CONTINUOUS
 62
    7
 10
218.17509006809544
 20
150.29710099503802
 40
0.059781551763818
  0
CIRCLE
  8
_1-1_
  6
CONTINUOUS
 62
    7
 10
217.87365887616133
 20
149.99566980310388
 40
0.059781551763818
  0
CIRCLE
  8
_1-1_
  6
CONTINUOUS
 62
    7
 10
217.24068306587839
 20
151.74390638196792
 40
0.059781551763818
  0
CIRCLE
  8
_1-1_
  6
CONTINUOUS
 62
    7
 10
218.77792770798143
 20
151.74390638196792
 40
0.059781551763818
  0
CIRCLE
  8
_1-1_
  6
CONTINUOUS
 62
    7
 10
219.04919598553633
 20
151.35206067884292
 40
0.059781551763818
  0
CIRCLE
  8
_1-1_
  6
CONTINUOUS
 62
    7
 10
220.10418041332349
 20
151.56306498759503
 40
0.059781551763818
  0
CIRCLE
  8
_1-1_
  6
CONTINUOUS
 62
    7
 10
220.49602611644849
 20
150.71908486855997
 40
0.059781551763818
  0
CIRCLE
  8
_1-1_
  6
CONTINUOUS
 62
    7
 10
221.27971752269849
 20
151.17120691247888
 40
0.059781551763818
  0
CIRCLE
  8
_1-1_
  6
CONTINUOUS
 62
    7
 10
218.62721211201438
 20
150.47795476140203
 40
0.059781551763818
  0
CIRCLE
  8
_1-1_
  6
CONTINUOUS
 62
    7
 10
220.59688258815459
 20
152.56001240498313
 40
0.059781551763818
  0
CIRCLE
  8
_1-1_
  6
CONTINUOUS
 62
    7
 10
221.2298583984375
 20
153.19298821526607
 40
0.059781551763818
  0
CIRCLE
  8
_1-1_
  6
CONTINUOUS
 62
    7
 10
220.50644333298143
 20
152.16816670185813
 40
0.059781551763818
  0
CIRCLE
  8
_1-1_
  6
CONTINUOUS
 62
    7
 10
219.87346752269849
 20
151.68589411555109
 40
0.059781551763818
  0
CIRCLE
  8
_1-1_
  6
CONTINUOUS
 62
    7
 10
220.77773635451859
 20
151.32418658282307
 40
0.059781551763818
  0
CIRCLE
  8
_1-1_
  6
CONTINUOUS
 62
    7
 10
221.86285895270271
 20
151.65574357316302
 40
0.059781551763818
  0
CIRCLE
  8
_1-1_
  6
CONTINUOUS
 62
    7
 10
221.56142776076859
 20
151.35433712521115
 40
0.059781551763818
  0
CIRCLE
  8
_1-1_
  6
CONTINUOUS
 62
    7
 10
220.92845195048565
 20
153.10257370407518
 40
0.059781551763818
  0
CIRCLE
  8
_1-1_
  6
CONTINUOUS
 62
    7
 10
222.4656965925887
 20
153.10257370407518
 40
0.059781551763818
  0
CIRCLE
  8
_1-1_
  6
CONTINUOUS
 62
    7
 10
222.73696487014359
 20
152.71072800095018
 40
0.059781551763818
  0
CIRCLE
  8
_1-1_
  6
CONTINUOUS
 62
    7
 10
223.79194929793076
 20
152.92171993771115
 40
0.059781551763818
  0
CIRCLE
  8
_1-1_
  6
CONTINUOUS
 62
    7
 10
224.18379500105576
 20
152.07773981867609
 40
0.059781551763818
  0
CIRCLE
  8
_1-1_
  6
CONTINUOUS
 62
    7
 10
224.96748640730576
 20
152.52987423458615
 40
0.059781551763818
  0
CIRCLE
  8
_1-1_
  6
CONTINUOUS
 62
    7
 10
222.31498099662164
 20
151.83659733952703
 40
0.059781551763818
  0
CIRCLE
  8
_1-1_
  6
CONTINUOUS
 62
    7
 10
224.47876801361909
 20
154.11277152396539
 40
0.059781551763818
  0
CIRCLE
  8
_1-1_
  6
CONTINUOUS
 62
    7
 10
225.11174382390203
 20
154.74574733424831
 40
0.059781551763818
  0
CIRCLE
  8
_1-1_
  6
CONTINUOUS
 62
    7
 10
224.38832875844597
 20
153.72092582084039
 40
0.059781551763818
  0
CIRCLE
  8
_1-1_
  6
CONTINUOUS
 62
    7
 10
223.75535294816302
 20
153.23865323453336
 40
0.059781551763818
  0
CIRCLE
  8
_1-1_
  6
CONTINUOUS
 62
    7
 10
224.65962177998313
 20
152.87694570180534
 40
0.059781551763818
  0
CIRCLE
  8
_1-1_
  6
CONTINUOUS
 62
    7
 10
225.74474437816724
 20
153.20850269214529
 40
0.059781551763818
  0
CIRCLE
  8
_1-1_
  6
CONTINUOUS
 62
    7
 10
225.44331318623313
 20
152.90709624419341
 40
0.059781551763818
  0
CIRCLE
  8
_1-1_
  6
CONTINUOUS
 62
    7
 10
224.81033737595018
 20
154.65533282305745
 40
0.059781551763818
  0
CIRCLE
  8
_1-1_
  6
CONTINUOUS
 62
    7
 10
226.34758201805323
 20
154.65533282305745
 40
0.059781551763818
  0
CIRCLE
  8
_1-1_
  6
CONTINUOUS
 62
    7
 10
226.61885029560813
 20
154.26348711993245
 40
0.059781551763818
  0
CIRCLE
  8
_1-1_
  6
CONTINUOUS
 62
    7
 10
227.67383472339529
 20
154.47447905669341
 40
0.059781551763818
  0
CIRCLE
  8
_1-1_
  6
CONTINUOUS
 62
    7
 10
228.06568042652029
 20
153.63049893765836
 40
0.059781551763818
  0
CIRCLE
  8
_1-1_
  6
CONTINUOUS
 62
    7
 10
228.84937183277029
 20
154.08263335356841
 40
0.059781551763818
  0
CIRCLE
  8
_1-1_
  6
CONTINUOUS
 62
    7
 10
226.19686642208617
 20
153.3893564585093
 40
0.059781551763818
  0
CIRCLE
  8
_1-1_
  6
CONTINUOUS
 62
    7
 10
228.16656164220862
 20
154.88913871146539
 40
0.059781551763818
  0
CIRCLE
  8
_1-1_
  6
CONTINUOUS
 62
    7
 10
228.79953745249156
 20
155.52211452174831
 40
0.059781551763818
  0
CIRCLE
  8
_1-1_
  6
CONTINUOUS
 62
    7
 10
228.0761223870355
 20
154.49729300834039
 40
0.059781551763818
  0
CIRCLE
  8
_1-1_
  6
CONTINUOUS
 62
    7
 10
227.44314657675255
 20
154.01502042203336
 40
0.059781551763818
  0
CIRCLE
  8
_1-1_
  6
CONTINUOUS
 62
    7
 10
228.34741540857266
 20
153.65331288930534
 40
0.059781551763818
  0
CIRCLE
  8
_1-1_
  6
CONTINUOUS
 62
    7
 10
229.43253800675677
 20
153.98486987964529
 40
0.059781551763818
  0
CIRCLE
  8
_1-1_
  6
CONTINUOUS
 62
    7
 10
229.13110681482266
 20
153.68346343169341
 40
0.059781551763818
  0
CIRCLE
  8
_1-1_
  6
CONTINUOUS
 62
    7
 10
228.49813100453972
 20
155.43170001055745
 40
0.059781551763818
  0
CIRCLE
  8
_1-1_
  6
CONTINUOUS
 62
    7
 10
230.03537564664276
 20
155.43170001055745
 40
0.059781551763818
  0
CIRCLE
  8
_1-1_
  6
CONTINUOUS
 62
    7
 10
230.30664392419766
 20
155.03985430743245
 40
0.059781551763818
  0
CIRCLE
  8
_1-1_
  6
CONTINUOUS
 62
    7
 10
231.36162835198482
 20
155.25084624419341
 40
0.059781551763818
  0
CIRCLE
  8
_1-1_
  6
CONTINUOUS
 62
    7
 10
231.75347405510982
 20
154.40686612515836
 40
0.059781551763818
  0
CIRCLE
  8
_1-1_
  6
CONTINUOUS
 62
    7
 10
232.53716546135982
 20
154.85900054106841
 40
0.059781551763818
  0
CIRCLE
  8
_1-1_
  6
CONTINUOUS
 62
    7
 10
229.88466005067568
 20
154.1657236460093
 40
0.059781551763818
  0
CIRCLE
  8
_1-1_
  6
CONTINUOUS
 62
    7
 10
232.04842232369089
 20
157.60644861169763
 40
0.059781551763818
  0
CIRCLE
  8
_1-1_
  6
CONTINUOUS
 62
    7
 10
232.68139813397383
 20
158.23942442198057
 40
0.059781551763818
  0
CIRCLE
  8
_1-1_
  6
CONTINUOUS
 62
    7
 10
231.9580078125
 20
157.21460290857263
 40
0.059781551763818
  0
CIRCLE
  8
_1-1_
  6
CONTINUOUS
 62
    7
 10
231.32500725823482
 20
156.73233032226562
 40
0.059781551763818
  0
CIRCLE
  8
_1-1_
  6
CONTINUOUS
 62
    7
 10
232.22927609005492
 20
156.37062278953761
 40
0.059781551763818
  0
CIRCLE
  8
_1-1_
  6
CONTINUOUS
 62
    7
 10
233.31439868823904
 20
156.70217977987755
 40
0.059781551763818
  0
CIRCLE
  8
_1-1_
  6
CONTINUOUS
 62
    7
 10
233.01296749630492
 20
156.40077333192568
 40
0.059781551763818
  0
CIRCLE
  8
_1-1_
  6
CONTINUOUS
 62
    7
 10
232.37999168602198
 20
158.14900991078972
 40
0.059781551763818
  0
CIRCLE
  8
_1-1_
  6
CONTINUOUS
 62
    7
 10
233.917236328125
 20
158.14900991078972
 40
0.059781551763818
  0
CIRCLE
  8
_1-1_
  6
CONTINUOUS
 62
    7
 10
234.18850460567992
 20
157.75716420766472
 40
0.059781551763818
  0
CIRCLE
  8
_1-1_
  6
CONTINUOUS
 62
    7
 10
235.24348903346709
 20
157.96815614442568
 40
0.059781551763818
  0
CIRCLE
  8
_1-1_
  6
CONTINUOUS
 62
    7
 10
235.63533473659209
 20
157.12417602539062
 40
0.059781551763818
  0
CIRCLE
  8
_1-1_
  6
CONTINUOUS
 62
    7
 10
236.41902614284209
 20
157.57631044130068
 40
0.059781551763818
  0
CIRCLE
  8
_1-1_
  6
CONTINUOUS
 62
    7
 10
233.76652073215794
 20
156.88303354624156
 40
0.059781551763818
  0
CIRCLE
  8
_1-1_
  6
CONTINUOUS
 62
    7
 10
235.73621595228042
 20
158.7710241369299
 40
0.059781551763818
  0
CIRCLE
  8
_1-1_
  6
CONTINUOUS
 62
    7
 10
236.36919176256336
 20
159.40399994721284
 40
0.059781551763818
  0
CIRCLE
  8
_1-1_
  6
CONTINUOUS
 62
    7
 10
235.64580144108953
 20
158.3791784338049
 40
0.059781551763818
  0
CIRCLE
  8
_1-1_
  6
CONTINUOUS
 62
    7
 10
235.01280088682435
 20
157.89690584749789
 40
0.059781551763818
  0
CIRCLE
  8
_1-1_
  6
CONTINUOUS
 62
    7
 10
235.91706971864443
 20
157.53519831476984
 40
0.059781551763818
  0
CIRCLE
  8
_1-1_
  6
CONTINUOUS
 62
    7
 10
237.00219231682857
 20
157.86675530510982
 40
0.059781551763818
  0
CIRCLE
  8
_1-1_
  6
CONTINUOUS
 62
    7
 10
236.70076112489443
 20
157.56534885715794
 40
0.059781551763818
  0
CIRCLE
  8
_1-1_
  6
CONTINUOUS
 62
    7
 10
236.06778531461151
 20
159.31358543602198
 40
0.059781551763818
  0
CIRCLE
  8
_1-1_
  6
CONTINUOUS
 62
    7
 10
237.60502995671453
 20
159.31358543602198
 40
0.059781551763818
  0
CIRCLE
  8
_1-1_
  6
CONTINUOUS
 62
    7
 10
237.87629823426943
 20
158.92173973289698
 40
0.059781551763818
  0
CIRCLE
  8
_1-1_
  6
CONTINUOUS
 62
    7
 10
238.93128266205659
 20
159.13273166965794
 40
0.059781551763818
  0
CIRCLE
  8
_1-1_
  6
CONTINUOUS
 62
    7
 10
239.32312836518159
 20
158.28875155062289
 40
0.059781551763818
  0
CIRCLE
  8
_1-1_
  6
CONTINUOUS
 62
    7
 10
240.10681977143159
 20
158.74088596653294
 40
0.059781551763818
  0
CIRCLE
  8
_1-1_
  6
CONTINUOUS
 62
    7
 10
237.45431436074747
 20
158.04760907147383
 40
0.059781551763818
  0
CIRCLE
  8
_1-1_
  6
CONTINUOUS
 62
    7
 10
242.33538653399495
 20
162.45879302153716
 40
0.059781551763818
  0
CIRCLE
  8
_1-1_
  6
CONTINUOUS
 62
    7
 10
242.96836234427789
 20
163.0917688318201
 40
0.059781551763818
  0
CIRCLE
  8
_1-1_
  6
CONTINUOUS
 62
    7
 10
242.24497202280406
 20
162.06694731841216
 40
0.059781551763818
  0
CIRCLE
  8
_1-1_
  6
CONTINUOUS
 62
    7
 10
241.61197146853885
 20
161.58467473210516
 40
0.059781551763818
  0
CIRCLE
  8
_1-1_
  6
CONTINUOUS
 62
    7
 10
242.51624030035896
 20
161.22296719937711
 40
0.059781551763818
  0
CIRCLE
  8
_1-1_
  6
CONTINUOUS
 62
    7
 10
243.6013628985431
 20
161.55452418971706
 40
0.059781551763818
  0
CIRCLE
  8
_1-1_
  6
CONTINUOUS
 62
    7
 10
243.29993170660896
 20
161.25311774176521
 40
0.059781551763818
  0
CIRCLE
  8
_1-1_
  6
CONTINUOUS
 62
    7
 10
242.66695589632602
 20
163.00135432062922
 40
0.059781551763818
  0
CIRCLE
  8
_1-1_
  6
CONTINUOUS
 62
    7
 10
244.20420053842906
 20
163.00135432062922
 40
0.059781551763818
  0
CIRCLE
  8
_1-1_
  6
CONTINUOUS
 62
    7
 10
244.47546881598396
 20
162.60950861750422
 40
0.059781551763818
  0
CIRCLE
  8
_1-1_
  6
CONTINUOUS
 62
    7
 10
245.53045324377112
 20
162.82050055426521
 40
0.059781551763818
  0
CIRCLE
  8
_1-1_
  6
CONTINUOUS
 62
    7
 10
245.92229894689612
 20
161.97652043523016
 40
0.059781551763818
  0
CIRCLE
  8
_1-1_
  6
CONTINUOUS
 62
    7
 10
246.70599035314612
 20
162.42865485114021
 40
0.059781551763818
  0
CIRCLE
  8
_1-1_
  6
CONTINUOUS
 62
    7
 10
244.05348494246201
 20
161.73537795608109
 40
0.059781551763818
  0
CIRCLE
  8
_1-1_
  6
CONTINUOUS
 62
    7
 10
247.96412287531675
 20
165.17610292176943
 40
0.059781551763818
  0
CIRCLE
  8
_1-1_
  6
CONTINUOUS
 62
    7
 10
248.59709868559969
 20
165.80907873205237
 40
0.059781551763818
  0
CIRCLE
  8
_1-1_
  6
CONTINUOUS
 62
    7
 10
247.87368362014359
 20
164.78425721864443
 40
0.059781551763818
  0
CIRCLE
  8
_1-1_
  6
CONTINUOUS
 62
    7
 10
247.24070780986065
 20
164.30198463233742
 40
0.059781551763818
  0
CIRCLE
  8
_1-1_
  6
CONTINUOUS
 62
    7
 10
248.14497664168076
 20
163.94027709960937
 40
0.059781551763818
  0
CIRCLE
  8
_1-1_
  6
CONTINUOUS
 62
    7
 10
249.23009923986487
 20
164.27183408994932
 40
0.059781551763818
  0
CIRCLE
  8
_1-1_
  6
CONTINUOUS
 62
    7
 10
248.92866804793076
 20
163.97042764199747
 40
0.059781551763818
  0
CIRCLE
  8
_1-1_
  6
CONTINUOUS
 62
    7
 10
248.29569223764781
 20
165.71866422086148
 40
0.059781551763818
  0
CIRCLE
  8
_1-1_
  6
CONTINUOUS
 62
    7
 10
249.83293687975086
 20
165.71866422086148
 40
0.059781551763818
  0
CIRCLE
  8
_1-1_
  6
CONTINUOUS
 62
    7
 10
250.10420515730576
 20
165.32681851773648
 40
0.059781551763818
  0
CIRCLE
  8
_1-1_
  6
CONTINUOUS
 62
    7
 10
251.15918958509292
 20
165.53781045449747
 40
0.059781551763818
  0
CIRCLE
  8
_1-1_
  6
CONTINUOUS
 62
    7
 10
251.55103528821792
 20
164.69383033546242
 40
0.059781551763818
  0
CIRCLE
  8
_1-1_
  6
CONTINUOUS
 62
    7
 10
252.33472669446792
 20
165.14596475137247
 40
0.059781551763818
  0
CIRCLE
  8
_1-1_
  6
CONTINUOUS
 62
    7
 10
249.6822212837838
 20
164.45268785631336
 40
0.059781551763818
  0
CIRCLE
  8
_1-1_
  6
CONTINUOUS
 62
    7
 10
246.02318016258448
 20
166.14657427813557
 40
0.059781551763818
  0
CIRCLE
  8
_1-1_
  6
CONTINUOUS
 62
    7
 10
246.65615597286742
 20
166.77956246040964
 40
0.059781551763818
  0
CIRCLE
  8
_1-1_
  6
CONTINUOUS
 62
    7
 10
245.93276565139359
 20
165.75472857501057
 40
0.059781551763818
  0
CIRCLE
  8
_1-1_
  6
CONTINUOUS
 62
    7
 10
245.29976509712839
 20
165.27245598870357
 40
0.059781551763818
  0
CIRCLE
  8
_1-1_
  6
CONTINUOUS
 62
    7
 10
246.20403392894849
 20
164.91074845597552
 40
0.059781551763818
  0
CIRCLE
  8
_1-1_
  6
CONTINUOUS
 62
    7
 10
247.2891565271326
 20
165.24231781830659
 40
0.059781551763818
  0
CIRCLE
  8
_1-1_
  6
CONTINUOUS
 62
    7
 10
246.98772533519849
 20
164.94088662637247
 40
0.059781551763818
  0
CIRCLE
  8
_1-1_
  6
CONTINUOUS
 62
    7
 10
246.35474952491555
 20
166.68912320523648
 40
0.059781551763818
  0
CIRCLE
  8
_1-1_
  6
CONTINUOUS
 62
    7
 10
247.89199416701859
 20
166.68912320523648
 40
0.059781551763818
  0
CIRCLE
  8
_1-1_
  6
CONTINUOUS
 62
    7
 10
248.16326244457349
 20
166.29727750211148
 40
0.059781551763818
  0
CIRCLE
  8
_1-1_
  6
CONTINUOUS
 62
    7
 10
249.21824687236065
 20
166.50828181086359
 40
0.059781551763818
  0
CIRCLE
  8
_1-1_
  6
CONTINUOUS
 62
    7
 10
249.61009257548565
 20
165.66430169182857
 40
0.059781551763818
  0
CIRCLE
  8
_1-1_
  6
CONTINUOUS
 62
    7
 10
250.39378398173565
 20
166.11642373574747
 40
0.059781551763818
  0
CIRCLE
  8
_1-1_
  6
CONTINUOUS
 62
    7
 10
247.74127857105154
 20
165.42317158467063
 40
0.059781551763818
  0
CIRCLE
  8
_1-1_
  6
CONTINUOUS
 62
    7
 10
245.24678823110222
 20
163.42926437790331
 40
0.059781551763818
  0
CIRCLE
  8
_1-1_
  6
CONTINUOUS
 62
    7
 10
245.87976404138516
 20
164.06225256017737
 40
0.059781551763818
  0
CIRCLE
  8
_1-1_
  6
CONTINUOUS
 62
    7
 10
245.15634897592906
 20
163.03741867477831
 40
0.059781551763818
  0
CIRCLE
  8
_1-1_
  6
CONTINUOUS
 62
    7
 10
244.52337316564612
 20
162.5551460884713
 40
0.059781551763818
  0
CIRCLE
  8
_1-1_
  6
CONTINUOUS
 62
    7
 10
245.42764199746622
 20
162.19343855574326
 40
0.059781551763818
  0
CIRCLE
  8
_1-1_
  6
CONTINUOUS
 62
    7
 10
246.51276459565034
 20
162.52500791807432
 40
0.059781551763818
  0
CIRCLE
  8
_1-1_
  6
CONTINUOUS
 62
    7
 10
246.21133340371622
 20
162.22357672614021
 40
0.059781551763818
  0
CIRCLE
  8
_1-1_
  6
CONTINUOUS
 62
    7
 10
245.57835759343328
 20
163.97181330500422
 40
0.059781551763818
  0
CIRCLE
  8
_1-1_
  6
CONTINUOUS
 62
    7
 10
247.11560223553633
 20
163.97181330500422
 40
0.059781551763818
  0
CIRCLE
  8
_1-1_
  6
CONTINUOUS
 62
    7
 10
247.38687051309122
 20
163.57996760187922
 40
0.059781551763818
  0
CIRCLE
  8
_1-1_
  6
CONTINUOUS
 62
    7
 10
248.44185494087839
 20
163.79097191063136
 40
0.059781551763818
  0
CIRCLE
  8
_1-1_
  6
CONTINUOUS
 62
    7
 10
248.83370064400339
 20
162.9469917915963
 40
0.059781551763818
  0
CIRCLE
  8
_1-1_
  6
CONTINUOUS
 62
    7
 10
249.61739205025339
 20
163.39911383551521
 40
0.059781551763818
  0
CIRCLE
  8
_1-1_
  6
CONTINUOUS
 62
    7
 10
246.96488663956927
 20
162.70586168443836
 40
0.059781551763818
  0
CIRCLE
  8
_1-1_
  6
CONTINUOUS
 62
    7
 10
236.90076673353042
 20
162.26470122466216
 40
0.059781551763818
  0
CIRCLE
  8
_1-1_
  6
CONTINUOUS
 62
    7
 10
237.53374254381336
 20
162.8976770349451
 40
0.059781551763818
  0
CIRCLE
  8
_1-1_
  6
CONTINUOUS
 62
    7
 10
236.81035222233953
 20
161.87285552153716
 40
0.059781551763818
  0
CIRCLE
  8
_1-1_
  6
CONTINUOUS
 62
    7
 10
236.17735166807435
 20
161.39058293523016
 40
0.059781551763818
  0
CIRCLE
  8
_1-1_
  6
CONTINUOUS
 62
    7
 10
237.08162049989443
 20
161.02887540250211
 40
0.059781551763818
  0
CIRCLE
  8
_1-1_
  6
CONTINUOUS
 62
    7
 10
238.16674309807857
 20
161.36043239284206
 40
0.059781551763818
  0
CIRCLE
  8
_1-1_
  6
CONTINUOUS
 62
    7
 10
237.86531190614443
 20
161.05902594489021
 40
0.059781551763818
  0
CIRCLE
  8
_1-1_
  6
CONTINUOUS
 62
    7
 10
237.23233609586151
 20
162.80726252375422
 40
0.059781551763818
  0
CIRCLE
  8
_1-1_
  6
CONTINUOUS
 62
    7
 10
238.76958073796453
 20
162.80726252375422
 40
0.059781551763818
  0
CIRCLE
  8
_1-1_
  6
CONTINUOUS
 62
    7
 10
239.04084901551943
 20
162.41541682062922
 40
0.059781551763818
  0
CIRCLE
  8
_1-1_
  6
CONTINUOUS
 62
    7
 10
240.09583344330659
 20
162.62640875739021
 40
0.059781551763818
  0
CIRCLE
  8
_1-1_
  6
CONTINUOUS
 62
    7
 10
240.48767914643159
 20
161.78242863835516
 40
0.059781551763818
  0
CIRCLE
  8
_1-1_
  6
CONTINUOUS
 62
    7
 10
241.27137055268159
 20
162.23456305426521
 40
0.059781551763818
  0
CIRCLE
  8
_1-1_
  6
CONTINUOUS
 62
    7
 10
238.61886514199747
 20
161.54128615920609
 40
0.059781551763818
  0
CIRCLE
  8
_1-1_
  6
CONTINUOUS
 62
    7
 10
223.89649262299409
 20
159.3532995275549
 40
0.059781551763818
  0
CIRCLE
  8
_1-1_
  6
CONTINUOUS
 62
    7
 10
224.52946843327703
 20
159.98627533783784
 40
0.059781551763818
  0
CIRCLE
  8
_1-1_
  6
CONTINUOUS
 62
    7
 10
223.80605336782097
 20
158.9614538244299
 40
0.059781551763818
  0
CIRCLE
  8
_1-1_
  6
CONTINUOUS
 62
    7
 10
223.17307755753802
 20
158.47918123812289
 40
0.059781551763818
  0
CIRCLE
  8
_1-1_
  6
CONTINUOUS
 62
    7
 10
224.07734638935813
 20
158.11747370539484
 40
0.059781551763818
  0
CIRCLE
  8
_1-1_
  6
CONTINUOUS
 62
    7
 10
225.16246898754224
 20
158.44903069573482
 40
0.059781551763818
  0
CIRCLE
  8
_1-1_
  6
CONTINUOUS
 62
    7
 10
224.86103779560813
 20
158.14762424778294
 40
0.059781551763818
  0
CIRCLE
  8
_1-1_
  6
CONTINUOUS
 62
    7
 10
224.22806198532518
 20
159.89586082664698
 40
0.059781551763818
  0
CIRCLE
  8
_1-1_
  6
CONTINUOUS
 62
    7
 10
225.76530662742823
 20
159.89586082664698
 40
0.059781551763818
  0
CIRCLE
  8
_1-1_
  6
CONTINUOUS
 62
    7
 10
226.03657490498313
 20
159.50401512352198
 40
0.059781551763818
  0
CIRCLE
  8
_1-1_
  6
CONTINUOUS
 62
    7
 10
227.09155933277029
 20
159.71500706028294
 40
0.059781551763818
  0
CIRCLE
  8
_1-1_
  6
CONTINUOUS
 62
    7
 10
227.48340503589529
 20
158.87102694124789
 40
0.059781551763818
  0
CIRCLE
  8
_1-1_
  6
CONTINUOUS
 62
    7
 10
228.26709644214529
 20
159.32316135715794
 40
0.059781551763818
  0
CIRCLE
  8
_1-1_
  6
CONTINUOUS
 62
    7
 10
225.61459103146117
 20
158.62988446209883
 40
0.059781551763818
  0
TEXT
  8
_0-0_
 62
    7
 10
141.89189395389042
 20
14.594594594594582
 40
2.5
 41
1
 50
0
  1
縮尺
  0
TEXT
  8
_0-0_
 62
    7
 10
377.10214563318203
 20
22.865493362014362
 40
2.5
 41
1
 50
0
  1
ＮＯ
  0
TEXT
  8
_1-0_
 62
    7
 10
169.90681828679266
 20
13.3181144095756
 40
2.5
 41
1
 50
0
  1
1/5
  0
TEXT
  8
_0-0_
 62
    7
 10
383.97877873601146
 20
17.689098667454061
 40
2.5
 41
1
 50
0
  1
Ｓ
  0
TEXT
  8
_1-3_
 62
    7
 10
189.86630620183172
 20
74.360875310124584
 40
2.5
 41
1
 50
0
  1
瓦桟
  0
TEXT
  8
_0-0_
 62
    7
 10
39.721903929839272
 20
15.395235628695104
 40
2.5
 41
1
 50
0
  1
棟
  0
TEXT
  8
_1-4_
 62
    7
 10
281.16631585198479
 20
227.6256087019637
 40
2.5
 41
1
 50
0
  1
棟桟木
  0
TEXT
  8
_1-4_
 62
    7
 10
50.59271580464133
 20
15.395235628695104
 40
2.5
 41
1
 50
0
  1
3
  0
TEXT
  8
_1-4_
 62
    7
 10
396.13430951092698
 20
16.004121625745626
 40
2.5
 41
1
 50
0
  1
22
  0
TEXT
  8
_1-4_
 62
    7
 10
25.556194717819636
 20
20.211577544341225
 40
2.5
 41
1
 50
0
  1
ＲＣ
  0
TEXT
  8
_1-3_
 62
    7
 10
291.38787759316938
 20
116.44057815139358
 40
2.5
 41
1
 50
0
  1
Ｌ－65ｘ65ｘ6
  0
TEXT
  8
_1-1_
 62
    7
 10
278.89756898622261
 20
243.27974061708193
 40
2.5
 41
1
 50
0
  1
被膜銅線　０.９φ
  0
TEXT
  8
_1-1_
 62
    7
 10
202.99272691881336
 20
71.402565208641263
 40
2.5
 41
1
 50
0
  1
※　地域により瓦桟木の大きさは、異なります
  0
TEXT
  8
_1-1_
 62
    7
 10
189.86631032582875
 20
55.121346551018803
 40
2.5
 41
1
 50
0
  1
パーライト系モルタル　　ｔ＝50
  0
TEXT
  8
_1-3_
 62
    7
 10
293.09714239996833
 20
139.53615343248524
 40
2.5
 41
1
 50
0
  1
水切り鉄板　
  0
TEXT
  8
_0-0_
 62
    7
 10
14.594594336844779
 20
24.324324324324323
 40
2.5
 41
1
 50
0
  1
Ｓ形
  0
TEXT
  8
_1-3_
 62
    7
 10
101.76772040289802
 20
165.8530735325169
 40
2.5
 41
1
 50
0
  1
Ｓ形　桟瓦
  0
TEXT
  8
_1-1_
 62
    7
 10
202.7618408203125
 20
74.589713844093126
 40
2.5
 41
1
 50
0
  1
15×21以上　（防腐処理）
  0
TEXT
  8
_1-3_
 62
    7
 10
189.8663041398332
 20
67.121349025417018
 40
2.5
 41
1
 50
0
  1
縦桟
  0
TEXT
  8
_1-3_
 62
    7
 10
189.86630207783469
 20
61.121353974213477
 40
2.5
 41
1
 50
0
  1
ルーフィング
  0
TEXT
  8
_1-1_
 62
    7
 10
191.14249406839957
 20
224.39601080838648
 40
2.5
 41
1
 50
0
  1
葺き土
  0
TEXT
  8
_1-4_
 62
    7
 10
197.27270965473519
 20
246.80961154592595
 40
2.5
 41
1
 50
0
  1
７寸垂れ付丸瓦
  0
TEXT
  8
_1-1_
 62
    7
 10
301.13950987119932
 20
207.26076693148227
 40
2.5
 41
1
 50
0
  1
パッキン付ステンレスネジ
  0
LINE
  8
_1-2_
  6
CONTINUOUS
 62
    3
 10
248.26389622043919
 20
181.08883419552365
 11
245.71309765294541
 21
180.20628274983187
  0
LINE
  8
_1-2_
  6
CONTINUOUS
 62
    3
 10
245.71309765294541
 20
180.20628274983187
 11
245.6252990894852
 21
180.1759053025105
  0
LINE
  8
_1-2_
  6
CONTINUOUS
 62
    3
 10
243.14301743200221
 20
179.31706003995484
 11
191.5317844700169
 21
161.46007640941724
  0
LINE
  8
_1-2_
  6
CONTINUOUS
 62
    3
 10
245.6252990894852
 20
180.1759053025105
 11
243.45531002864195
 21
179.4251102349626
  0
LINE
  8
_1-2_
  6
CONTINUOUS
 62
    3
 10
243.45531002864195
 20
179.4251102349626
 11
243.14301743200221
 21
179.31706003995484
  0
ARC
  8
_1-5_
  6
CONTINUOUS
 62
    7
 10
215.4208439458823
 20
184.48163516013705
 40
26.5258667497367
 50
347.36862877177816
 51
32.519774259498966
  0
LINE
  8
ADD_LINE
  6
DOT
 62
    4
 10
270.54233860325172
 20
192.87684260187925
 11
270.54233860325172
 21
195.67282893317639
  0
ARC
  8
_1-5_
  6
CONTINUOUS
 62
    1
 10
215.4208439458823
 20
184.48163516013705
 40
26.5258667497367
 50
347.36862877177816
 51
32.519774259498966
  0
SOLID
  8
ADD_LINE
  6
DOT
 62
    8
 10
241.30470979594185
 20
178.68102351299953
 11
248.26389622043919
 21
181.08883419552365
 12
248.08616019584039
 22
181.66222649651607
 13
248.08616019584039
 23
181.66222649651607
  0
SOLID
  8
ADD_LINE
  6
DOT
 62
    8
 10
248.08616019584039
 20
181.66222649651607
 11
249.97724378431167
 21
182.31653161951016
 12
256.85451198268584
 22
192.30336369694891
 13
256.85451198268584
 23
192.30336369694891
  0
SOLID
  8
ADD_LINE
  6
DOT
 62
    8
 10
256.85451198268584
 20
192.30336369694891
 11
258.09539794921875
 21
192.87684260187925
 12
237.78761287169272
 22
198.74169317699616
 13
237.78761287169272
 23
198.74169317699616
  0
SOLID
  8
ADD_LINE
  6
DOT
 62
    8
 10
256.85451198268584
 20
192.30336369694891
 11
237.78761287169272
 21
198.74169317699616
 12
243.71637038119388
 22
189.44249193423826
 13
243.71637038119388
 23
189.44249193423826
  0
SOLID
  8
ADD_LINE
  6
DOT
 62
    8
 10
256.85451198268584
 20
192.30336369694891
 11
243.71637038119388
 21
189.44249193423826
 12
241.30470979594185
 22
178.68102351299953
 13
241.30470979594185
 23
178.68102351299953
  0
SOLID
  8
ADD_LINE
  6
DOT
 62
    8
 10
256.85451198268584
 20
192.30336369694891
 11
241.30470979594185
 21
178.68102351299953
 12
248.08616019584039
 22
181.66222649651607
 13
248.08616019584039
 23
181.66222649651607
  0
SOLID
  8
ADD_LINE
  6
DOT
 62
    8
 10
249.97724378431167
 20
182.31653161951016
 11
251.78399988122891
 21
176.48692363017315
 12
256.85451198268584
 22
192.30336369694891
 13
253.24644346494935
 23
176.12082404059333
  0
SOLID
  8
ADD_LINE
  6
DOT
 62
    8
 10
251.78399988122891
 20
176.48692363017315
 11
249.9698549481314
 21
175.8592463586279
 12
253.24644346494935
 22
176.12082404059333
 13
250.35765776763094
 23
174.82088656038852
  0
SOLID
  8
ADD_LINE
  6
DOT
 62
    8
 10
256.85451198268584
 20
192.30336369694891
 11
253.24644346494935
 21
176.12082404059333
 12
253.4926460884713
 22
175.57367273279141
 13
253.4926460884713
 23
175.57367273279141
  0
SOLID
  8
ADD_LINE
  6
DOT
 62
    8
 10
256.85451198268584
 20
192.30336369694891
 11
253.4926460884713
 21
175.57367273279141
 12
253.4926460884713
 22
174.97578388935813
 13
253.4926460884713
 23
174.97578388935813
  0
SOLID
  8
ADD_LINE
  6
DOT
 62
    8
 10
256.85451198268584
 20
192.30336369694891
 11
253.4926460884713
 21
174.97578388935813
 12
256.85451198268584
 22
174.97578388935813
 13
256.85451198268584
 23
174.97578388935813
  0
SOLID
  8
ADD_LINE
  6
DOT
 62
    8
 10
258.09539794921875
 20
192.87684260187925
 11
259.7952256725801
 21
192.87684260187925
 12
258.69803285445141
 22
195.42925475783539
 13
258.69803285445141
 23
195.42925475783539
  0
SOLID
  8
ADD_LINE
  6
DOT
 62
    8
 10
258.09539794921875
 20
192.87684260187925
 11
258.69803285445141
 21
195.42925475783539
 12
258.51824786211995
 22
195.35197077570737
 13
258.51824786211995
 23
195.35197077570737
  0
SOLID
  8
ADD_LINE
  6
DOT
 62
    8
 10
258.09539794921875
 20
192.87684260187925
 11
258.51824786211995
 21
195.35197077570737
 12
258.45995103990708
 22
195.48755542652029
 13
258.45995103990708
 23
195.48755542652029
  0
SOLID
  8
ADD_LINE
  6
DOT
 62
    8
 10
258.09539794921875
 20
192.87684260187925
 11
258.45995103990708
 21
195.48755542652029
 12
258.09539794921875
 22
192.87684260187925
 13
237.78761287169274
 23
198.74169317699616
  0
SOLID
  8
ADD_LINE
  6
DOT
 62
    8
 10
237.78761287169274
 20
198.74169317699616
 11
270.54233860325172
 21
195.67282893317639
 12
239.16505248631691
 22
200.255317810848
 13
240.509895314864
 23
201.48809040368286
  0
SOLID
  8
ADD_LINE
  6
DOT
 62
    8
 10
270.54233860325172
 20
195.67282893317639
 11
269.76202752393186
 21
196.95379874794111
 12
240.509895314864
 22
201.48809040368286
 13
242.07887861483562
 23
202.64614950604283
  0
SOLID
  8
ADD_LINE
  6
DOT
 62
    8
 10
269.76202752393186
 20
196.95379874794111
 11
268.76029490122596
 21
198.34861632386071
 12
242.07887861483562
 22
202.64614950604283
 13
243.90935913146916
 23
203.729495117928
  0
SOLID
  8
ADD_LINE
  6
DOT
 62
    8
 10
268.76029490122596
 20
198.34861632386071
 11
267.5937202013659
 21
199.69271326065598
 12
243.90935913146916
 22
203.729495117928
 13
246.69621558925616
 23
204.89780752509972
  0
SOLID
  8
ADD_LINE
  6
DOT
 62
    8
 10
267.5937202013659
 20
199.69271326065598
 11
266.33838438303826
 21
200.93536891920255
 12
246.69621558925616
 22
204.89780752509972
 13
248.08922337990001
 23
205.30824732055729
  0
SOLID
  8
ADD_LINE
  6
DOT
 62
    8
 10
266.33838438303826
 20
200.93536891920255
 11
264.99428744624299
 21
202.02586266037608
 12
248.08922337990001
 22
205.30824732055729
 13
250.07923450939123
 23
205.7435622551335
  0
SOLID
  8
ADD_LINE
  6
DOT
 62
    8
 10
264.99428744624299
 20
202.02586266037608
 11
263.57410955076119
 21
202.97687464395761
 12
250.07923450939123
 22
205.7435622551335
 13
252.10655834756042
 23
205.91768822896398
  0
SOLID
  8
ADD_LINE
  6
DOT
 62
    8
 10
263.57410955076119
 20
202.97687464395761
 11
262.24269277374702
 21
203.73768423082288
 12
252.10655834756042
 22
205.91768822896398
 13
253.8509678662561
 23
205.92492711307477
  0
SOLID
  8
ADD_LINE
  6
DOT
 62
    8
 10
262.24269277374702
 20
203.73768423082288
 11
260.68303312067326
 21
204.44777317856375
 12
253.8509678662561
 22
205.92492711307477
 13
255.22802940998264
 23
205.82577868192647
  0
SOLID
  8
ADD_LINE
  6
DOT
 62
    8
 10
260.68303312067326
 20
204.44777317856375
 11
258.87448837777055
 21
205.09869018683884
 12
255.22802940998264
 22
205.82577868192647
 13
256.38476110671297
 23
205.68256428137889
  0
SOLID
  8
ADD_LINE
  6
DOT
 62
    8
 10
258.87448837777055
 20
205.09869018683884
 11
257.33217944879681
 21
205.49528391143207
 12
256.38476110671297
 22
205.68256428137889
 13
256.38476110671297
 23
205.68256428137889
  0
SOLID
  8
ADD_LINE
  6
DOT
 62
    8
 10
237.78761287169274
 20
198.74169317699616
 11
258.45995103990708
 21
195.48755542652029
 12
237.78761287169274
 22
198.74169317699614
 13
258.36921882759191
 23
196.81335602295945
  0
SOLID
  8
ADD_LINE
  6
DOT
 62
    8
 10
258.45995103990708
 20
195.48755542652029
 11
259.36988624366558
 21
195.8787082981419
 12
258.36921882759191
 22
196.81335602295945
 13
258.36921882759191
 23
196.81335602295945
  0
SOLID
  8
ADD_LINE
  6
DOT
 62
    8
 10
258.36921882759191
 20
196.81335602295945
 11
259.36988624366558
 21
195.8787082981419
 12
258.36921882759191
 22
196.81335602295945
 13
270.54233860325172
 23
195.67282893317639
  0
SOLID
  8
ADD_LINE
  6
DOT
 62
    8
 10
259.42818306587839
 20
195.74312364732899
 11
260.4483310922032
 21
192.87684260187925
 12
270.54233860325172
 22
192.87684260187925
 13
270.54233860325172
 23
192.87684260187925
  0
SOLID
  8
ADD_LINE
  6
DOT
 62
    8
 10
259.42818306587839
 20
195.74312364732899
 11
270.54233860325172
 21
192.87684260187925
 12
270.54233860325172
 22
195.67282893317639
 13
270.54233860325172
 23
195.67282893317639
  0
SOLID
  8
ADD_LINE
  6
DOT
 62
    8
 10
259.42818306587839
 20
195.74312364732899
 11
270.54233860325172
 21
195.67282893317639
 12
259.36988624366558
 22
195.8787082981419
 13
259.36988624366558
 23
195.8787082981419
  0
SOLID
  8
ADD_LINE
  6
DOT
 62
    8
 10
259.42818306587839
 20
195.74312364732899
 11
259.24927396631995
 21
195.66621618428937
 12
259.42818306587839
 22
195.74312364732899
 13
260.4483310922032
 23
192.87684260187925
  0
ENDSEC
  0
EOF
