  0
SECTION
  2
HEADER
  9
$ACADVER
  1
AC1009
  9
$INSBASE
 10
0
 20
0
 30
0
  9
$EXTMIN
 10
0
 20
0
  9
$EXTMAX
 10
2100
 20
1485
  9
$LIMMIN
 10
0
 20
0
  9
$LIMMAX
 10
2100
 20
1485
  9
$LTSCALE
 40
5
  0
ENDSEC
  0
SECTION
  2
TABLES
  0
TABLE
  2
LTYPE
 70
     9
  0
LTYPE
  2
CONTINUOUS
 70
    64
  3
実線
 72
    65
 73
     0
 40
0.0
  0
LTYPE
  2
DASHED1
 70
    64
  3
--  --  --  --  --  --  --  --  
 72
    65
 73
     2
 40
2.5
 49
1.25
 49
-1.25
  0
LTYPE
  2
DASHED2
 70
    64
  3
----    ----    ----    ----    
 72
    65
 73
     2
 40
5.0
 49
2.5
 49
-2.5
  0
LTYPE
  2
DASHED3
 70
    64
  3
------  ------  ------  ------  
 72
    65
 73
     2
 40
5.0
 49
3.75
 49
-1.25
  0
LTYPE
  2
CENTER1
 70
    64
  3
----- - ----- - ----- - ----- - 
 72
    65
 73
     4
 40
10.0
 49
6.25
 49
-1.25
 49
1.25
 49
-1.25
  0
LTYPE
  2
CENTER2
 70
    64
  3
----------  --  ----------  --  
 72
    65
 73
     4
 40
20.0
 49
12.5
 49
-2.5
 49
2.5
 49
-2.5
  0
LTYPE
  2
PHANTOM1
 70
    64
  3
--- - - --- - - --- - - --- - - 
 72
    65
 73
     6
 40
10.0
 49
3.25
 49
-1.25
 49
1.25
 49
-1.25
 49
1.25
 49
-1.25
  0
LTYPE
  2
PHANTOM2
 70
    64
  3
--------  -  -  --------  -  -  
 72
    65
 73
     6
 40
20.0
 49
10.0
 49
-2.5
 49
1.25
 49
-2.5
 49
1.25
 49
-2.5
  0
LTYPE
  2
DOT
 70
    64
  3
-   -   -   -   -   -   -   -   
 72
    65
 73
     2
 40
2.5
 49
0.625
 49
-1.875
  0
LTYPE
  2
DUMMY
 70
    64
  3
ダミー
 72
    65
 73
     0
 40
0.0
  0
LTYPE
  2
RAND1
 70
    64
  3
ランダム線1
 72
    65
 73
     4
 40
10.0
 49
1.0
 49
-2.0
 49
3.0
 49
-4.0
  0
LTYPE
  2
RAND2
 70
    64
  3
ランダム線2
 72
    65
 73
     4
 40
14.0
 49
2.0
 49
-3.0
 49
4.0
 49
-5.0
  0
LTYPE
  2
RAND3
 70
    64
  3
ランダム線3
 72
    65
 73
     4
 40
18.0
 49
3.0
 49
-4.0
 49
5.0
 49
-6.0
  0
LTYPE
  2
RAND4
 70
    64
  3
ランダム線4
 72
    65
 73
     4
 40
22.0
 49
4.0
 49
-5.0
 49
6.0
 49
-7.0
  0
LTYPE
  2
RAND5
 70
    64
  3
ランダム線5
 72
    65
 73
     4
 40
26.0
 49
5.0
 49
-6.0
 49
7.0
 49
-8.0
  0
LTYPE
  2
LONG1
 70
    64
  3
----------  --  ----------  --  
 72
    65
 73
     4
 40
40.0
 49
32.5
 49
-2.5
 49
2.5
 49
-2.5
  0
LTYPE
  2
LONG2
 70
    64
  3
--------  -  -  --------  -  -  
 72
    65
 73
     6
 40
40.0
 49
30.0
 49
-2.5
 49
1.25
 49
-2.5
 49
1.25
 49
-2.5
  0
LTYPE
  2
LONG3
 70
    64
  3
+++++++++++++++..+++++++++++++++
 72
    65
 73
     2
 40
40.0
 49
37.5
 49
-2.5
  0
LTYPE
  2
LONG4
 70
    64
  3
+++++++++++++++..+++++++++++++++
 72
    65
 73
     2
 40
80.0
 49
75.0
 49
-5.0
  0
LTYPE
  2
LONG5
 70
    64
  3
----------  --  ----------  --  
 72
    65
 73
     4
 40
60.0
 49
37.5
 49
-7.5
 49
7.5
 49
-7.5
  0
LTYPE
  2
dashed
 70
   64
  3
-------   -------------   ------
 72
   65
 73
    2
 40
7.5
 49
6
 49
-1.5
  0
LTYPE
  2
dashed_spaced
 70
   64
  3
----        --------        ----
 72
   65
 73
    2
 40
12
 49
6
 49
-6
  0
LTYPE
  2
long_dashed_dotted
 70
   64
  3
------------- --- --------------
 72
   65
 73
    4
 40
15.25
 49
12
 49
-1.5
 49
0.25
 49
-1.5
  0
LTYPE
  2
long_dashed_double-dotted
 70
   64
  3
----------- --- --- ------------
 72
   65
 73
    6
 40
17
 49
12
 49
-1.5
 49
0.25
 49
-1.5
 49
0.25
 49
-1.5
  0
LTYPE
  2
long_dashed_triplicate-dotted
 70
   64
  3
--------- --- --- --- ----------
 72
   65
 73
    8
 40
18.75
 49
12
 49
-1.5
 49
0.25
 49
-1.5
 49
0.25
 49
-1.5
 49
0.25
 49
-1.5
  0
LTYPE
  2
dotted
 70
   64
  3
   -       -       -       -    
 72
   65
 73
    2
 40
1.75
 49
0.25
 49
-1.5
  0
LTYPE
  2
chain
 70
   64
  3
-------------- -- --------------
 72
   65
 73
    4
 40
18.5
 49
12
 49
-1.5
 49
3.5
 49
-1.5
  0
LTYPE
  2
chain_double_dash
 70
   64
  3
------------ -- -- -------------
 72
   65
 73
    6
 40
23.5
 49
12
 49
-1.5
 49
3.5
 49
-1.5
 49
3.5
 49
-1.5
  0
LTYPE
  2
dashed_dotted
 70
   64
  3
-----------     -     ----------
 72
   65
 73
    4
 40
9.25
 49
6
 49
-1.5
 49
0.25
 49
-1.5
  0
LTYPE
  2
double-dashed_dotted
 70
   64
  3
------   -----------   -   -----
 72
   65
 73
    6
 40
16.75
 49
6
 49
-1.5
 49
6
 49
-1.5
 49
0.25
 49
-1.5
  0
LTYPE
  2
dashed_double-dotted
 70
   64
  3
---------    -    -    ---------
 72
   65
 73
    6
 40
11
 49
6
 49
-1.5
 49
0.25
 49
-1.5
 49
0.25
 49
-1.5
  0
LTYPE
  2
double-dashed_double-dotted
 70
   64
  3
-----   ---------   -   -   ----
 72
   65
 73
    8
 40
18.5
 49
6
 49
-1.5
 49
6
 49
-1.5
 49
0.25
 49
-1.5
 49
0.25
 49
-1.5
  0
LTYPE
  2
dashed_triplicate-dotted
 70
   64
  3
-------    -    -    -    ------
 72
   65
 73
    8
 40
12.75
 49
6
 49
-1.5
 49
0.25
 49
-1.5
 49
0.25
 49
-1.5
 49
0.25
 49
-1.5
  0
LTYPE
  2
double-dashed_triplicate-dotted
 70
   64
  3
-----  ---------  -  -  -  -----
 72
   65
 73
   10
 40
20.25
 49
6
 49
-1.5
 49
6
 49
-1.5
 49
0.25
 49
-1.5
 49
0.25
 49
-1.5
 49
0.25
 49
-1.5
  0
LTYPE
  2
undefined
 70
   64
  3
--------------------------------
 72
   65
 73
    0
 40
0
  0
ENDTAB
  0
TABLE
  2
STYLE
  5
3
100
AcDbSymbolTable
 70
     1
  0
STYLE
  5
10
100
AcDbSymbolTableRecord
100
AcDbTextStyleTableRecord
  2
STANDARD
 70
     0
 40
0.0
 41
1.0
 50
0.0
 71
     0
 42
0.2
  3
txt
  4
bigfont.shx
  0
STYLE
  5
26
100
AcDbSymbolTableRecord
100
AcDbTextStyleTableRecord
  2
TATEGAKI
 70
    68
 40
0.0
 41
1.0
 50
0.0
 71
     0
 42
1.0
  3
txt
  4
bigfont.shx
  0
ENDTAB
  0
TABLE
  2
LAYER
 70
    8
  0
LAYER
  2
_0-0_
 70
   64
 62
    7
  6
CONTINUOUS
  0
LAYER
  2
_0-1_
 70
   64
 62
    7
  6
CONTINUOUS
  0
LAYER
  2
_0-2_
 70
   64
 62
    7
  6
CONTINUOUS
  0
LAYER
  2
_0-3_
 70
   64
 62
    7
  6
CONTINUOUS
  0
LAYER
  2
_0-4_下地
 70
   64
 62
    7
  6
CONTINUOUS
  0
LAYER
  2
_0-5_
 70
   64
 62
    7
  6
CONTINUOUS
  0
LAYER
  2
_1-0_
 70
   64
 62
    7
  6
CONTINUOUS
  0
LAYER
  2
ADD_LINE
 70
   64
 62
    7
  6
CONTINUOUS
  0
ENDTAB
  0
ENDSEC
  0
SECTION
  2
BLOCKS
  0
ENDSEC
  0
SECTION
  2
ENTITIES
  0
TEXT
  8
_0-5_
 62
    7
 10
793.97770967974918
 20
567.12174085746813
 40
12.5
 41
1
 50
0
  1
※　地域により瓦桟木の大きさは、異なります
  0
LINE
  8
_0-1_
  6
CONTINUOUS
 62
    7
 10
435.67570866765203
 20
839.35249947212833
 11
417.26507238439615
 21
846.62995209565042
  0
LINE
  8
ADD_LINE
  6
DOT
 62
    7
 10
389.98606913798568
 20
864.86484424487969
 11
391.6458336082664
 21
864.86484424487969
  0
LINE
  8
_0-1_
  6
CONTINUOUS
 62
    7
 10
385.6756674276815
 20
864.86484424487969
 11
395.67570041965791
 21
864.86484424487969
  0
LINE
  8
_0-1_
  6
CONTINUOUS
 62
    7
 10
385.6756674276815
 20
864.86484424487969
 11
385.6756674276815
 21
849.86485661687084
  0
LINE
  8
ADD_LINE
  6
DOT
 62
    7
 10
488.76169565561662
 20
814.35247885214324
 11
528.82541965793916
 21
814.35247885214324
  0
LINE
  8
ADD_LINE
  6
DOT
 62
    7
 10
488.76169565561662
 20
814.35247885214324
 11
463.54176289326438
 21
814.35247885214324
  0
LINE
  8
_0-1_
  6
CONTINUOUS
 62
    7
 10
528.82541965793916
 20
814.35247885214324
 11
726.71708802919125
 21
814.35247885214324
  0
LINE
  8
ADD_LINE
  6
DOT
 62
    7
 10
418.75255687816724
 20
846.62995209565042
 11
416.74390225797089
 21
846.62995209565042
  0
LINE
  8
_0-1_
  6
CONTINUOUS
 62
    7
 10
435.67570866765203
 20
839.35249947212833
 11
417.26507238439615
 21
846.62995209565042
  0
LINE
  8
_0-1_
  6
CONTINUOUS
 62
    7
 10
695.67570041965791
 20
839.35249947212833
 11
677.26506413640209
 21
846.62995209565042
  0
LINE
  8
ADD_LINE
  6
DOT
 62
    7
 10
649.98606088999156
 20
864.86484424487969
 11
651.6458253602724
 21
864.86484424487969
  0
LINE
  8
_0-1_
  6
CONTINUOUS
 62
    7
 10
395.67570041965791
 20
864.86484424487969
 11
395.67570041965791
 21
861.65140512827281
  0
LINE
  8
_0-1_
  6
CONTINUOUS
 62
    7
 10
645.6756591796875
 20
864.86484424487969
 11
655.67569217166397
 21
864.86484424487969
  0
LINE
  8
_0-1_
  6
CONTINUOUS
 62
    7
 10
645.6756591796875
 20
864.86484424487969
 11
645.6756591796875
 21
849.86485661687084
  0
LINE
  8
_0-4_下地
  6
CONTINUOUS
 62
    7
 10
748.7616874076225
 20
814.35247885214324
 11
788.82541140994522
 21
814.35247885214324
  0
LINE
  8
_0-4_下地
  6
CONTINUOUS
 62
    7
 10
748.7616874076225
 20
814.35247885214324
 11
723.54175464527032
 21
814.35247885214324
  0
LINE
  8
_0-1_
  6
CONTINUOUS
 62
    7
 10
788.82541140994522
 20
814.35247885214324
 11
986.71701792124168
 21
814.35247885214324
  0
LINE
  8
_0-1_
  6
CONTINUOUS
 62
    7
 10
955.67569217166397
 20
839.35249947212833
 11
937.26505588840791
 21
846.62995209565042
  0
LINE
  8
_0-1_
  6
CONTINUOUS
 62
    7
 10
655.67569217166397
 20
864.86484424487969
 11
655.67569217166397
 21
861.65140512827281
  0
LINE
  8
_0-1_
  6
CONTINUOUS
 62
    7
 10
955.67569217166397
 20
839.35249947212833
 11
937.26505588840791
 21
846.62995209565042
  0
LINE
  8
_1-0_
  6
CONTINUOUS
 62
    5
 10
41.891871271906638
 20
1425
 11
2041.8919743718329
 21
1425
  0
LINE
  8
_1-0_
  6
CONTINUOUS
 62
    5
 10
2041.8919743718329
 20
75
 11
41.891871271906638
 21
75
  0
LINE
  8
_1-0_
  6
CONTINUOUS
 62
    5
 10
2041.8919743718329
 20
174.99998969000742
 11
41.891809411951044
 21
174.99998969000742
  0
LINE
  8
_1-0_
  6
CONTINUOUS
 62
    5
 10
1866.8921393317146
 20
75
 11
1866.8921393317146
 21
174.99998969000742
  0
LINE
  8
_1-0_
  6
CONTINUOUS
 62
    5
 10
693.24330510319896
 20
174.99998969000742
 11
693.24330510319896
 21
75
  0
LINE
  8
_1-0_
  6
CONTINUOUS
 62
    5
 10
1082.4324324324325
 20
174.99998969000742
 11
1082.4324324324325
 21
75
  0
LINE
  8
_1-0_
  6
CONTINUOUS
 62
    5
 10
693.24330510319896
 20
124.99999484500371
 11
1082.4324324324325
 21
124.99999484500371
  0
LINE
  8
_1-0_
  6
CONTINUOUS
 62
    5
 10
1990.5406642604521
 20
154.05405405405403
 11
1927.7025789827915
 21
91.216223948710677
  0
LINE
  8
_0-1_
  6
CONTINUOUS
 62
    7
 10
1335.5453078811233
 20
844.83892079946156
 11
1352.9899390968117
 21
844.83892079946156
  0
LINE
  8
_0-1_
  6
CONTINUOUS
 62
    7
 10
1469.5453540698904
 20
818.53260349582979
 11
1469.5453540698904
 21
759.83888780748532
  0
LINE
  8
_0-1_
  6
CONTINUOUS
 62
    7
 10
1469.5453540698904
 20
759.83888780748532
 11
1485.5453078811233
 21
759.83888780748532
  0
LINE
  8
_0-1_
  6
CONTINUOUS
 62
    7
 10
1485.5453078811233
 20
818.83893399625219
 11
1485.5453078811233
 21
759.83888780748532
  0
LINE
  8
_0-1_
  6
CONTINUOUS
 62
    7
 10
905.67565093169355
 20
864.86484424487969
 11
915.67568392366979
 21
864.86484424487969
  0
LINE
  8
_0-1_
  6
CONTINUOUS
 62
    7
 10
905.67565093169355
 20
864.86484424487969
 11
905.67565093169355
 21
849.86485661687084
  0
LINE
  8
ADD_LINE
  6
DOT
 62
    7
 10
1008.7616791596283
 20
814.35247885214324
 11
1048.825403161951
 21
814.35247885214324
  0
LINE
  8
ADD_LINE
  6
DOT
 62
    7
 10
1008.7616791596283
 20
814.35247885214324
 11
983.54162267736501
 21
814.35247885214324
  0
LINE
  8
ADD_LINE
  6
DOT
 62
    7
 10
1048.825403161951
 20
814.35247885214324
 11
1246.7171333931587
 21
814.35247885214324
  0
LINE
  8
_0-1_
  6
CONTINUOUS
 62
    7
 10
915.67568392366979
 20
864.86484424487969
 11
915.67568392366979
 21
861.65140512827281
  0
LINE
  8
_0-3_
  6
CONTINUOUS
 62
    7
 10
1165.6756426836994
 20
851.35246483055323
 11
1165.6756426836994
 21
836.35247720254438
  0
LINE
  8
_0-3_
  6
CONTINUOUS
 62
    7
 10
1197.265047640414
 20
846.62995209565042
 11
1215.6756839236698
 21
839.35249947212833
  0
LINE
  8
_0-2_
  6
CONTINUOUS
 62
    7
 10
1385.6756261877113
 20
851.35252669050885
 11
1385.6756261877113
 21
836.3525390625
  0
LINE
  8
_0-2_
  6
CONTINUOUS
 62
    7
 10
1381.5453606682854
 20
717.35241864178636
 11
1381.5453606682854
 21
777.3524310137775
  0
LINE
  8
_0-2_
  6
CONTINUOUS
 62
    7
 10
1381.5453606682854
 20
777.3524310137775
 11
1441.5453111803211
 21
777.3524310137775
  0
LINE
  8
_0-2_
  6
CONTINUOUS
 62
    7
 10
1441.5453111803211
 20
777.3524310137775
 11
1441.5453111803211
 21
717.35241864178636
  0
LINE
  8
_0-2_
  6
CONTINUOUS
 62
    7
 10
1441.5453111803211
 20
717.35241864178636
 11
1381.5453606682854
 21
717.35241864178636
  0
LINE
  8
_0-1_
  6
CONTINUOUS
 62
    7
 10
295.67561793971709
 20
777.3524310137775
 11
1441.5453111803211
 21
777.3524310137775
  0
LINE
  8
_0-1_
  6
CONTINUOUS
 62
    7
 10
295.67561793971709
 20
814.35247885214324
 11
466.71709627718542
 21
814.35247885214324
  0
LINE
  8
_0-1_
  6
CONTINUOUS
 62
    7
 10
295.67561793971709
 20
814.35247885214324
 11
1309.4594594594596
 21
814.35247885214324
  0
LINE
  8
_0-2_
  6
CONTINUOUS
 62
    7
 10
1381.5453606682854
 20
717.35241864178636
 11
295.67561793971709
 21
717.35241864178636
  0
LINE
  8
_0-2_
  6
CONTINUOUS
 62
    7
 10
1441.5453111803211
 20
717.35241864178636
 11
1450.4825901340794
 21
717.35241864178636
  0
LINE
  8
_0-2_
  6
CONTINUOUS
 62
    7
 10
295.67561793971709
 20
711.35243596257396
 11
1450.4825901340794
 21
711.35243596257396
  0
LINE
  8
_0-2_
  6
CONTINUOUS
 62
    7
 10
1450.4825901340794
 20
717.35241864178636
 11
1450.4825901340794
 21
711.35243596257396
  0
LINE
  8
_0-2_
  6
CONTINUOUS
 62
    7
 10
1441.5453111803211
 20
691.35243183857699
 11
1465.5453656170821
 21
691.35243183857699
  0
LINE
  8
_0-2_
  6
CONTINUOUS
 62
    7
 10
1465.5453656170821
 20
789.35245823215791
 11
1465.5453656170821
 21
691.35243183857699
  0
LINE
  8
_0-2_
  6
CONTINUOUS
 62
    7
 10
1441.5453111803211
 20
789.35245823215791
 11
1441.5453111803211
 21
717.35241864178636
  0
LINE
  8
_0-2_
  6
CONTINUOUS
 62
    7
 10
1441.5453111803211
 20
711.35243596257396
 11
1441.5453111803211
 21
691.35243183857699
  0
LINE
  8
_0-2_
  6
CONTINUOUS
 62
    7
 10
1463.5128949139571
 20
691.35243183857699
 11
1465.5453656170821
 21
693.3849644016575
  0
LINE
  8
_0-2_
  6
CONTINUOUS
 62
    7
 10
1453.6134462098817
 20
691.35243183857699
 11
1465.5453656170821
 21
703.28441310573271
  0
LINE
  8
_0-2_
  6
CONTINUOUS
 62
    7
 10
1443.7138737858954
 20
691.35243183857699
 11
1465.5453656170821
 21
713.18392366976354
  0
LINE
  8
_0-2_
  6
CONTINUOUS
 62
    7
 10
1441.5453111803211
 20
699.08337979703333
 11
1465.5453656170821
 21
723.08343423379438
  0
LINE
  8
_0-2_
  6
CONTINUOUS
 62
    7
 10
1441.5453111803211
 20
708.9829522210199
 11
1443.914794921875
 21
711.35243596257396
  0
LINE
  8
_0-2_
  6
CONTINUOUS
 62
    7
 10
1449.9148394610434
 20
717.35241864178636
 11
1465.5453656170821
 21
732.98300665778083
  0
LINE
  8
_0-2_
  6
CONTINUOUS
 62
    7
 10
1441.5453111803211
 20
718.882400925095
 11
1465.5453656170821
 21
742.88245536185605
  0
LINE
  8
_0-2_
  6
CONTINUOUS
 62
    7
 10
1441.5453111803211
 20
728.78191148912595
 11
1465.5453656170821
 21
752.78190406593126
  0
LINE
  8
_0-2_
  6
CONTINUOUS
 62
    7
 10
1441.5453111803211
 20
738.68142205315678
 11
1465.5453656170821
 21
762.68147648991771
  0
LINE
  8
_0-2_
  6
CONTINUOUS
 62
    7
 10
1441.5453111803211
 20
748.58099447714324
 11
1465.5453656170821
 21
772.58098705394855
  0
LINE
  8
_0-2_
  6
CONTINUOUS
 62
    7
 10
1441.5453111803211
 20
758.48044318121833
 11
1465.5453656170821
 21
782.48049761797927
  0
LINE
  8
_0-2_
  6
CONTINUOUS
 62
    7
 10
1381.5453606682854
 20
777.3524310137775
 11
1441.5453111803211
 21
717.35241864178636
  0
LINE
  8
_0-2_
  6
CONTINUOUS
 62
    7
 10
1108.5453755146748
 20
717.35241864178636
 11
1108.5453755146748
 21
777.35236915382188
  0
LINE
  8
_0-2_
  6
CONTINUOUS
 62
    7
 10
1108.5453755146748
 20
777.35236915382188
 11
1168.5453260267104
 21
777.35236915382188
  0
LINE
  8
_0-2_
  6
CONTINUOUS
 62
    7
 10
1168.5453260267104
 20
777.35236915382188
 11
1168.5453260267104
 21
717.35241864178636
  0
LINE
  8
_0-2_
  6
CONTINUOUS
 62
    7
 10
1168.5453260267104
 20
717.35241864178636
 11
1108.5453755146748
 21
717.35241864178636
  0
LINE
  8
_0-2_
  6
CONTINUOUS
 62
    7
 10
1108.5453755146748
 20
777.35236915382188
 11
1168.5453260267104
 21
717.35241864178636
  0
LINE
  8
_0-2_
  6
CONTINUOUS
 62
    7
 10
805.54541510504646
 20
717.35241864178636
 11
805.54541510504646
 21
777.35236915382188
  0
LINE
  8
_0-2_
  6
CONTINUOUS
 62
    7
 10
805.54541510504646
 20
777.35236915382188
 11
865.5453656170821
 21
777.35236915382188
  0
LINE
  8
_0-2_
  6
CONTINUOUS
 62
    7
 10
865.5453656170821
 20
777.35236915382188
 11
865.5453656170821
 21
717.35241864178636
  0
LINE
  8
_0-2_
  6
CONTINUOUS
 62
    7
 10
865.5453656170821
 20
717.35241864178636
 11
805.54541510504646
 21
717.35241864178636
  0
LINE
  8
_0-2_
  6
CONTINUOUS
 62
    7
 10
805.54541510504646
 20
777.35236915382188
 11
865.5453656170821
 21
717.35241864178636
  0
LINE
  8
_0-2_
  6
CONTINUOUS
 62
    7
 10
502.54545469541813
 20
717.35241864178636
 11
502.54545469541813
 21
777.35236915382188
  0
LINE
  8
_0-2_
  6
CONTINUOUS
 62
    7
 10
502.54545469541813
 20
777.35236915382188
 11
562.54540520745354
 21
777.35236915382188
  0
LINE
  8
_0-2_
  6
CONTINUOUS
 62
    7
 10
562.54540520745354
 20
777.35236915382188
 11
562.54540520745354
 21
717.35241864178636
  0
LINE
  8
_0-2_
  6
CONTINUOUS
 62
    7
 10
562.54540520745354
 20
717.35241864178636
 11
502.54545469541813
 21
717.35241864178636
  0
LINE
  8
_0-2_
  6
CONTINUOUS
 62
    7
 10
502.54545469541813
 20
777.35236915382188
 11
562.54540520745354
 21
717.35241864178636
  0
LINE
  8
_0-2_
  6
CONTINUOUS
 62
    7
 10
1343.0861601958404
 20
793.35244668496625
 11
1343.0861601958404
 21
796.3524070945947
  0
LINE
  8
_0-2_
  6
CONTINUOUS
 62
    7
 10
1393.0860777158996
 20
796.3524070945947
 11
1393.0860777158996
 21
793.35244668496625
  0
LINE
  8
_0-2_
  6
CONTINUOUS
 62
    7
 10
1343.0861601958404
 20
793.35244668496625
 11
1393.0860777158996
 21
796.3524070945947
  0
LINE
  8
_0-2_
  6
CONTINUOUS
 62
    7
 10
340.67570454365494
 20
793.35244668496625
 11
340.67570454365494
 21
796.3524070945947
  0
LINE
  8
_0-2_
  6
CONTINUOUS
 62
    7
 10
340.67570454365494
 20
796.3524070945947
 11
390.67562206371406
 21
796.3524070945947
  0
LINE
  8
_0-2_
  6
CONTINUOUS
 62
    7
 10
390.67562206371406
 20
796.3524070945947
 11
390.67562206371406
 21
793.35244668496625
  0
LINE
  8
_0-2_
  6
CONTINUOUS
 62
    7
 10
390.67562206371406
 20
793.35244668496625
 11
340.67570454365494
 21
793.35244668496625
  0
LINE
  8
_0-2_
  6
CONTINUOUS
 62
    7
 10
340.67570454365494
 20
793.35244668496625
 11
390.67562206371406
 21
796.3524070945947
  0
LINE
  8
_0-2_
  6
CONTINUOUS
 62
    7
 10
600.67569629566094
 20
793.35244668496625
 11
600.67569629566094
 21
796.3524070945947
  0
LINE
  8
_0-2_
  6
CONTINUOUS
 62
    7
 10
600.67569629566094
 20
796.3524070945947
 11
650.67561381572
 21
796.3524070945947
  0
LINE
  8
_0-2_
  6
CONTINUOUS
 62
    7
 10
650.67561381572
 20
796.3524070945947
 11
650.67561381572
 21
793.35244668496625
  0
LINE
  8
_0-2_
  6
CONTINUOUS
 62
    7
 10
650.67561381572
 20
793.35244668496625
 11
600.67569629566094
 21
793.35244668496625
  0
LINE
  8
_0-2_
  6
CONTINUOUS
 62
    7
 10
600.67569629566094
 20
793.35244668496625
 11
650.67561381572
 21
796.3524070945947
  0
LINE
  8
_0-2_
  6
CONTINUOUS
 62
    7
 10
860.6757499076225
 20
793.35244668496625
 11
860.6757499076225
 21
796.3524070945947
  0
LINE
  8
_0-2_
  6
CONTINUOUS
 62
    7
 10
860.6757499076225
 20
796.3524070945947
 11
910.67566742768167
 21
796.3524070945947
  0
LINE
  8
_0-2_
  6
CONTINUOUS
 62
    7
 10
910.67566742768167
 20
796.3524070945947
 11
910.67566742768167
 21
793.35244668496625
  0
LINE
  8
_0-2_
  6
CONTINUOUS
 62
    7
 10
910.67566742768167
 20
793.35244668496625
 11
860.6757499076225
 21
793.35244668496625
  0
LINE
  8
_0-2_
  6
CONTINUOUS
 62
    7
 10
860.6757499076225
 20
793.35244668496625
 11
910.67566742768167
 21
796.3524070945947
  0
LINE
  8
_0-2_
  6
CONTINUOUS
 62
    7
 10
1120.6756179397171
 20
793.35244668496625
 11
1120.6756179397171
 21
796.3524070945947
  0
LINE
  8
_0-2_
  6
CONTINUOUS
 62
    7
 10
1120.6756179397171
 20
796.3524070945947
 11
1170.6755354597763
 21
796.3524070945947
  0
LINE
  8
_0-2_
  6
CONTINUOUS
 62
    7
 10
1170.6755354597763
 20
796.3524070945947
 11
1170.6755354597763
 21
793.35244668496625
  0
LINE
  8
_0-2_
  6
CONTINUOUS
 62
    7
 10
1170.6755354597763
 20
793.35244668496625
 11
1120.6756179397171
 21
793.35244668496625
  0
LINE
  8
_0-2_
  6
CONTINUOUS
 62
    7
 10
1120.6756179397171
 20
793.35244668496625
 11
1170.6755354597763
 21
796.3524070945947
  0
LINE
  8
_0-2_
  6
CONTINUOUS
 62
    7
 10
1343.0861601958404
 20
796.3524070945947
 11
1393.9849028716217
 21
796.3524070945947
  0
LINE
  8
_0-2_
  6
DASHED1
 62
    7
 10
1441.9566798854519
 20
808.9665180927999
 11
1433.3983550200592
 21
806.27097052496833
  0
LINE
  8
_0-2_
  6
DASHED1
 62
    7
 10
1433.3983550200592
 20
806.27097052496833
 11
1441.9566798854519
 21
803.96650159681167
  0
LINE
  8
_0-2_
  6
DASHED1
 62
    7
 10
1441.9566798854519
 20
808.9665180927999
 11
1485.5453078811233
 21
808.9665180927999
  0
LINE
  8
_0-2_
  6
DASHED1
 62
    7
 10
1441.9566798854519
 20
803.96650159681167
 11
1485.5453078811233
 21
803.96650159681167
  0
LINE
  8
_0-2_
  6
DASHED1
 62
    7
 10
1441.9566798854519
 20
808.9665180927999
 11
1441.9566798854519
 21
803.96650159681167
  0
LINE
  8
_0-2_
  6
CONTINUOUS
 62
    7
 10
1488.5523203256969
 20
813.08595811998532
 11
1485.5453078811233
 21
813.08595811998532
  0
LINE
  8
_0-2_
  6
CONTINUOUS
 62
    7
 10
1488.5523203256969
 20
798.02961607237125
 11
1485.5453078811233
 21
798.02961607237125
  0
LINE
  8
_0-2_
  6
CONTINUOUS
 62
    7
 10
1488.5523203256969
 20
813.08595811998532
 11
1488.5523203256969
 21
798.02961607237125
  0
LINE
  8
_0-5_
  6
CONTINUOUS
 62
    7
 10
435.67570866765203
 20
1090.5405405405406
 11
695.67563855970229
 21
1090.5405405405406
  0
LINE
  8
_0-5_
  6
CONTINUOUS
 62
    7
 10
435.67570866765203
 20
956.75675675675677
 11
435.67570866765203
 21
1090.5405405405406
  0
LINE
  8
_0-5_
  6
CONTINUOUS
 62
    7
 10
695.67563855970229
 20
956.75675675675677
 11
695.67563855970229
 21
1090.5405405405406
  0
LINE
  8
_0-5_
  6
CONTINUOUS
 62
    7
 10
695.67563855970229
 20
1090.5405405405406
 11
955.67569217166397
 21
1090.5405405405406
  0
LINE
  8
_0-5_
  6
CONTINUOUS
 62
    7
 10
955.67569217166397
 20
956.75675675675677
 11
955.67569217166397
 21
1090.5405405405406
  0
LINE
  8
_0-5_
  6
CONTINUOUS
 62
    7
 10
955.67569217166397
 20
1090.5405405405406
 11
1215.6755602037586
 21
1090.5405405405406
  0
LINE
  8
_0-5_
  6
CONTINUOUS
 62
    7
 10
1215.6755602037586
 20
956.75675675675677
 11
1215.6755602037586
 21
1090.5405405405406
  0
LINE
  8
_0-5_
  6
CONTINUOUS
 62
    7
 10
1215.6755602037586
 20
1090.5405405405406
 11
1335.6755849477408
 21
1090.5405405405406
  0
LINE
  8
_0-5_
  6
CONTINUOUS
 62
    7
 10
1335.6755849477408
 20
956.75675675675677
 11
1335.6755849477408
 21
1090.5405405405406
  0
LINE
  8
_0-5_
  6
CONTINUOUS
 62
    7
 10
1465.5453656170821
 20
622.00383366765209
 11
1485.5453078811233
 21
622.00383366765209
  0
LINE
  8
_0-5_
  6
CONTINUOUS
 62
    7
 10
1465.5453656170821
 20
668.64896207242396
 11
1465.5453656170821
 21
622.00383366765209
  0
LINE
  8
_0-5_
  6
CONTINUOUS
 62
    7
 10
1485.5453078811233
 20
668.64896207242396
 11
1485.5453078811233
 21
622.00383366765209
  0
LINE
  8
_0-5_
  6
CONTINUOUS
 62
    7
 10
1226.7035819388725
 20
827.52796894795199
 11
1295.3562556086358
 21
1016.1496755239126
  0
LINE
  8
_0-5_
  6
CONTINUOUS
 62
    7
 10
1493.8689360747467
 20
804.31706196553012
 11
1530.5693342879013
 21
905.15052176810605
  0
LINE
  8
_0-5_
  6
CONTINUOUS
 62
    7
 10
1451.4146959459461
 20
696.12733995592282
 11
1408.0674454972552
 21
577.03189334353885
  0
LINE
  8
_0-5_
  6
CONTINUOUS
 62
    7
 10
870.87027060019011
 20
885.41948473131345
 11
834.52767037056583
 21
985.26986611856
  0
LINE
  8
_0-5_
  6
CONTINUOUS
 62
    7
 10
834.52767037056583
 20
985.26986611856
 11
825.77479594462625
 21
985.26986611856
  0
LINE
  8
_0-5_
  6
CONTINUOUS
 62
    7
 10
1295.3562556086358
 20
1016.1496755239126
 11
1309.2872413429054
 21
1016.1496755239126
  0
LINE
  8
_0-5_
  6
CONTINUOUS
 62
    7
 10
1450.7464847049198
 20
1047.3646421690246
 11
1462.3083578573692
 21
1047.3646421690246
  0
LINE
  8
_0-5_
  6
CONTINUOUS
 62
    7
 10
1530.5693342879013
 20
905.15052176810605
 11
1544.9233183989654
 21
905.15052176810605
  0
LINE
  8
_0-5_
  6
CONTINUOUS
 62
    7
 10
1408.0674454972552
 20
577.03189334353885
 11
1386.4864864864865
 21
577.03189334353885
  0
LINE
  8
_0-5_
  6
CONTINUOUS
 62
    7
 10
1027.6478947819892
 20
510.72473268251167
 11
1054.7602473078548
 21
510.72473268251167
  0
LINE
  8
_0-5_
  6
CONTINUOUS
 62
    7
 10
1027.6478947819892
 20
531.60546792520063
 11
1062.3602377401817
 21
531.60546792520063
  0
LINE
  8
_0-5_
  6
CONTINUOUS
 62
    7
 10
1027.6478947819892
 20
550.32608444626271
 11
1069.1739881360854
 21
550.32608444626271
  0
LINE
  8
_0-5_
  6
CONTINUOUS
 62
    7
 10
1027.6478947819892
 20
590.64751702385979
 11
1083.8498914563979
 21
590.64751702385979
  0
LINE
  8
_0-1_
  6
CONTINUOUS
 62
    7
 10
1309.4594594594596
 20
814.35247885214324
 11
1393.9849028716217
 21
814.35247885214324
  0
LINE
  8
_0-5_
  6
CONTINUOUS
 62
    7
 10
1393.9849028716217
 20
796.3524070945947
 11
1393.9849028716217
 21
814.35247885214324
  0
LINE
  8
_0-5_
  6
DASHED1
 62
    3
 10
1394.2697061074748
 20
791.12672548036312
 11
1394.2697061074748
 21
850.20619985219594
  0
LINE
  8
_0-1_
  6
CONTINUOUS
 62
    7
 10
295.67561793971709
 20
796.3524689545502
 11
1393.9849028716217
 21
796.3524689545502
  0
LINE
  8
_0-2_
  6
DASHED1
 62
    3
 10
294.61335878114437
 20
791.2257014094173
 11
1394.2697061074748
 21
791.2257014094173
  0
LINE
  8
_0-5_
  6
CONTINUOUS
 62
    7
 10
1450.7464847049198
 20
1047.3646421690246
 11
1391.5458885399073
 21
884.71242543813344
  0
LINE
  8
_0-5_
  6
CONTINUOUS
 62
    7
 10
1435.7142680400127
 20
840.63708331133864
 11
1481.3749571104308
 21
966.08864036766261
  0
LINE
  8
_0-5_
  6
CONTINUOUS
 62
    7
 10
1481.3749571104308
 20
966.08864036766261
 11
1495.9459459459461
 21
966.08864036766261
  0
ARC
  8
_0-1_
  6
CONTINUOUS
 62
    7
 10
364.88292797191718
 20
821.97473886850719
 40
57.894481194985879
 50
25.205398559570313
 51
167.5159912109375
  0
ARC
  8
_0-1_
  6
CONTINUOUS
 62
    7
 10
624.88291972392312
 20
821.97473886850719
 40
72.894480421736432
 50
13.791900634765625
 51
161.69851684570312
  0
ARC
  8
_0-1_
  6
CONTINUOUS
 62
    7
 10
488.76169565561662
 20
981.72887853674001
 40
167.37638421960781
 50
231.9831237792969
 51
298.39506530761719
  0
ARC
  8
_0-1_
  6
CONTINUOUS
 62
    7
 10
624.88291972392312
 20
821.97473886850719
 40
57.894481194985879
 50
25.205398559570313
 51
167.5159912109375
  0
ARC
  8
_0-1_
  6
CONTINUOUS
 62
    7
 10
488.01919060784422
 20
984.86480712890625
 40
155.49068966427365
 50
234.57966613769534
 51
295.79264831542969
  0
ARC
  8
_0-1_
  6
CONTINUOUS
 62
    7
 10
405.4803796716638
 20
865.42999679977834
 40
10.507658687797754
 50
201.07586669921878
 51
223.8392028808594
  0
ARC
  8
_0-1_
  6
CONTINUOUS
 62
    7
 10
884.88291147592906
 20
821.97473886850719
 40
72.894480421736432
 50
13.791900634765625
 51
161.69851684570312
  0
ARC
  8
_0-1_
  6
CONTINUOUS
 62
    7
 10
748.7616874076225
 20
981.72887853674001
 40
167.37638421960781
 50
231.9831237792969
 51
298.39506530761719
  0
ARC
  8
_0-1_
  6
CONTINUOUS
 62
    7
 10
884.88291147592906
 20
821.97473886850719
 40
57.894481194985879
 50
25.205398559570313
 51
167.5159912109375
  0
ARC
  8
_0-1_
  6
CONTINUOUS
 62
    7
 10
748.01924421980573
 20
984.86480712890625
 40
155.49068966427365
 50
234.57966613769534
 51
295.79264831542969
  0
ARC
  8
_0-1_
  6
CONTINUOUS
 62
    7
 10
665.48037142366979
 20
865.42999679977834
 40
10.507658687797754
 50
201.07586669921878
 51
223.8392028808594
  0
ARC
  8
_0-1_
  6
CONTINUOUS
 62
    7
 10
1408.0346597207561
 20
817.35478994008656
 40
77.524790892729897
 50
1.0969390869140625
 51
159.23590087890625
  0
ARC
  8
_0-1_
  6
CONTINUOUS
 62
    7
 10
1408.0346597207561
 20
817.35478994008656
 40
61.524790686530039
 50
1.0969390869140625
 51
153.46676635742187
  0
ARC
  8
_0-1_
  6
CONTINUOUS
 62
    7
 10
1144.882903227935
 20
821.97473886850719
 40
72.894480421736432
 50
13.791900634765625
 51
161.69851684570312
  0
ARC
  8
_0-1_
  6
CONTINUOUS
 62
    7
 10
1008.7616791596283
 20
981.72887853674001
 40
167.37638421960781
 50
231.9831237792969
 51
298.39506530761719
  0
ARC
  8
_0-1_
  6
CONTINUOUS
 62
    7
 10
1144.882903227935
 20
821.97473886850719
 40
57.894481194985879
 50
25.205398559570313
 51
167.5159912109375
  0
ARC
  8
_0-1_
  6
CONTINUOUS
 62
    7
 10
1008.0191122519004
 20
984.86480712890625
 40
155.49068966427365
 50
234.57966613769534
 51
295.79264831542969
  0
ARC
  8
_0-1_
  6
CONTINUOUS
 62
    7
 10
925.48036317567585
 20
865.42999679977834
 40
10.507658687797754
 50
201.07586669921878
 51
223.8392028808594
  0
ARC
  8
_0-3_
  6
CONTINUOUS
 62
    7
 10
1275.6756344357054
 20
1143.8524400865711
 40
312.4998865900813
 50
249.39030456542969
 51
290.60969543457031
  0
ARC
  8
_0-3_
  6
CONTINUOUS
 62
    7
 10
1275.6756344357054
 20
1100.3525192673142
 40
285.99997855521542
 50
247.38014221191406
 51
292.61985778808594
  0
ARC
  8
_0-1_
  6
CONTINUOUS
 62
    7
 10
364.88292797191718
 20
821.97473886850719
 40
72.894480421736432
 50
13.791900634765625
 51
161.69857788085937
  0
ARC
  8
_0-1_
  6
CONTINUOUS
 62
    7
 10
228.76170390361068
 20
981.72887853674001
 40
167.37638421960781
 50
293.56448364257812
 51
298.39506530761719
  0
ARC
  8
_0-1_
  6
CONTINUOUS
 62
    7
 10
228.01926071579402
 20
984.86480712890625
 40
155.49068966427365
 50
295.79257202148437
 51
295.79264831542969
  0
ARC
  8
_0-2_
  6
CONTINUOUS
 62
    7
 10
1487.9976839632602
 20
806.03324271537167
 40
4.517616130210258
 50
277.0521240234375
 51
82.9478759765625
  0
TEXT
  8
_1-0_
 62
    7
 10
717.5675778775601
 20
145.94594594594597
 40
12.5
 41
1
 50
0
  1
図名
  0
TEXT
  8
_1-0_
 62
    7
 10
717.5675778775601
 20
97.297297297297263
 40
12.5
 41
1
 50
0
  1
縮尺
  0
TEXT
  8
_1-0_
 62
    7
 10
1893.6189599939298
 20
138.65179113439609
 40
12.5
 41
1
 50
0
  1
ＮＯ
  0
TEXT
  8
_1-0_
 62
    7
 10
135.88908169720625
 20
125.3822120460304
 40
12.5
 41
1
 50
0
  1
木造
  0
TEXT
  8
_1-0_
 62
    7
 10
206.71764322229336
 20
101.30050246779987
 40
12.5
 41
1
 50
0
  1
袖
  0
TEXT
  8
_1-0_
 62
    7
 10
1927.7262301058386
 20
115.24704598091745
 40
12.5
 41
1
 50
0
  1
Ｓ
  0
TEXT
  8
_1-0_
 62
    7
 10
1981.6654720821896
 20
101.32788323067331
 40
12.5
 41
1
 50
0
  1
4
  0
TEXT
  8
_1-0_
 62
    7
 10
239.94052732313008
 20
101.30050246779987
 40
12.5
 41
1
 50
0
  1
2
  0
TEXT
  8
_1-0_
 62
    7
 10
849.03475787188552
 20
91.357117730217965
 40
12.5
 41
1
 50
0
  1
1/5
  0
TEXT
  8
_0-5_
 62
    7
 10
556.30064268369938
 20
1093.0405487885346
 40
12.5
 41
1
 50
0
  1
260
  0
TEXT
  8
_0-5_
 62
    7
 10
816.30063443570532
 20
1093.0405487885346
 40
12.5
 41
1
 50
0
  1
260
  0
TEXT
  8
_0-5_
 62
    7
 10
1076.3006261877113
 20
1093.0405487885346
 40
12.5
 41
1
 50
0
  1
260
  0
TEXT
  8
_0-5_
 62
    7
 10
1266.300510715794
 20
1093.0405487885346
 40
12.5
 41
1
 50
0
  1
120
  0
TEXT
  8
_0-5_
 62
    7
 10
1469.2953367491027
 20
624.50384191564615
 40
12.5
 41
1
 50
0
  1
20
  0
TEXT
  8
_0-5_
 62
    7
 10
1321.9972558923673
 20
1014.507479281039
 40
12.5
 41
1
 50
0
  1
Ｓ　半瓦
  0
TEXT
  8
_0-5_
 62
    7
 10
1479.8784204431486
 20
1041.5123192039696
 40
12.5
 41
1
 50
0
  1
Ｓ　右袖瓦
  0
TEXT
  8
_0-5_
 62
    7
 10
1342.330107817779
 20
572.99509821711365
 40
12.5
 41
1
 50
0
  1
破風板
  0
POINT
  8
_0-5_
 62
    7
 10
435.67570866765203
 20
1090.5405405405406
  0
POINT
  8
_0-5_
 62
    7
 10
695.67563855970229
 20
1090.5405405405406
  0
POINT
  8
_0-5_
 62
    7
 10
955.67569217166397
 20
1090.5405405405406
  0
POINT
  8
_0-5_
 62
    7
 10
1215.6755602037586
 20
1090.5405405405406
  0
POINT
  8
_0-5_
 62
    7
 10
1335.6755849477408
 20
1090.5405405405406
  0
POINT
  8
_0-5_
 62
    7
 10
1465.5453656170821
 20
622.00383366765209
  0
POINT
  8
_0-5_
 62
    7
 10
1485.5453078811233
 20
622.00383366765209
  0
TEXT
  8
_0-5_
 62
    7
 10
735.53037016761721
 20
583.36926022091438
 40
12.5
 41
1
 50
0
  1
瓦桟
  0
TEXT
  8
_0-5_
 62
    7
 10
735.53034954763189
 20
504.18130720022998
 40
12.5
 41
1
 50
0
  1
野地板　ｔ＝12
  0
TEXT
  8
_0-5_
 62
    7
 10
802.31269776804481
 20
484.18130307623301
 40
12.5
 41
1
 50
0
  1
60ｘ60
  0
LINE
  8
_0-5_
  6
CONTINUOUS
 62
    7
 10
1161.7420918232685
 20
804.65463174356
 11
1047.0658228698428
 21
489.58449707859199
  0
LINE
  8
_0-5_
  6
CONTINUOUS
 62
    7
 10
1027.6478947819892
 20
590.64751702385979
 11
970.45887560376377
 21
590.64751702385979
  0
LINE
  8
_0-5_
  6
CONTINUOUS
 62
    7
 10
966.60564264666289
 20
489.58449707859199
 11
1047.0658228698428
 21
489.58449707859199
  0
LINE
  8
_0-5_
  6
CONTINUOUS
 62
    7
 10
1027.6478947819892
 20
510.72473268251167
 11
966.60564264666289
 21
510.72473268251167
  0
LINE
  8
_0-5_
  6
CONTINUOUS
 62
    7
 10
1027.6478947819892
 20
531.60546792520063
 11
966.60564264666289
 21
531.60546792520063
  0
LINE
  8
_0-5_
  6
CONTINUOUS
 62
    7
 10
1027.6478947819892
 20
550.32608444626271
 11
966.60564264666289
 21
550.32608444626271
  0
LINE
  8
_0-5_
  6
CONTINUOUS
 62
    7
 10
1076.5118836427127
 20
570.48680073506125
 11
1076.5119397962417
 21
570.48680073506125
  0
LINE
  8
_0-2_
  6
CONTINUOUS
 62
    7
 10
1441.5453111803211
 20
789.35245823215791
 11
1441.5453111803211
 21
832.53079973094486
  0
LINE
  8
_0-2_
  6
CONTINUOUS
 62
    7
 10
1465.5453656170821
 20
832.53079973094486
 11
1441.5453111803211
 21
832.53079973094486
  0
LINE
  8
_0-2_
  6
CONTINUOUS
 62
    7
 10
1465.5453656170821
 20
789.35245823215791
 11
1465.5453656170821
 21
832.53079973094486
  0
LINE
  8
_0-2_
  6
CONTINUOUS
 62
    7
 10
1442.2925132539629
 20
788.92617694695264
 11
1442.7187945391684
 21
789.35245823215791
  0
LINE
  8
_0-1_
  6
CONTINUOUS
 62
    7
 10
1465.5453656170821
 20
789.35245823215791
 11
1465.3394026007418
 21
789.35245823215791
  0
LINE
  8
_0-2_
  6
CONTINUOUS
 62
    7
 10
1441.5453111803211
 20
768.37989188529355
 11
1465.5453656170821
 21
792.3800171119932
  0
LINE
  8
_0-2_
  6
CONTINUOUS
 62
    7
 10
1441.5453111803211
 20
788.17897487331084
 11
1465.5453656170821
 21
812.17902931007143
  0
LINE
  8
_0-2_
  6
CONTINUOUS
 62
    7
 10
1441.5453111803211
 20
778.27946430928012
 11
1465.5453656170821
 21
802.27938466902242
  0
LINE
  8
_0-2_
  6
CONTINUOUS
 62
    7
 10
1441.5453111803211
 20
798.57967570302901
 11
1465.5453656170821
 21
822.57973013978994
  0
LINE
  8
_0-2_
  6
CONTINUOUS
 62
    7
 10
1441.5453111803211
 20
809.55522410779668
 11
1464.5208868034695
 21
832.53079973094486
  0
LINE
  8
_0-2_
  6
CONTINUOUS
 62
    7
 10
1441.5453111803211
 20
818.13610740606964
 11
1455.9400035051965
 21
832.53079973094486
  0
LINE
  8
_0-2_
  6
CONTINUOUS
 62
    7
 10
1441.5453111803211
 20
827.71476783204878
 11
1446.3613430792175
 21
832.53079973094486
  0
LINE
  8
_0-2_
  6
CONTINUOUS
 62
    7
 10
1441.5453111803211
 20
789.35245823215791
 11
1396.5453111803211
 21
789.35245823215791
  0
LINE
  8
_0-2_
  6
CONTINUOUS
 62
    7
 10
1396.5453111803211
 20
789.35245823215791
 11
1396.5453111803211
 21
849.35245823215791
  0
LINE
  8
_0-2_
  6
CONTINUOUS
 62
    7
 10
1396.5453111803211
 20
849.35245823215791
 11
1441.5453111803211
 21
849.35245823215791
  0
LINE
  8
_0-2_
  6
CONTINUOUS
 62
    7
 10
1441.5453111803211
 20
849.35245823215791
 11
1441.5453111803211
 21
789.35245823215791
  0
LINE
  8
_0-2_
  6
DASHED1
 62
    3
 10
1394.2697061074748
 20
850.20619985219594
 11
1445.7829708977013
 21
850.20619985219594
  0
LINE
  8
_0-1_
  6
CONTINUOUS
 62
    7
 10
295.67561793971709
 20
789.35245823215791
 11
1441.5453111803211
 21
789.35245823215791
  0
LINE
  8
_0-5_
  6
CONTINUOUS
 62
    7
 10
1441.5453111803211
 20
789.35245823215791
 11
1395.0141288138727
 21
789.35245823215791
  0
LINE
  8
_0-1_
  6
CONTINUOUS
 62
    7
 10
1441.5453111803211
 20
789.35245823215791
 11
1423.5454250026394
 21
789.35245823215791
  0
TEXT
  8
_0-5_
 62
    7
 10
1501.5652836980048
 20
963.36216282200166
 40
12.5
 41
1
 50
0
  1
登り瓦座　45ｘ60
  0
LINE
  8
_0-2_
  6
CONTINUOUS
 62
    7
 10
1396.5453111803211
 20
849.35245823215791
 11
1441.5453111803211
 21
789.35245823215791
  0
LINE
  8
_0-2_
  6
CONTINUOUS
 62
    7
 10
1396.5453111803211
 20
789.35245823215791
 11
1441.5453111803211
 21
849.35245823215791
  0
LINE
  8
_0-1_
  6
CONTINUOUS
 62
    7
 10
295.67561793971709
 20
793.35244668496625
 11
1393.0860777158996
 21
793.35244668496625
  0
TEXT
  8
_0-5_
 62
    7
 10
791.90274820921991
 20
584.33680947577204
 40
12.5
 41
1
 50
0
  1
15×21以上　（防腐処理）
  0
TEXT
  8
_0-5_
 62
    7
 10
735.5303598576246
 20
544.18131544822415
 40
12.5
 41
1
 50
0
  1
縦桟
  0
TEXT
  8
_0-5_
 62
    7
 10
735.53034954763189
 20
524.18131132422695
 40
12.5
 41
1
 50
0
  1
ルーフィング
  0
TEXT
  8
_0-5_
 62
    7
 10
735.5303598576246
 20
484.18130307623301
 40
12.5
 41
1
 50
0
  1
たる木　
  0
TEXT
  8
_1-0_
 62
    7
 10
64.86900645347049
 20
144.93479392360484
 40
12.5
 41
1
 50
0
  1
Ｓ形
  0
TEXT
  8
_0-5_
 62
    7
 10
744.20847506136511
 20
981.7971719277873
 40
12.5
 41
1
 50
0
  1
Ｓ形　桟瓦
  0
TEXT
  8
_0-5_
 62
    7
 10
1552.2644867768158
 20
901.11131410341022
 40
12.5
 41
1
 50
0
  1
パッキン付ステンレスネジ
  0
ENDSEC
  0
EOF
