  0
SECTION
  2
HEADER
  9
$ACADVER
  1
AC1009
  9
$INSBASE
 10
0
 20
0
 30
0
  9
$EXTMIN
 10
0
 20
0
  9
$EXTMAX
 10
420
 20
297
  9
$LIMMIN
 10
0
 20
0
  9
$LIMMAX
 10
420
 20
297
  9
$LTSCALE
 40
1
  0
ENDSEC
  0
SECTION
  2
TABLES
  0
TABLE
  2
LTYPE
 70
     9
  0
LTYPE
  2
CONTINUOUS
 70
    64
  3
実線
 72
    65
 73
     0
 40
0.0
  0
LTYPE
  2
DASHED1
 70
    64
  3
--  --  --  --  --  --  --  --  
 72
    65
 73
     2
 40
2.5
 49
1.25
 49
-1.25
  0
LTYPE
  2
DASHED2
 70
    64
  3
----    ----    ----    ----    
 72
    65
 73
     2
 40
5.0
 49
2.5
 49
-2.5
  0
LTYPE
  2
DASHED3
 70
    64
  3
------  ------  ------  ------  
 72
    65
 73
     2
 40
5.0
 49
3.75
 49
-1.25
  0
LTYPE
  2
CENTER1
 70
    64
  3
----- - ----- - ----- - ----- - 
 72
    65
 73
     4
 40
10.0
 49
6.25
 49
-1.25
 49
1.25
 49
-1.25
  0
LTYPE
  2
CENTER2
 70
    64
  3
----------  --  ----------  --  
 72
    65
 73
     4
 40
20.0
 49
12.5
 49
-2.5
 49
2.5
 49
-2.5
  0
LTYPE
  2
PHANTOM1
 70
    64
  3
--- - - --- - - --- - - --- - - 
 72
    65
 73
     6
 40
10.0
 49
3.25
 49
-1.25
 49
1.25
 49
-1.25
 49
1.25
 49
-1.25
  0
LTYPE
  2
PHANTOM2
 70
    64
  3
--------  -  -  --------  -  -  
 72
    65
 73
     6
 40
20.0
 49
10.0
 49
-2.5
 49
1.25
 49
-2.5
 49
1.25
 49
-2.5
  0
LTYPE
  2
DOT
 70
    64
  3
-   -   -   -   -   -   -   -   
 72
    65
 73
     2
 40
2.5
 49
0.625
 49
-1.875
  0
LTYPE
  2
DUMMY
 70
    64
  3
ダミー
 72
    65
 73
     0
 40
0.0
  0
LTYPE
  2
RAND1
 70
    64
  3
ランダム線1
 72
    65
 73
     4
 40
10.0
 49
1.0
 49
-2.0
 49
3.0
 49
-4.0
  0
LTYPE
  2
RAND2
 70
    64
  3
ランダム線2
 72
    65
 73
     4
 40
14.0
 49
2.0
 49
-3.0
 49
4.0
 49
-5.0
  0
LTYPE
  2
RAND3
 70
    64
  3
ランダム線3
 72
    65
 73
     4
 40
18.0
 49
3.0
 49
-4.0
 49
5.0
 49
-6.0
  0
LTYPE
  2
RAND4
 70
    64
  3
ランダム線4
 72
    65
 73
     4
 40
22.0
 49
4.0
 49
-5.0
 49
6.0
 49
-7.0
  0
LTYPE
  2
RAND5
 70
    64
  3
ランダム線5
 72
    65
 73
     4
 40
26.0
 49
5.0
 49
-6.0
 49
7.0
 49
-8.0
  0
LTYPE
  2
LONG1
 70
    64
  3
----------  --  ----------  --  
 72
    65
 73
     4
 40
40.0
 49
32.5
 49
-2.5
 49
2.5
 49
-2.5
  0
LTYPE
  2
LONG2
 70
    64
  3
--------  -  -  --------  -  -  
 72
    65
 73
     6
 40
40.0
 49
30.0
 49
-2.5
 49
1.25
 49
-2.5
 49
1.25
 49
-2.5
  0
LTYPE
  2
LONG3
 70
    64
  3
+++++++++++++++..+++++++++++++++
 72
    65
 73
     2
 40
40.0
 49
37.5
 49
-2.5
  0
LTYPE
  2
LONG4
 70
    64
  3
+++++++++++++++..+++++++++++++++
 72
    65
 73
     2
 40
80.0
 49
75.0
 49
-5.0
  0
LTYPE
  2
LONG5
 70
    64
  3
----------  --  ----------  --  
 72
    65
 73
     4
 40
60.0
 49
37.5
 49
-7.5
 49
7.5
 49
-7.5
  0
LTYPE
  2
dashed
 70
   64
  3
-------   -------------   ------
 72
   65
 73
    2
 40
7.5
 49
6
 49
-1.5
  0
LTYPE
  2
dashed_spaced
 70
   64
  3
----        --------        ----
 72
   65
 73
    2
 40
12
 49
6
 49
-6
  0
LTYPE
  2
long_dashed_dotted
 70
   64
  3
------------- --- --------------
 72
   65
 73
    4
 40
15.25
 49
12
 49
-1.5
 49
0.25
 49
-1.5
  0
LTYPE
  2
long_dashed_double-dotted
 70
   64
  3
----------- --- --- ------------
 72
   65
 73
    6
 40
17
 49
12
 49
-1.5
 49
0.25
 49
-1.5
 49
0.25
 49
-1.5
  0
LTYPE
  2
long_dashed_triplicate-dotted
 70
   64
  3
--------- --- --- --- ----------
 72
   65
 73
    8
 40
18.75
 49
12
 49
-1.5
 49
0.25
 49
-1.5
 49
0.25
 49
-1.5
 49
0.25
 49
-1.5
  0
LTYPE
  2
dotted
 70
   64
  3
   -       -       -       -    
 72
   65
 73
    2
 40
1.75
 49
0.25
 49
-1.5
  0
LTYPE
  2
chain
 70
   64
  3
-------------- -- --------------
 72
   65
 73
    4
 40
18.5
 49
12
 49
-1.5
 49
3.5
 49
-1.5
  0
LTYPE
  2
chain_double_dash
 70
   64
  3
------------ -- -- -------------
 72
   65
 73
    6
 40
23.5
 49
12
 49
-1.5
 49
3.5
 49
-1.5
 49
3.5
 49
-1.5
  0
LTYPE
  2
dashed_dotted
 70
   64
  3
-----------     -     ----------
 72
   65
 73
    4
 40
9.25
 49
6
 49
-1.5
 49
0.25
 49
-1.5
  0
LTYPE
  2
double-dashed_dotted
 70
   64
  3
------   -----------   -   -----
 72
   65
 73
    6
 40
16.75
 49
6
 49
-1.5
 49
6
 49
-1.5
 49
0.25
 49
-1.5
  0
LTYPE
  2
dashed_double-dotted
 70
   64
  3
---------    -    -    ---------
 72
   65
 73
    6
 40
11
 49
6
 49
-1.5
 49
0.25
 49
-1.5
 49
0.25
 49
-1.5
  0
LTYPE
  2
double-dashed_double-dotted
 70
   64
  3
-----   ---------   -   -   ----
 72
   65
 73
    8
 40
18.5
 49
6
 49
-1.5
 49
6
 49
-1.5
 49
0.25
 49
-1.5
 49
0.25
 49
-1.5
  0
LTYPE
  2
dashed_triplicate-dotted
 70
   64
  3
-------    -    -    -    ------
 72
   65
 73
    8
 40
12.75
 49
6
 49
-1.5
 49
0.25
 49
-1.5
 49
0.25
 49
-1.5
 49
0.25
 49
-1.5
  0
LTYPE
  2
double-dashed_triplicate-dotted
 70
   64
  3
-----  ---------  -  -  -  -----
 72
   65
 73
   10
 40
20.25
 49
6
 49
-1.5
 49
6
 49
-1.5
 49
0.25
 49
-1.5
 49
0.25
 49
-1.5
 49
0.25
 49
-1.5
  0
LTYPE
  2
undefined
 70
   64
  3
--------------------------------
 72
   65
 73
    0
 40
0
  0
ENDTAB
  0
TABLE
  2
STYLE
  5
3
100
AcDbSymbolTable
 70
     1
  0
STYLE
  5
10
100
AcDbSymbolTableRecord
100
AcDbTextStyleTableRecord
  2
STANDARD
 70
     0
 40
0.0
 41
1.0
 50
0.0
 71
     0
 42
0.2
  3
txt
  4
bigfont.shx
  0
STYLE
  5
26
100
AcDbSymbolTableRecord
100
AcDbTextStyleTableRecord
  2
TATEGAKI
 70
    68
 40
0.0
 41
1.0
 50
0.0
 71
     0
 42
1.0
  3
txt
  4
bigfont.shx
  0
ENDTAB
  0
TABLE
  2
LAYER
 70
    8
  0
LAYER
  2
_0-0_
 70
   64
 62
    7
  6
CONTINUOUS
  0
LAYER
  2
_1-0_
 70
   64
 62
    7
  6
CONTINUOUS
  0
LAYER
  2
_1-1_
 70
   64
 62
    7
  6
CONTINUOUS
  0
LAYER
  2
_1-2_
 70
   64
 62
    7
  6
CONTINUOUS
  0
LAYER
  2
_1-3_
 70
   64
 62
    7
  6
CONTINUOUS
  0
LAYER
  2
_1-4_
 70
   64
 62
    7
  6
CONTINUOUS
  0
LAYER
  2
_1-5_
 70
   64
 62
    7
  6
CONTINUOUS
  0
LAYER
  2
ADD_LINE
 70
   64
 62
    7
  6
CONTINUOUS
  0
ENDTAB
  0
ENDSEC
  0
SECTION
  2
BLOCKS
  0
ENDSEC
  0
SECTION
  2
ENTITIES
  0
LINE
  8
_1-1_
  6
CONTINUOUS
 62
    7
 10
254.19552364864867
 20
125.43442184860642
 11
254.19552364864867
 21
259.30763038429058
  0
LINE
  8
_1-4_
  6
CONTINUOUS
 62
    3
 10
249.01228343545097
 20
179.77698044354676
 11
249.62910142531584
 21
176.23021514186814
  0
ARC
  8
_1-4_
  6
CONTINUOUS
 62
    3
 10
256.75893145065368
 20
135.23354403228197
 40
41.612016832506335
 50
99.86572265625
 51
129.38038635253903
  0
LINE
  8
_0-0_
  6
CONTINUOUS
 62
    5
 10
6.7567526327597136
 20
280.13513513513516
 11
406.75677325274495
 21
280.13513513513516
  0
LINE
  8
_0-0_
  6
CONTINUOUS
 62
    5
 10
406.75677325274495
 20
10.13513513513513
 11
6.7567526327597136
 21
10.13513513513513
  0
LINE
  8
_0-0_
  6
CONTINUOUS
 62
    5
 10
406.75677325274495
 20
30.135133073136615
 11
6.7567402607685949
 21
30.135133073136615
  0
LINE
  8
_0-0_
  6
CONTINUOUS
 62
    5
 10
371.75678150073907
 20
10.13513513513513
 11
371.75678150073907
 21
30.135133073136615
  0
LINE
  8
_0-0_
  6
CONTINUOUS
 62
    5
 10
137.02703939901818
 20
30.135133073136615
 11
137.02703939901818
 21
10.13513513513513
  0
LINE
  8
_0-0_
  6
CONTINUOUS
 62
    5
 10
214.86486486486487
 20
30.135133073136615
 11
214.86486486486487
 21
10.13513513513513
  0
LINE
  8
_0-0_
  6
CONTINUOUS
 62
    5
 10
137.02703939901818
 20
20.135134104135886
 11
214.86486486486487
 21
20.135134104135886
  0
LINE
  8
_0-0_
  6
CONTINUOUS
 62
    5
 10
396.48648648648651
 20
25.945945945945951
 11
383.91891891891896
 21
13.378379924877265
  0
LINE
  8
_1-3_
  6
CONTINUOUS
 62
    7
 10
126.16404765361065
 20
115.4826272500528
 11
116.01767875052788
 21
143.35950696790542
  0
LINE
  8
_1-3_
  6
CONTINUOUS
 62
    7
 10
116.01767875052788
 20
143.35950696790542
 11
114.74380905563767
 21
143.35950696790542
  0
LINE
  8
_1-1_
  6
CONTINUOUS
 62
    7
 10
235.0468733504012
 20
175.78842575485643
 11
234.06597240551099
 21
178.62351701066302
  0
LINE
  8
_1-1_
  6
CONTINUOUS
 62
    7
 10
234.06597240551099
 20
178.62351701066302
 11
251.07656942831505
 21
184.50903402792443
  0
LINE
  8
_1-1_
  6
CONTINUOUS
 62
    7
 10
251.07656942831505
 20
184.50903402792443
 11
252.0574951171875
 21
181.67393040012669
  0
LINE
  8
_1-1_
  6
CONTINUOUS
 62
    7
 10
252.0574951171875
 20
181.67393040012669
 11
235.0468733504012
 21
175.78842575485643
  0
LINE
  8
_1-1_
  6
CONTINUOUS
 62
    3
 10
233.86099325644005
 20
175.93890628299198
 11
233.99515512827281
 21
177.00518633868245
  0
LINE
  8
_1-1_
  6
CONTINUOUS
 62
    7
 10
249.25528861380914
 20
187.40666569890203
 11
249.25528861380914
 21
259.56340892894849
  0
LINE
  8
_1-1_
  6
CONTINUOUS
 62
    7
 10
246.85529554212417
 20
187.40666569890203
 11
246.85529554212417
 21
259.56340892894849
  0
LINE
  8
_1-1_
  6
CONTINUOUS
 62
    7
 10
246.85529554212417
 20
187.40666569890203
 11
249.25528861380914
 21
187.40666569890203
  0
LINE
  8
_1-1_
  6
CONTINUOUS
 62
    7
 10
249.25528861380914
 20
190.47244510135135
 11
249.25528861380914
 21
198.47244675095018
  0
LINE
  8
_1-1_
  6
CONTINUOUS
 62
    7
 10
249.25528861380914
 20
198.47244675095018
 11
253.25527706661742
 21
198.47244675095018
  0
LINE
  8
_1-1_
  6
CONTINUOUS
 62
    7
 10
253.25527706661742
 20
198.47244675095018
 11
253.25527706661742
 21
190.47244510135135
  0
LINE
  8
_1-1_
  6
CONTINUOUS
 62
    7
 10
253.25527706661742
 20
190.47244510135135
 11
249.25528861380914
 21
190.47244510135135
  0
LINE
  8
_1-1_
  6
CONTINUOUS
 62
    7
 10
249.25528861380914
 20
198.47244675095018
 11
253.25527706661742
 21
190.47244510135135
  0
LINE
  8
_1-1_
  6
CONTINUOUS
 62
    7
 10
243.4772470835093
 20
182.47105778874578
 11
224.97122274862755
 21
233.31593281513938
  0
LINE
  8
_1-1_
  6
CONTINUOUS
 62
    7
 10
247.64012517155828
 20
216.32921373521961
 11
231.83488175675677
 21
259.75373964051943
  0
LINE
  8
_1-1_
  6
CONTINUOUS
 62
    7
 10
225.71091935441302
 20
158.9005588840794
 11
245.76279923722552
 21
165.49077214421453
  0
LINE
  8
_1-1_
  6
CONTINUOUS
 62
    7
 10
231.83488175675677
 20
259.75373964051943
 11
224.59459459459461
 21
259.75373964051943
  0
LINE
  8
_1-1_
  6
CONTINUOUS
 62
    7
 10
224.97122274862755
 20
233.31593281513938
 11
220.54054054054055
 21
233.31593281513938
  0
LINE
  8
_1-1_
  6
CONTINUOUS
 62
    7
 10
218.17125475084461
 20
214.493408203125
 11
213.24324324324326
 21
214.493408203125
  0
LINE
  8
_1-1_
  6
CONTINUOUS
 62
    7
 10
234.06597240551099
 20
178.62351701066302
 11
252.0574951171875
 21
181.67393040012669
  0
LINE
  8
_1-1_
  6
CONTINUOUS
 62
    3
 10
232.70972999366555
 20
178.76479277739654
 11
233.86099325644005
 21
175.93890628299198
  0
LINE
  8
_1-1_
  6
CONTINUOUS
 62
    3
 10
232.70972999366555
 20
178.76479277739654
 11
253.25527706661742
 21
185.87339246595229
  0
LINE
  8
_1-1_
  6
CONTINUOUS
 62
    7
 10
232.1609826990076
 20
176.05692270639781
 11
218.17125475084461
 21
214.493408203125
  0
LINE
  8
_1-1_
  6
CONTINUOUS
 62
    7
 10
232.1609826990076
 20
176.05692270639781
 11
233.75471785261826
 21
176.46928117081927
  0
LINE
  8
_1-1_
  6
CONTINUOUS
 62
    7
 10
243.47103634396117
 20
182.48811876451649
 11
243.89193148226352
 21
181.33170875343117
  0
LINE
  8
_1-1_
  6
CONTINUOUS
 62
    3
 10
253.25527706661742
 20
185.87339246595229
 11
253.25527706661742
 21
215.87338009396117
  0
LINE
  8
_1-1_
  6
CONTINUOUS
 62
    7
 10
266.47658064558703
 20
152.29338362410263
 11
304.23874313766896
 21
152.29338362410263
  0
LINE
  8
_1-1_
  6
CONTINUOUS
 62
    7
 10
284.48485503325594
 20
185.87339246595229
 11
284.48485503325594
 21
215.87338009396117
  0
LINE
  8
_1-1_
  6
CONTINUOUS
 62
    7
 10
266.47658064558703
 20
185.87339246595229
 11
284.48485503325594
 21
185.87339246595229
  0
LINE
  8
_1-1_
  6
CONTINUOUS
 62
    7
 10
266.47658064558703
 20
215.87338009396117
 11
284.48485503325594
 21
215.87338009396117
  0
LINE
  8
_1-1_
  6
CONTINUOUS
 62
    7
 10
214.98695167335305
 20
206.21674408783784
 11
227.7006077122044
 21
171.28620869404563
  0
LINE
  8
_1-1_
  6
CONTINUOUS
 62
    7
 10
227.7006077122044
 20
171.28620869404563
 11
229.7787805505701
 21
171.46770580394849
  0
LINE
  8
_1-1_
  6
CONTINUOUS
 62
    7
 10
214.98695167335305
 20
206.21674408783784
 11
211.93468248521961
 21
206.21674408783784
  0
CIRCLE
  8
_1-1_
  6
CONTINUOUS
 62
    7
 10
247.0345162056588
 20
158.10155095280828
 40
0.0608883012790937
  0
TEXT
  8
_0-0_
 62
    7
 10
141.89189395389042
 20
14.594594594594582
 40
2.5
 41
1
 50
0
  1
縮尺
  0
TEXT
  8
_0-0_
 62
    7
 10
377.10214563318203
 20
22.865493362014362
 40
2.5
 41
1
 50
0
  1
ＮＯ
  0
TEXT
  8
_1-0_
 62
    7
 10
169.90681828679266
 20
13.3181144095756
 40
2.5
 41
1
 50
0
  1
1/5
  0
TEXT
  8
_0-0_
 62
    7
 10
25.556194717819636
 20
20.211577544341225
 40
2.5
 41
1
 50
0
  1
木造
  0
TEXT
  8
_0-0_
 62
    7
 10
383.97877873601146
 20
17.689098667454061
 40
2.5
 41
1
 50
0
  1
Ｓ
  0
TEXT
  8
_0-0_
 62
    7
 10
394.90242210594386
 20
14.940521652634089
 40
2.5
 41
1
 50
0
  1
7
  0
TEXT
  8
_0-0_
 62
    7
 10
39.721903414339636
 20
15.395235628695104
 40
2.5
 41
1
 50
0
  1
壁際　3
  0
TEXT
  8
_1-1_
 62
    7
 10
218.29586132152662
 20
258.68183032886401
 40
2.5
 41
1
 50
0
  1
外壁
  0
TEXT
  8
_1-1_
 62
    7
 10
199.48938936800573
 20
231.98131664379224
 40
2.5
 41
1
 50
0
  1
雨押え板　15ｘ90
  0
TEXT
  8
_1-1_
 62
    7
 10
195.54235303724136
 20
213.40704840582771
 40
2.5
 41
1
 50
0
  1
水切り鉄板
  0
TEXT
  8
_1-1_
 62
    7
 10
283.98485338365708
 20
198.99838009396115
 40
2.5
 41
1
 50
90
  1
150
  0
TEXT
  8
_1-1_
 62
    7
 10
202.54304834314297
 20
205.04279059332771
 40
2.5
 41
1
 50
0
  1
のし瓦
  0
POINT
  8
_1-1_
 62
    7
 10
284.48485503325594
 20
185.87339246595229
  0
POINT
  8
_1-1_
 62
    7
 10
284.48485503325594
 20
215.87338009396117
  0
POINT
  8
_1-1_
 62
    7
 10
284.48485503325594
 20
215.87338009396117
  0
POINT
  8
_1-1_
 62
    7
 10
284.48485503325594
 20
225.87338009396117
  0
LINE
  8
_1-1_
  6
CONTINUOUS
 62
    7
 10
284.48485503325594
 20
215.87338009396117
 11
266.47658064558703
 21
215.87338009396117
  0
LINE
  8
_1-1_
  6
CONTINUOUS
 62
    7
 10
284.48485503325594
 20
225.87338009396117
 11
266.47658064558703
 21
225.87338009396117
  0
LINE
  8
_1-1_
  6
CONTINUOUS
 62
    7
 10
284.48485503325594
 20
215.87338009396117
 11
284.48485503325594
 21
225.87338009396117
  0
TEXT
  8
_1-1_
 62
    7
 10
283.98485503325594
 20
219.62338009396117
 40
2.5
 41
1
 50
90
  1
50
  0
POINT
  8
_1-1_
 62
    7
 10
311.73750903236703
 20
225.87338009396117
  0
POINT
  8
_1-1_
 62
    7
 10
311.73750903236703
 20
152.29338362410263
  0
LINE
  8
_1-1_
  6
CONTINUOUS
 62
    7
 10
311.73750903236703
 20
225.87338009396117
 11
266.47658064558703
 21
225.87338009396117
  0
LINE
  8
_1-1_
  6
CONTINUOUS
 62
    7
 10
311.73750903236703
 20
152.29338362410263
 11
266.47658064558703
 21
152.29338362410263
  0
LINE
  8
_1-1_
  6
CONTINUOUS
 62
    7
 10
311.73750903236703
 20
225.87338009396117
 11
311.73750903236703
 21
152.29338362410263
  0
TEXT
  8
_1-1_
 62
    7
 10
311.23750903236703
 20
185.3333818590319
 40
2.5
 41
1
 50
90
  1
300　以上
  0
TEXT
  8
_1-1_
 62
    7
 10
289.07586467907777
 20
253.56513629770433
 40
3
 41
1
 50
0
  1
雨押え板上端より50mm以上とする
  0
LINE
  8
_1-1_
  6
CONTINUOUS
 62
    7
 10
284.48485503325594
 20
196.65442024861375
 11
293.85484564338316
 21
231.62370127205187
  0
LINE
  8
_1-1_
  6
CONTINUOUS
 62
    7
 10
284.48485503325594
 20
220.19387636827133
 11
289.40569606929864
 21
238.55870513075251
  0
LINE
  8
_1-1_
  6
CONTINUOUS
 62
    7
 10
289.40569606929864
 20
238.55870513075251
 11
292.26372573719345
 21
238.55870513075251
  0
LINE
  8
_1-1_
  6
CONTINUOUS
 62
    7
 10
293.85484564338316
 20
231.62370127205187
 11
296.49394658375809
 21
231.62370127205187
  0
TEXT
  8
_1-1_
 62
    7
 10
293.25907181873805
 20
235.02650463315439
 40
2.5
 41
1
 50
0
  1
50ｍｍ以上
  0
TEXT
  8
_1-1_
 62
    7
 10
292.88581703815885
 20
238.13696113798136
 40
2.5
 41
1
 50
0
  1
水切鉄板上端より
  0
TEXT
  8
_1-1_
 62
    7
 10
298.73347526723347
 20
230.29861074581743
 40
2.5
 41
1
 50
0
  1
水切り鉄板立上がり寸法
  0
LINE
  8
_1-0_
  6
CONTINUOUS
 62
    7
 10
104.97115999585338
 20
86.398257509511907
 11
103.49384527879258
 21
89.681177728314694
  0
LINE
  8
_1-0_
  6
CONTINUOUS
 62
    7
 10
103.49384527879258
 20
89.681177728314694
 11
107.87106811319924
 21
91.650922436401686
  0
LINE
  8
_1-0_
  6
CONTINUOUS
 62
    7
 10
107.87106811319924
 20
91.650922436401686
 11
109.34838283026006
 21
88.3680022175989
  0
LINE
  8
_1-0_
  6
CONTINUOUS
 62
    7
 10
109.34838283026006
 20
88.3680022175989
 11
104.97115999585338
 21
86.398257509511907
  0
LINE
  8
_1-0_
  6
CONTINUOUS
 62
    7
 10
103.49384527879258
 20
89.681177728314694
 11
109.34838283026006
 21
88.3680022175989
  0
LINE
  8
_1-0_
  6
CONTINUOUS
 62
    7
 10
155.29098009060635
 20
112.98988530063311
 11
156.76829480766716
 21
109.70696508183032
  0
LINE
  8
_1-0_
  6
CONTINUOUS
 62
    7
 10
156.76829480766716
 20
109.70696508183032
 11
152.39105960126935
 21
107.73722037374333
  0
LINE
  8
_1-0_
  6
CONTINUOUS
 62
    7
 10
202.71089206801344
 20
134.32884816486455
 11
204.18820678507424
 21
131.04592794606174
  0
LINE
  8
_1-0_
  6
CONTINUOUS
 62
    7
 10
204.18820678507424
 20
131.04592794606174
 11
199.81097157867646
 21
129.07618323797476
  0
LINE
  8
_1-2_
  6
CONTINUOUS
 62
    3
 10
108.96962669375246
 20
89.409711498901686
 11
110.78917542949992
 21
90.02153120434933
  0
LINE
  8
ADD_LINE
  6
DOT
 62
    7
 10
107.30935497183522
 20
94.653975843813001
 11
107.13666671961816
 21
95.228902271705749
  0
LINE
  8
_1-2_
  6
CONTINUOUS
 62
    3
 10
107.13666671961816
 20
95.228902271705749
 11
107.30935497183522
 21
94.653975843813001
  0
LINE
  8
_1-2_
  6
CONTINUOUS
 62
    3
 10
108.17287046486732
 20
91.779269472402532
 11
108.97220006790786
 21
89.402053236391126
  0
LINE
  8
_1-2_
  6
CONTINUOUS
 62
    3
 10
107.13666671961816
 20
95.228902271705749
 11
109.03336719206327
 21
95.866678414547806
  0
LINE
  8
_1-2_
  6
CONTINUOUS
 62
    3
 10
110.78917542949992
 20
90.02153120434933
 11
109.03336719206327
 21
95.866678414547806
  0
LINE
  8
_1-0_
  6
CONTINUOUS
 62
    7
 10
155.29098009060635
 20
112.98987292864197
 11
156.76829480766716
 21
109.70695270983919
  0
LINE
  8
_1-0_
  6
CONTINUOUS
 62
    7
 10
156.76829480766716
 20
109.70695270983919
 11
152.39105960126935
 21
107.73720800175219
  0
LINE
  8
_1-2_
  6
CONTINUOUS
 62
    3
 10
156.38045762966885
 20
110.74533392552753
 11
158.19461217728286
 21
111.37300215161495
  0
LINE
  8
ADD_LINE
  6
DOT
 62
    7
 10
154.67450851649318
 20
115.97491271696546
 11
154.49677249189435
 21
116.54830501795786
  0
LINE
  8
_1-2_
  6
CONTINUOUS
 62
    3
 10
154.49677249189435
 20
116.54830501795786
 11
154.67450851649318
 21
115.97491271696546
  0
LINE
  8
_1-2_
  6
CONTINUOUS
 62
    3
 10
155.56306491957594
 20
113.10783986408327
 11
156.38310523577104
 21
110.73768803500811
  0
LINE
  8
_1-2_
  6
CONTINUOUS
 62
    3
 10
99.919539924854647
 20
93.006991640371282
 11
100.67592634667686
 21
93.268708740772468
  0
LINE
  8
_1-2_
  6
CONTINUOUS
 62
    3
 10
101.83822542554088
 20
94.51957890414873
 11
155.56306491957594
 21
113.10783986408327
  0
LINE
  8
_1-2_
  6
CONTINUOUS
 62
    3
 10
100.81344102810634
 20
92.825073882769928
 11
100.67592634667686
 21
93.268708740772468
  0
LINE
  8
_1-2_
  6
CONTINUOUS
 62
    3
 10
100.06088992353497
 20
92.550898187299069
 11
99.919539924854647
 21
93.006991640371282
  0
LINE
  8
_1-2_
  6
CONTINUOUS
 62
    3
 10
101.54263381342095
 20
92.858837046568496
 11
101.06988766028539
 21
92.695254579824407
  0
LINE
  8
_1-2_
  6
CONTINUOUS
 62
    3
 10
101.66827138336394
 20
93.107043932653795
 11
101.46128797172965
 21
93.774933501910553
  0
LINE
  8
_1-2_
  6
CONTINUOUS
 62
    3
 10
99.462469084483033
 20
92.139108834469681
 11
99.935239981600844
 21
92.30269130121377
  0
LINE
  8
_1-2_
  6
CONTINUOUS
 62
    3
 10
154.67450851649318
 20
115.97491271696546
 11
97.942409138062004
 21
96.346154930859043
  0
LINE
  8
_1-2_
  6
CONTINUOUS
 62
    3
 10
99.206034824295102
 20
92.268915765424069
 11
97.942409138062004
 21
96.346154930859043
  0
LINE
  8
_1-2_
  6
CONTINUOUS
 62
    3
 10
158.19461217728286
 20
111.37300215161495
 11
156.38785608036562
 21
117.20261014095195
  0
LINE
  8
_1-2_
  6
CONTINUOUS
 62
    7
 10
97.942409138062004
 20
96.346154930859043
 11
93.234000473049335
 21
109.95462760030583
  0
LINE
  8
_1-0_
  6
CONTINUOUS
 62
    7
 10
152.39105960126935
 20
107.73722037374333
 11
150.93089246391716
 21
110.9820719758337
  0
LINE
  8
_1-0_
  6
CONTINUOUS
 62
    7
 10
152.39105960126935
 20
107.73720800175219
 11
150.93086771993489
 21
110.98205960384257
  0
LINE
  8
_1-0_
  6
CONTINUOUS
 62
    7
 10
150.93089246391716
 20
110.9820719758337
 11
156.76829480766716
 21
109.70696508183032
  0
LINE
  8
_1-2_
  6
CONTINUOUS
 62
    7
 10
109.03336719206327
 20
95.866678414547806
 11
108.68930211868911
 21
96.889978173046543
  0
LINE
  8
_1-0_
  6
CONTINUOUS
 62
    7
 10
107.13666671961816
 20
95.228902271705749
 11
106.8308558428234
 21
96.246981049946882
  0
LINE
  8
_1-0_
  6
CONTINUOUS
 62
    7
 10
202.71089206801344
 20
134.32884816486455
 11
204.18820678507424
 21
131.04592794606174
  0
LINE
  8
_1-0_
  6
CONTINUOUS
 62
    7
 10
204.18820678507424
 20
131.04592794606174
 11
199.81097157867646
 21
129.07618323797476
  0
LINE
  8
_1-0_
  6
CONTINUOUS
 62
    7
 10
202.71089206801344
 20
134.32883579287341
 11
204.18820678507424
 21
131.04591557407059
  0
LINE
  8
_1-0_
  6
CONTINUOUS
 62
    7
 10
204.18820678507424
 20
131.04591557407059
 11
199.81097157867646
 21
129.07617086598361
  0
LINE
  8
_1-2_
  6
CONTINUOUS
 62
    3
 10
203.80036960707594
 20
132.08429678975898
 11
205.61452415468997
 21
132.71196501584637
  0
LINE
  8
ADD_LINE
  6
DOT
 62
    7
 10
202.09442049390026
 20
137.3138755811969
 11
201.91668446930146
 21
137.88726788218929
  0
LINE
  8
_1-2_
  6
CONTINUOUS
 62
    3
 10
201.91668446930146
 20
137.88726788218929
 11
202.09442049390026
 21
137.3138755811969
  0
LINE
  8
_1-2_
  6
CONTINUOUS
 62
    3
 10
202.98297689698305
 20
134.44680272831471
 11
203.80301721317812
 21
132.07665089923955
  0
LINE
  8
_1-2_
  6
CONTINUOUS
 62
    3
 10
147.33945190226174
 20
114.3459545046027
 11
148.0958506960751
 21
114.60767160500389
  0
LINE
  8
_1-2_
  6
CONTINUOUS
 62
    3
 10
149.25812503095685
 20
115.85854176838015
 11
202.98297689698305
 21
134.44680272831471
  0
LINE
  8
_1-2_
  6
CONTINUOUS
 62
    3
 10
148.23335300551344
 20
114.16403674700135
 11
148.0958506960751
 21
114.60767160500389
  0
LINE
  8
_1-2_
  6
CONTINUOUS
 62
    3
 10
147.4808142729332
 20
113.88986105153049
 11
147.33945190226174
 21
114.3459545046027
  0
LINE
  8
_1-2_
  6
CONTINUOUS
 62
    3
 10
148.96253341883693
 20
114.19779991079992
 11
148.4897996376925
 21
114.03421744405583
  0
LINE
  8
_1-2_
  6
CONTINUOUS
 62
    3
 10
149.08818336077104
 20
114.44600679688521
 11
148.88119994913674
 21
115.11389636614197
  0
LINE
  8
_1-2_
  6
CONTINUOUS
 62
    3
 10
146.88238106189013
 20
113.4780716987011
 11
147.35516433099909
 21
113.64165416544519
  0
LINE
  8
_1-2_
  6
CONTINUOUS
 62
    3
 10
146.62595917369333
 20
113.60787862965549
 11
145.36233348746023
 21
117.68511779509046
  0
LINE
  8
_1-2_
  6
CONTINUOUS
 62
    3
 10
205.61452415468997
 20
132.71196501584637
 11
203.80776805777273
 21
138.54157300518335
  0
LINE
  8
_1-2_
  6
CONTINUOUS
 62
    7
 10
145.36233348746023
 20
117.68511779509046
 11
140.65390007846528
 21
131.29359046453726
  0
LINE
  8
_1-0_
  6
CONTINUOUS
 62
    7
 10
199.81097157867646
 20
129.07618323797476
 11
198.35080444132424
 21
132.32103484006512
  0
LINE
  8
_1-0_
  6
CONTINUOUS
 62
    7
 10
199.81097157867646
 20
129.07617086598361
 11
198.35077969734198
 21
132.32102246807398
  0
LINE
  8
_1-0_
  6
CONTINUOUS
 62
    7
 10
198.35077969734198
 20
132.32102246807398
 11
202.68231276849909
 21
134.31582045820278
  0
LINE
  8
_1-0_
  6
CONTINUOUS
 62
    7
 10
198.35080444132424
 20
132.32103484006512
 11
204.18820678507424
 21
131.04592794606174
  0
LINE
  8
_1-0_
  6
CONTINUOUS
 62
    7
 10
250.13082878940281
 20
155.66782340108711
 11
251.60814350646362
 21
152.38489081029314
  0
LINE
  8
_1-0_
  6
CONTINUOUS
 62
    7
 10
251.60814350646362
 20
152.38489081029314
 11
247.23090830006581
 21
150.41514610220617
  0
LINE
  8
_1-0_
  6
CONTINUOUS
 62
    7
 10
250.13082878940281
 20
155.66779865710481
 11
251.60814350646362
 21
152.38489081029314
  0
LINE
  8
ADD_LINE
  6
DOT
 62
    7
 10
253.03446087607932
 20
154.05092788007778
 11
249.59383488632002
 21
165.15248873047898
  0
LINE
  8
_1-2_
  6
CONTINUOUS
 62
    3
 10
251.22030632846531
 20
153.42324728199924
 11
253.03446087607932
 21
154.05092788007778
  0
LINE
  8
ADD_LINE
  6
DOT
 62
    7
 10
249.51435721528964
 20
158.6528384454283
 11
249.33662119069081
 21
159.2262307464207
  0
LINE
  8
_1-2_
  6
CONTINUOUS
 62
    3
 10
249.33662119069081
 20
159.2262307464207
 11
249.51435721528964
 21
158.6528384454283
  0
LINE
  8
_1-2_
  6
CONTINUOUS
 62
    3
 10
250.40291361837239
 20
155.78575322055497
 11
251.2229539345675
 21
153.41562613546211
  0
LINE
  8
_1-2_
  6
CONTINUOUS
 62
    3
 10
194.75938862365112
 20
135.68491736883414
 11
195.51576267348219
 21
135.94663446923533
  0
LINE
  8
_1-2_
  6
CONTINUOUS
 62
    3
 10
196.67808649632846
 20
137.19750463261158
 11
250.40291361837239
 21
155.78575322055497
  0
LINE
  8
_1-2_
  6
CONTINUOUS
 62
    3
 10
195.65328972690281
 20
135.50299961123278
 11
195.51576267348219
 21
135.94663446923533
  0
LINE
  8
_1-2_
  6
CONTINUOUS
 62
    3
 10
194.90072625034031
 20
135.22882391576189
 11
194.75938862365112
 21
135.68491736883414
  0
LINE
  8
_1-2_
  6
CONTINUOUS
 62
    3
 10
196.38249488420854
 20
135.53676277503132
 11
195.90973635908185
 21
135.37318030828726
  0
LINE
  8
_1-2_
  6
CONTINUOUS
 62
    3
 10
196.50812008216039
 20
135.78496966111663
 11
196.30113667052612
 21
136.45285923037341
  0
LINE
  8
_1-2_
  6
CONTINUOUS
 62
    3
 10
194.30231778327948
 20
134.81703456293252
 11
194.77507630840617
 21
134.98061702967658
  0
LINE
  8
_1-2_
  6
CONTINUOUS
 62
    3
 10
249.51435721528964
 20
158.6528384454283
 11
192.78224546486732
 21
139.0240806593219
  0
LINE
  8
_1-2_
  6
CONTINUOUS
 62
    3
 10
194.04587115110044
 20
134.94684149388689
 11
192.78224546486732
 21
139.0240806593219
  0
LINE
  8
_1-2_
  6
CONTINUOUS
 62
    3
 10
249.33662119069081
 20
159.2262307464207
 11
251.22770477916208
 21
159.88053586941476
  0
LINE
  8
_1-2_
  6
CONTINUOUS
 62
    3
 10
253.03446087607932
 20
154.05092788007778
 11
251.22770477916208
 21
159.88053586941476
  0
LINE
  8
_1-2_
  6
CONTINUOUS
 62
    7
 10
192.78224546486732
 20
139.0240806593219
 11
188.07386154383693
 21
152.63255332876867
  0
LINE
  8
_1-2_
  6
CONTINUOUS
 62
    7
 10
250.69457093731242
 20
161.60078700433877
 11
191.99751481136227
 21
141.29216356156007
  0
LINE
  8
_1-0_
  6
CONTINUOUS
 62
    7
 10
247.23090830006581
 20
150.41514610220617
 11
245.77074116271362
 21
153.65999770429653
  0
LINE
  8
_1-0_
  6
CONTINUOUS
 62
    7
 10
247.23090830006581
 20
150.41512135822393
 11
245.77071641873135
 21
153.65999770429653
  0
LINE
  8
_1-0_
  6
CONTINUOUS
 62
    7
 10
245.77074116271362
 20
153.65999770429653
 11
251.60814350646362
 21
152.38489081029314
  0
LINE
  8
_1-2_
  6
CONTINUOUS
 62
    7
 10
142.17793143403961
 20
126.88876571791563
 11
93.234000473049335
 21
109.95462760030583
  0
LINE
  8
_1-2_
  6
CONTINUOUS
 62
    7
 10
156.38785608036562
 20
117.20261014095195
 11
156.0409207050489
 21
118.2053105342163
  0
LINE
  8
_1-2_
  6
CONTINUOUS
 62
    3
 10
154.49677249189435
 20
116.54830501795786
 11
156.38788082434789
 21
117.20261014095195
  0
LINE
  8
ADD_LINE
  6
DOT
 62
    7
 10
158.19461217728286
 20
111.37300215161495
 11
156.38788082434789
 21
117.20261014095195
  0
LINE
  8
_1-2_
  6
CONTINUOUS
 62
    7
 10
154.49677249189435
 20
116.54830501795786
 11
154.18249917316547
 21
117.56232578310777
  0
LINE
  8
_1-2_
  6
CONTINUOUS
 62
    7
 10
146.03202936742221
 20
115.52428768397348
 11
97.157678484556925
 21
98.614237833097206
  0
LINE
  8
ADD_LINE
  6
DOT
 62
    7
 10
205.61452415468997
 20
132.71196501584637
 11
203.807792801755
 21
138.54157300518335
  0
LINE
  8
_1-2_
  6
CONTINUOUS
 62
    3
 10
201.91668446930146
 20
137.88726788218929
 11
203.807792801755
 21
138.54157300518335
  0
LINE
  8
_1-2_
  6
CONTINUOUS
 62
    7
 10
189.59786815542898
 20
148.22772858214705
 11
140.65390007846528
 21
131.29359046453726
  0
LINE
  8
_1-2_
  6
CONTINUOUS
 62
    7
 10
203.80776805777273
 20
138.54157300518335
 11
203.46083268245602
 21
139.54427339844773
  0
LINE
  8
_1-2_
  6
CONTINUOUS
 62
    7
 10
193.45194134482932
 20
136.86326292019601
 11
144.57760283395515
 21
119.95320069732864
  0
LINE
  8
_1-0_
  6
CONTINUOUS
 62
    7
 10
245.77071641873135
 20
153.65999770429653
 11
250.13075455745602
 21
155.66792237701611
  0
LINE
  8
_1-0_
  6
CONTINUOUS
 62
    7
 10
250.13075455745602
 20
155.66792237701611
 11
251.60811876248135
 21
152.38489081029314
  0
LINE
  8
_1-0_
  6
CONTINUOUS
 62
    7
 10
251.60811876248135
 20
152.38489081029314
 11
247.25310365215617
 21
150.42514267104065
  0
LINE
  8
_1-0_
  6
CONTINUOUS
 62
    7
 10
247.25310365215617
 20
150.42514267104065
 11
247.23088355608354
 21
150.41514610220617
  0
LINE
  8
_1-0_
  6
CONTINUOUS
 62
    7
 10
150.93086771993489
 20
110.98205960384257
 11
155.29095534662409
 21
112.9899966485533
  0
LINE
  8
_1-0_
  6
CONTINUOUS
 62
    7
 10
77.466677211066639
 20
74.021237163360098
 11
247.25582549020515
 21
150.42635512617153
  0
LINE
  8
_1-2_
  6
CONTINUOUS
 62
    3
 10
77.466677211066639
 20
81.454372737288509
 11
108.17287046486732
 21
91.779269472402532
  0
LINE
  8
_1-2_
  6
CONTINUOUS
 62
    7
 10
98.608900672320871
 20
94.260509409849746
 11
77.466677211066639
 21
87.151476701604395
  0
LINE
  8
_1-2_
  6
CONTINUOUS
 62
    7
 10
94.868105433722889
 20
105.66288285262846
 11
77.466677211066639
 21
99.811685738766556
  0
LINE
  8
_1-2_
  6
CONTINUOUS
 62
    7
 10
213.6934591077094
 20
161.49668907095617
 11
188.07386154383693
 21
152.63255332876867
  0
LINE
  8
_1-4_
  6
CONTINUOUS
 62
    7
 10
213.6934591077094
 20
161.49668907095617
 11
247.14027109303456
 21
173.06897943993846
  0
LINE
  8
_1-4_
  6
CONTINUOUS
 62
    7
 10
251.22772952314435
 20
159.8805482414059
 11
247.14027109303456
 21
173.06897943993846
  0
LINE
  8
_1-2_
  6
CONTINUOUS
 62
    3
 10
202.09442049390026
 20
137.3138755811969
 11
145.36233348746023
 21
117.68511779509046
  0
LINE
  8
_1-2_
  6
CONTINUOUS
 62
    3
 10
107.30935497183522
 20
94.653975843813001
 11
77.466677211066639
 21
84.619437368570189
  0
ARC
  8
_1-2_
  6
CONTINUOUS
 62
    3
 10
102.03439571692601
 20
93.952558178589186
 40
0.599999959404404
 50
109.0858917236328
 51
197.21983337402344
  0
ARC
  8
_1-2_
  6
CONTINUOUS
 62
    3
 10
101.00450168715406
 20
92.884261488344251
 40
0.1999999904954755
 50
197.21757507324216
 51
289.0885009765625
  0
ARC
  8
_1-2_
  6
CONTINUOUS
 62
    3
 10
99.869829264487251
 20
92.49168583774248
 40
0.1999999904954755
 50
289.08401489257812
 51
17.217575073242223
  0
ARC
  8
_1-2_
  6
CONTINUOUS
 62
    3
 10
101.47722309630736
 20
93.047831583097206
 40
0.1999999904954755
 50
289.0885009765625
 51
17.219955444335916
  0
ARC
  8
_1-2_
  6
CONTINUOUS
 62
    3
 10
99.397070739360558
 20
92.328128114980657
 40
0.1999999904954755
 50
197.216552734375
 51
289.08514404296875
  0
ARC
  8
_1-2_
  6
CONTINUOUS
 62
    3
 10
149.45429532234198
 20
115.29152104282061
 40
0.599999959404404
 50
109.0858917236328
 51
197.21983337402344
  0
ARC
  8
_1-2_
  6
CONTINUOUS
 62
    3
 10
148.42440129257002
 20
114.22322435257567
 40
0.1999999904954755
 50
197.21757507324216
 51
289.0885009765625
  0
ARC
  8
_1-2_
  6
CONTINUOUS
 62
    3
 10
147.28974124189435
 20
113.8306487019739
 40
0.1999999904954755
 50
289.08401489257812
 51
17.217575073242223
  0
ARC
  8
_1-2_
  6
CONTINUOUS
 62
    3
 10
148.89713507371445
 20
114.38679444732863
 40
0.1999999904954755
 50
289.0885009765625
 51
17.219955444335916
  0
ARC
  8
_1-2_
  6
CONTINUOUS
 62
    3
 10
146.81698271676765
 20
113.66709097921208
 40
0.1999999904954755
 50
197.216552734375
 51
289.08514404296875
  0
ARC
  8
_1-2_
  6
CONTINUOUS
 62
    3
 10
196.87425678771362
 20
136.63048390705205
 40
0.599999959404404
 50
109.0858917236328
 51
197.21983337402344
  0
ARC
  8
_1-2_
  6
CONTINUOUS
 62
    3
 10
195.84436275794164
 20
135.5621872168071
 40
0.1999999904954755
 50
197.21757507324216
 51
289.0885009765625
  0
ARC
  8
_1-2_
  6
CONTINUOUS
 62
    3
 10
194.70967796328372
 20
135.16961156620533
 40
0.1999999904954755
 50
289.08401489257812
 51
17.217575073242223
  0
ARC
  8
_1-2_
  6
CONTINUOUS
 62
    3
 10
196.3170717951038
 20
135.72575731156007
 40
0.1999999904954755
 50
289.0885009765625
 51
17.219955444335916
  0
ARC
  8
_1-2_
  6
CONTINUOUS
 62
    3
 10
194.23691943815703
 20
135.00605384344351
 40
0.1999999904954755
 50
197.216552734375
 51
289.08514404296875
  0
LINE
  8
_1-4_
  6
CONTINUOUS
 62
    3
 10
229.43227129440368
 20
172.71773262761559
 11
230.35749827920097
 21
167.39759086109322
  0
ARC
  8
_1-4_
  6
CONTINUOUS
 62
    3
 10
259.32149248580993
 20
120.49872529020004
 40
60.168024011560391
 50
99.86572265625
 51
119.78602600097656
  0
LINE
  8
_1-0_
  6
CONTINUOUS
 62
    7
 10
77.466677211066639
 20
69.634896171489316
 11
254.19552364864862
 21
149.16288547642813
  0
LINE
  8
_1-0_
  6
CONTINUOUS
 62
    7
 10
77.466677211066639
 20
72.26670942700558
 11
254.19552364864867
 21
151.79468071474389
  0
LINE
  8
_1-0_
  6
DASHED1
 62
    3
 10
77.466677211066639
 20
72.765424389526686
 11
253.84514885979732
 21
152.13571501206633
  0
LINE
  8
_1-1_
  6
DASHED1
 62
    3
 10
253.84514885979732
 20
152.13571501206633
 11
253.84514885979732
 21
225.87338009396117
  0
LINE
  8
_1-0_
  6
CONTINUOUS
 62
    7
 10
247.25582549020515
 20
150.42635512617153
 11
252.94903515556246
 21
152.9882953396984
  0
LINE
  8
_1-2_
  6
CONTINUOUS
 62
    7
 10
252.94903515556246
 20
152.9882953396984
 11
253.19524683995752
 21
152.44115831384278
  0
LINE
  8
_1-0_
  6
CONTINUOUS
 62
    7
 10
77.466677211066639
 20
73.363294674973261
 11
253.19524683995752
 21
152.44115831384278
  0
LINE
  8
_1-0_
  6
CONTINUOUS
 62
    7
 10
79.026904019798025
 20
57.676671431770302
 11
254.19552364864867
 21
136.50252883498734
  0
LINE
  8
_1-1_
  6
CONTINUOUS
 62
    7
 10
225.71091935441302
 20
158.9005588840794
 11
211.42916707344162
 21
198.13940976865442
  0
LINE
  8
_1-1_
  6
CONTINUOUS
 62
    7
 10
211.42916707344162
 20
198.13940976865442
 11
207.34789463889771
 21
198.13940976865442
  0
LINE
  8
_1-3_
  6
CONTINUOUS
 62
    7
 10
184.43195528357222
 20
69.302396759904852
 11
169.98386980795988
 21
69.302396759904852
  0
LINE
  8
_1-3_
  6
CONTINUOUS
 62
    7
 10
184.43195528357222
 20
62.902971975012534
 11
172.31307034638894
 21
62.902971975012534
  0
LINE
  8
_1-3_
  6
CONTINUOUS
 62
    7
 10
184.43195528357222
 20
56.960655146465243
 11
174.4758923480781
 21
56.960655146465243
  0
LINE
  8
_1-3_
  6
CONTINUOUS
 62
    7
 10
184.43195528357222
 20
50.789790525740997
 11
176.72190361813728
 21
50.789790525740997
  0
LINE
  8
_1-3_
  6
CONTINUOUS
 62
    7
 10
178.82279143222087
 20
45.017662807202143
 11
184.43195528357222
 21
45.017662807202143
  0
TEXT
  8
_1-3_
 62
    7
 10
202.28157125696748
 20
43.951407495493953
 40
2.5
 41
1
 50
0
  1
60ｘ60
  0
TEXT
  8
_1-3_
 62
    7
 10
187.84840640266003
 20
49.951402546697508
 40
2.5
 41
1
 50
0
  1
野地板
  0
TEXT
  8
_1-3_
 62
    7
 10
202.28157125696748
 20
49.951402546697508
 40
2.5
 41
1
 50
0
  1
ｔ＝12
  0
TEXT
  8
_1-3_
 62
    7
 10
187.84840846465858
 20
67.951400072299279
 40
2.5
 41
1
 50
0
  1
瓦桟
  0
TEXT
  8
_1-1_
 62
    7
 10
232.16467854315471
 20
68.254548345394369
 40
2.5
 41
1
 50
0
  1
※　地域により瓦桟木の大きさは、異なります
  0
LINE
  8
_1-1_
  6
CONTINUOUS
 62
    7
 10
178.82279143222087
 20
45.017662807202143
 11
154.73707540720622
 21
111.19260963029288
  0
TEXT
  8
_1-1_
 62
    7
 10
201.30034896783366
 20
68.134938162230668
 40
2.5
 41
1
 50
0
  1
１５×２１　（樹脂桟木）
  0
TEXT
  8
_1-3_
 62
    7
 10
187.84840640266003
 20
61.951405021095738
 40
2.5
 41
1
 50
0
  1
縦桟
  0
TEXT
  8
_1-3_
 62
    7
 10
187.84840434066155
 20
55.951409969892183
 40
2.5
 41
1
 50
0
  1
ルーフィング
  0
TEXT
  8
_1-3_
 62
    7
 10
187.84840846465858
 20
43.951407495493953
 40
2.5
 41
1
 50
0
  1
たる木
  0
TEXT
  8
_1-1_
 62
    7
 10
288.68924160580923
 20
259.21223267386569
 40
3
 41
1
 50
0
  1
ルーフィング立上げ長さは、300ｍｍ以上かつ
  0
TEXT
  8
_1-1_
 62
    7
 10
313.29668335351812
 20
185.60619090572587
 40
2.5
 41
1
 50
0
  1
ルーフィング立上がり寸法
  0
TEXT
  8
_1-1_
 62
    7
 10
199.45294559463528
 20
196.68906933368791
 40
2.5
 41
1
 50
0
  1
葺き土
  0
ARC
  8
_1-5_
  6
CONTINUOUS
 62
    7
 10
204.58286083523458
 20
160.20036092923857
 40
36.165867859270577
 50
356.7329679711699
 51
20.127202721569635
  0
LINE
  8
ADD_LINE
  6
DOT
 62
    4
 10
252.0574951171875
 20
181.67393040012669
 11
254.97903062929674
 21
182.14144712017048
  0
LINE
  8
ADD_LINE
  6
DOT
 62
    4
 10
252.94903515556246
 20
152.9882953396984
 11
253.84514885979732
 21
152.13571501206633
  0
SOLID
  8
_1-5_
  6
CONTINUOUS
 62
    8
 10
240.71206933223647
 20
158.70827892136074
 11
240.6899509736316
 21
158.13928360126312
 12
250.69457093731242
 22
161.60078700433877
 13
250.69457093731242
 23
161.60078700433877
  0
SOLID
  8
_1-5_
  6
CONTINUOUS
 62
    8
 10
251.22031594298181
 20
153.42325060853253
 11
251.60811606508059
 21
152.38489680451707
 12
252.94903515556246
 22
152.9882953396984
 13
252.94903515556246
 23
152.9882953396984
  0
SOLID
  8
_1-5_
  6
CONTINUOUS
 62
    8
 10
246.94463323528441
 20
175.67992126848071
 11
245.28579283115494
 21
175.25336230741885
 12
243.84497145156814
 22
174.79836608228618
 13
243.84497145156814
 23
174.79836608228618
  0
SOLID
  8
_1-5_
  6
CONTINUOUS
 62
    8
 10
246.94463323528441
 20
175.67992126848071
 11
243.84497145156814
 21
174.79836608228618
 12
242.27144283965103
 22
174.24857897691754
 13
242.27144283965103
 23
174.24857897691754
  0
SOLID
  8
_1-5_
  6
CONTINUOUS
 62
    8
 10
246.94463323528441
 20
175.67992126848071
 11
242.27144283965103
 21
174.24857897691754
 12
241.26665950914975
 22
173.86941545597367
 13
241.26665950914975
 23
173.86941545597367
  0
SOLID
  8
_1-5_
  6
CONTINUOUS
 62
    8
 10
246.94463323528441
 20
175.67992126848071
 11
241.26665950914975
 21
173.86941545597367
 12
240.30927161876642
 22
173.4712937589826
 13
240.30927161876642
 23
173.4712937589826
  0
SOLID
  8
_1-5_
  6
CONTINUOUS
 62
    8
 10
246.94463323528441
 20
175.67992126848071
 11
240.30927161876642
 21
173.4712937589826
 12
239.3992791685011
 22
173.0636929739679
 13
239.3992791685011
 23
173.0636929739679
  0
SOLID
  8
_1-5_
  6
CONTINUOUS
 62
    8
 10
246.94463323528441
 20
175.67992126848071
 11
239.3992791685011
 21
173.0636929739679
 12
238.54011475037157
 22
172.64523555926738
 13
238.54011475037157
 23
172.64523555926738
  0
SOLID
  8
_1-5_
  6
CONTINUOUS
 62
    8
 10
246.94463323528441
 20
175.67992126848071
 11
238.54011475037157
 21
172.64523555926738
 12
238.65205224904153
 22
172.33196978273759
 13
238.65205224904153
 23
172.33196978273759
  0
SOLID
  8
_1-5_
  6
CONTINUOUS
 62
    8
 10
246.94463323528441
 20
175.67992126848071
 11
238.65205224904153
 21
172.33196978273759
 12
238.79461928615243
 22
171.92393309031678
 13
238.79461928615243
 23
171.92393309031678
  0
SOLID
  8
_1-5_
  6
CONTINUOUS
 62
    8
 10
246.94463323528441
 20
175.67992126848071
 11
238.79461928615243
 21
171.92393309031678
 12
238.89048332834767
 22
171.64863122555093
 13
238.89048332834767
 23
171.64863122555093
  0
SOLID
  8
_1-5_
  6
CONTINUOUS
 62
    8
 10
246.94463323528441
 20
175.67992126848071
 11
238.89048332834767
 21
171.64863122555093
 12
239.22416623290385
 22
170.61150371602159
 13
239.22416623290385
 23
170.61150371602159
  0
SOLID
  8
_1-5_
  6
CONTINUOUS
 62
    8
 10
246.94463323528441
 20
175.67992126848071
 11
239.22416623290385
 21
170.61150371602159
 12
239.61460889017553
 22
169.15525812944074
 13
239.61460889017553
 23
169.15525812944074
  0
SOLID
  8
_1-5_
  6
CONTINUOUS
 62
    8
 10
246.94463323528441
 20
175.67992126848071
 11
239.61460889017553
 21
169.15525812944074
 12
239.94173652194368
 22
167.77288007261399
 13
239.94173652194368
 23
167.77288007261399
  0
SOLID
  8
_1-5_
  6
CONTINUOUS
 62
    8
 10
246.94463323528441
 20
175.67992126848071
 11
239.94173652194368
 21
167.77288007261399
 12
240.21610163245893
 22
166.31663448603314
 13
240.21610163245893
 23
166.31663448603314
  0
SOLID
  8
_1-5_
  6
CONTINUOUS
 62
    8
 10
246.94463323528441
 20
175.67992126848071
 11
240.21610163245893
 21
166.31663448603314
 12
240.40604670896946
 22
165.10309649721577
 13
240.40604670896946
 23
165.10309649721577
  0
SOLID
  8
_1-5_
  6
CONTINUOUS
 62
    8
 10
246.94463323528441
 20
175.67992126848071
 11
240.40604670896946
 21
165.10309649721577
 12
240.57070642265788
 22
163.78434865103645
 13
240.57070642265788
 23
163.78434865103645
  0
SOLID
  8
_1-5_
  6
CONTINUOUS
 62
    8
 10
246.94463323528441
 20
175.67992126848071
 11
240.57070642265788
 21
163.78434865103645
 12
240.64875430673294
 22
162.67602051958102
 13
240.64875430673294
 23
162.67602051958102
  0
SOLID
  8
_1-5_
  6
CONTINUOUS
 62
    8
 10
246.94463323528441
 20
175.67992126848071
 11
240.64875430673294
 21
162.67602051958102
 12
240.7542793492388
 22
161.02982985648961
 13
240.7542793492388
 23
161.02982985648961
  0
SOLID
  8
_1-5_
  6
CONTINUOUS
 62
    8
 10
246.94463323528441
 20
175.67992126848071
 11
240.7542793492388
 21
161.02982985648961
 12
240.7542793492388
 22
159.52082174865583
 13
240.7542793492388
 23
159.52082174865583
  0
SOLID
  8
_1-5_
  6
CONTINUOUS
 62
    8
 10
246.94463323528441
 20
175.67992126848071
 11
240.7542793492388
 21
159.52082174865583
 12
240.71206933223647
 22
158.70827892136074
 13
240.71206933223647
 23
158.70827892136074
  0
SOLID
  8
_1-5_
  6
CONTINUOUS
 62
    8
 10
253.03446087607932
 20
154.05092788007778
 11
251.22031594298181
 21
153.42325060853253
 12
252.94903515556246
 22
152.9882953396984
 13
252.94903515556246
 23
152.9882953396984
  0
SOLID
  8
_1-5_
  6
CONTINUOUS
 62
    8
 10
253.03446087607932
 20
154.05092788007778
 11
252.94903515556246
 21
152.9882953396984
 12
253.84514885979732
 22
152.13571501206633
 13
253.84514885979732
 23
152.13571501206633
  0
LINE
  8
ADD_LINE
  6
DOT
 62
    4
 10
245.07691868353328
 20
179.25872091571185
 11
244.91385296041082
 21
178.9162828971547
  0
SOLID
  8
_1-5_
  6
CONTINUOUS
 62
    8
 10
245.07691868353328
 20
179.25872091571182
 11
244.91385296041082
 21
178.9162828971547
 12
246.06361953851672
 22
179.16188643791472
 13
246.06361953851672
 23
179.16188643791472
  0
SOLID
  8
_1-5_
  6
CONTINUOUS
 62
    8
 10
245.07691868353328
 20
179.25872091571182
 11
246.06361953851672
 21
179.16188643791472
 12
247.32043608759261
 22
179.44915879198919
 13
247.32043608759261
 23
179.44915879198919
  0
SOLID
  8
_1-5_
  6
CONTINUOUS
 62
    8
 10
245.07691868353328
 20
179.25872091571182
 11
247.32043608759261
 21
179.44915879198919
 12
248.27202576046437
 22
179.64665853541541
 13
248.27202576046437
 23
179.64665853541541
  0
SOLID
  8
_1-5_
  6
CONTINUOUS
 62
    8
 10
245.07691868353328
 20
179.25872091571182
 11
248.27202576046437
 21
179.64665853541541
 12
249.0123197724235
 22
179.77698497637232
 13
249.0123197724235
 23
179.77698497637232
  0
SOLID
  8
_1-5_
  6
CONTINUOUS
 62
    8
 10
249.62910142531584
 20
176.23021514186814
 11
253.84514885979732
 21
181.95999846633876
 12
252.0574951171875
 22
181.67393040012669
 13
252.0574951171875
 23
181.67393040012669
  0
SOLID
  8
_1-5_
  6
CONTINUOUS
 62
    8
 10
252.0574951171875
 20
181.67393040012669
 11
245.07691868353328
 21
179.25872091571182
 12
249.0123197724235
 22
179.77698497637232
 13
249.0123197724235
 23
179.77698497637232
  0
SOLID
  8
_1-5_
  6
CONTINUOUS
 62
    8
 10
252.0574951171875
 20
181.67393040012669
 11
249.0123197724235
 21
179.77698497637232
 12
249.62910142531584
 22
176.23021514186814
 13
249.62910142531584
 23
176.23021514186814
  0
TEXT
  8
_0-0_
 62
    7
 10
14.594594336844779
 20
24.324324324324323
 40
2.5
 41
1
 50
0
  1
Ｓ形
  0
TEXT
  8
_1-3_
 62
    7
 10
97.713666348843958
 20
141.52874920819258
 40
2.5
 41
1
 50
0
  1
Ｓ形　桟瓦
  0
LINE
  8
_1-1_
  6
CONTINUOUS
 62
    7
 10
249.48577099301835
 20
175.70607493522314
 11
249.48577099301835
 21
166.16102499432179
  0
LINE
  8
_1-1_
  6
DASHED1
 62
    7
 10
251.87159122094116
 20
175.63896694612851
 11
251.87159122094116
 21
172.14028039889789
  0
LINE
  8
_1-1_
  6
DASHED1
 62
    7
 10
252.27159122094116
 20
175.63896694612851
 11
252.27159122094116
 21
172.14028039889789
  0
LINE
  8
_1-1_
  6
DASHED1
 62
    7
 10
252.27159122094116
 20
172.14028039889789
 11
252.07159122094117
 21
171.76459665962642
  0
LINE
  8
_1-1_
  6
DASHED1
 62
    7
 10
251.87159122094116
 20
172.14028039889789
 11
252.07159122094117
 21
171.76459665962642
  0
LINE
  8
ADD_LINE
  6
DOT
 62
    4
 10
252.07159122094117
 20
176.20111596859107
 11
252.07159122094117
 21
171.76459665962642
  0
LINE
  8
_1-1_
  6
CONTINUOUS
 62
    7
 10
251.47159122094115
 20
175.85872977373722
 11
252.67159122094117
 21
175.85872977373722
  0
LINE
  8
_1-1_
  6
CONTINUOUS
 62
    7
 10
251.87159122094116
 20
175.85872977373722
 11
251.87159122094116
 21
175.63896694612851
  0
LINE
  8
_1-1_
  6
CONTINUOUS
 62
    7
 10
252.27159122094116
 20
175.85872977373722
 11
252.27159122094116
 21
175.63896694612851
  0
LINE
  8
_1-1_
  6
CONTINUOUS
 62
    7
 10
251.47159122094115
 20
176.07906388890052
 11
251.47159122094115
 21
175.85872977373722
  0
LINE
  8
_1-1_
  6
CONTINUOUS
 62
    7
 10
251.47159122094115
 20
176.07906388890052
 11
252.67159122094117
 21
176.07906388890052
  0
LINE
  8
_1-1_
  6
CONTINUOUS
 62
    7
 10
252.67159122094117
 20
175.85872977373722
 11
252.67159122094117
 21
176.07906388890052
  0
LINE
  8
_1-1_
  6
CONTINUOUS
 62
    7
 10
249.48577099301835
 20
166.16102499432179
 11
253.64293097887327
 21
166.16102499432179
  0
LINE
  8
_1-1_
  6
CONTINUOUS
 62
    7
 10
253.64293097887327
 20
175.70607493522314
 11
253.64293097887327
 21
166.16102499432179
  0
LINE
  8
_1-1_
  6
CONTINUOUS
 62
    7
 10
253.64293097887327
 20
175.70607493522314
 11
249.48577099301835
 21
175.70607493522314
  0
LINE
  8
_1-1_
  6
CONTINUOUS
 62
    7
 10
249.48577099301835
 20
175.70607493522314
 11
253.64293097887327
 21
166.16102499432179
  0
LINE
  8
_1-1_
  6
CONTINUOUS
 62
    7
 10
249.09278986721864
 20
179.84452555201074
 11
247.92191285733469
 21
179.63393616174383
  0
LINE
  8
_1-1_
  6
CONTINUOUS
 62
    7
 10
249.09278986721864
 20
179.84452555201074
 11
249.73205311653058
 21
176.16869775662488
  0
LINE
  8
_1-1_
  6
DASHED1
 62
    7
 10
247.92191285733469
 20
179.63393616174383
 11
248.59158711838342
 21
175.96667235123883
  0
LINE
  8
_1-1_
  6
CONTINUOUS
 62
    7
 10
249.73205311653058
 20
176.16869775662488
 11
248.59158711838342
 21
175.96667235123883
  0
LINE
  8
_1-1_
  6
CONTINUOUS
 62
    7
 10
248.59158711838342
 20
175.96667235123883
 11
251.45139103820793
 21
175.75066780522221
  0
LINE
  8
_1-1_
  6
CONTINUOUS
 62
    7
 10
251.45139103820793
 20
175.75066780522221
 11
252.59699732125986
 21
175.75066780522221
  0
LINE
  8
ADD_LINE
  6
DOT
 62
    7
 10
249.62913991227396
 20
176.23020264597926
 11
249.48577099301835
 21
175.70607493522314
  0
LINE
  8
ADD_LINE
  6
DOT
 62
    7
 10
253.64293097887327
 20
175.70607493522314
 11
254.10670251210971
 21
175.70011696190045
  0
LINE
  8
ADD_LINE
  6
DOT
 62
    7
 10
251.47159122094115
 20
175.85872977373722
 11
251.50088706653028
 21
175.53307751026077
  0
LINE
  8
ADD_LINE
  6
DOT
 62
    7
 10
252.67159122094117
 20
175.85872977373722
 11
252.6868671731722
 21
175.36603805862106
  0
SOLID
  8
ADD_LINE
  6
DOT
 62
    8
 10
253.84514885979732
 20
181.95999846633876
 11
249.62910142531584
 21
176.23021514186814
 12
251.47159122094115
 22
176.07906388890052
 13
251.47159122094115
 23
176.07906388890052
  0
SOLID
  8
ADD_LINE
  6
DOT
 62
    8
 10
253.84514885979732
 20
181.95999846633876
 11
251.47159122094115
 21
176.07906388890052
 12
252.67159122094117
 22
176.07906388890052
 13
252.67159122094117
 23
176.07906388890052
  0
SOLID
  8
ADD_LINE
  6
DOT
 62
    8
 10
253.84514885979732
 20
181.95999846633876
 11
252.67159122094117
 21
176.07906388890052
 12
253.84514885979732
 22
175.70347708552006
 13
253.84514885979732
 23
175.70347708552006
  0
SOLID
  8
ADD_LINE
  6
DOT
 62
    8
 10
252.67159122094117
 20
176.07906388890052
 11
252.67632429833913
 21
175.70607493522314
 12
252.67159122094117
 22
176.07906388890052
 13
253.84514885979732
 23
175.70347708552006
  0
SOLID
  8
ADD_LINE
  6
DOT
 62
    8
 10
249.48577099301835
 20
175.70607493522314
 11
251.48532412895108
 21
175.70607493522314
 12
251.47159122094115
 22
175.85872977373722
 13
251.47159122094115
 23
175.85872977373722
  0
SOLID
  8
ADD_LINE
  6
DOT
 62
    8
 10
249.48577099301835
 20
175.70607493522314
 11
251.47159122094115
 21
175.85872977373722
 12
251.47159122094115
 22
176.07906388890052
 13
251.47159122094115
 23
176.07906388890052
  0
SOLID
  8
ADD_LINE
  6
DOT
 62
    8
 10
249.48577099301835
 20
175.70607493522314
 11
251.47159122094115
 21
176.07906388890052
 12
249.62913991227396
 22
176.23020264597926
 13
249.62913991227396
 23
176.23020264597926
  0
SOLID
  8
ADD_LINE
  6
DOT
 62
    8
 10
249.48577099301835
 20
175.70607493522314
 11
249.62913991227396
 21
176.23020264597926
 12
249.62910142531584
 22
176.23021514186814
 13
249.62910142531584
 23
176.23021514186814
  0
SOLID
  8
ADD_LINE
  6
DOT
 62
    8
 10
249.62910142531584
 20
176.23021514186814
 11
248.57934378790065
 21
176.03371916102535
 12
246.94463323528441
 22
175.67992126848071
 13
246.94463323528441
 23
175.67992126848071
  0
SOLID
  8
ADD_LINE
  6
DOT
 62
    8
 10
249.62910142531584
 20
176.23021514186814
 11
246.94463323528441
 21
175.67992126848071
 12
240.71867466406167
 22
158.72626563293971
 13
240.71867466406167
 23
158.72626563293971
  0
SOLID
  8
ADD_LINE
  6
DOT
 62
    8
 10
240.71867466406167
 20
158.72626563293971
 11
250.69457093731242
 21
161.60078700433877
 12
249.48577099301835
 22
166.16102499432179
 13
249.48577099301835
 23
166.16102499432179
  0
SOLID
  8
ADD_LINE
  6
DOT
 62
    8
 10
240.71867466406167
 20
158.72626563293971
 11
249.48577099301835
 21
166.16102499432179
 12
249.48577099301835
 22
175.70607493522314
 13
249.48577099301835
 23
175.70607493522314
  0
SOLID
  8
ADD_LINE
  6
DOT
 62
    8
 10
240.71867466406167
 20
158.72626563293971
 11
249.48577099301835
 21
175.70607493522314
 12
249.62909591584443
 22
176.23019499446866
 13
249.62909591584443
 23
176.23019499446866
  0
SOLID
  8
ADD_LINE
  6
DOT
 62
    8
 10
240.71867466406167
 20
158.72626563293971
 11
249.62909591584443
 21
176.23019499446866
 12
249.62910142531584
 22
176.23021514186814
 13
249.62910142531584
 23
176.23021514186814
  0
SOLID
  8
ADD_LINE
  6
DOT
 62
    8
 10
249.48577099301835
 20
166.16102499432179
 11
253.03446087607932
 21
154.05092788007778
 12
249.48577099301835
 22
166.16102499432179
 13
253.81892457385223
 23
166.14598519937653
  0
SOLID
  8
ADD_LINE
  6
DOT
 62
    8
 10
249.48577099301835
 20
166.16102499432179
 11
250.69457093731242
 21
161.60078700433877
 12
249.48577099301835
 22
166.16102499432179
 13
253.03446087607932
 23
154.05092788007778
  0
ENDSEC
  0
EOF
