  0
SECTION
  2
HEADER
  9
$ACADVER
  1
AC1009
  9
$INSBASE
 10
0
 20
0
 30
0
  9
$EXTMIN
 10
0
 20
0
  9
$EXTMAX
 10
420
 20
297
  9
$LIMMIN
 10
0
 20
0
  9
$LIMMAX
 10
420
 20
297
  9
$LTSCALE
 40
1
  0
ENDSEC
  0
SECTION
  2
TABLES
  0
TABLE
  2
LTYPE
 70
     9
  0
LTYPE
  2
CONTINUOUS
 70
    64
  3
実線
 72
    65
 73
     0
 40
0.0
  0
LTYPE
  2
DASHED1
 70
    64
  3
--  --  --  --  --  --  --  --  
 72
    65
 73
     2
 40
2.5
 49
1.25
 49
-1.25
  0
LTYPE
  2
DASHED2
 70
    64
  3
----    ----    ----    ----    
 72
    65
 73
     2
 40
5.0
 49
2.5
 49
-2.5
  0
LTYPE
  2
DASHED3
 70
    64
  3
------  ------  ------  ------  
 72
    65
 73
     2
 40
5.0
 49
3.75
 49
-1.25
  0
LTYPE
  2
CENTER1
 70
    64
  3
----- - ----- - ----- - ----- - 
 72
    65
 73
     4
 40
10.0
 49
6.25
 49
-1.25
 49
1.25
 49
-1.25
  0
LTYPE
  2
CENTER2
 70
    64
  3
----------  --  ----------  --  
 72
    65
 73
     4
 40
20.0
 49
12.5
 49
-2.5
 49
2.5
 49
-2.5
  0
LTYPE
  2
PHANTOM1
 70
    64
  3
--- - - --- - - --- - - --- - - 
 72
    65
 73
     6
 40
10.0
 49
3.25
 49
-1.25
 49
1.25
 49
-1.25
 49
1.25
 49
-1.25
  0
LTYPE
  2
PHANTOM2
 70
    64
  3
--------  -  -  --------  -  -  
 72
    65
 73
     6
 40
20.0
 49
10.0
 49
-2.5
 49
1.25
 49
-2.5
 49
1.25
 49
-2.5
  0
LTYPE
  2
DOT
 70
    64
  3
-   -   -   -   -   -   -   -   
 72
    65
 73
     2
 40
2.5
 49
0.625
 49
-1.875
  0
LTYPE
  2
DUMMY
 70
    64
  3
ダミー
 72
    65
 73
     0
 40
0.0
  0
LTYPE
  2
RAND1
 70
    64
  3
ランダム線1
 72
    65
 73
     4
 40
10.0
 49
1.0
 49
-2.0
 49
3.0
 49
-4.0
  0
LTYPE
  2
RAND2
 70
    64
  3
ランダム線2
 72
    65
 73
     4
 40
14.0
 49
2.0
 49
-3.0
 49
4.0
 49
-5.0
  0
LTYPE
  2
RAND3
 70
    64
  3
ランダム線3
 72
    65
 73
     4
 40
18.0
 49
3.0
 49
-4.0
 49
5.0
 49
-6.0
  0
LTYPE
  2
RAND4
 70
    64
  3
ランダム線4
 72
    65
 73
     4
 40
22.0
 49
4.0
 49
-5.0
 49
6.0
 49
-7.0
  0
LTYPE
  2
RAND5
 70
    64
  3
ランダム線5
 72
    65
 73
     4
 40
26.0
 49
5.0
 49
-6.0
 49
7.0
 49
-8.0
  0
LTYPE
  2
LONG1
 70
    64
  3
----------  --  ----------  --  
 72
    65
 73
     4
 40
40.0
 49
32.5
 49
-2.5
 49
2.5
 49
-2.5
  0
LTYPE
  2
LONG2
 70
    64
  3
--------  -  -  --------  -  -  
 72
    65
 73
     6
 40
40.0
 49
30.0
 49
-2.5
 49
1.25
 49
-2.5
 49
1.25
 49
-2.5
  0
LTYPE
  2
LONG3
 70
    64
  3
+++++++++++++++..+++++++++++++++
 72
    65
 73
     2
 40
40.0
 49
37.5
 49
-2.5
  0
LTYPE
  2
LONG4
 70
    64
  3
+++++++++++++++..+++++++++++++++
 72
    65
 73
     2
 40
80.0
 49
75.0
 49
-5.0
  0
LTYPE
  2
LONG5
 70
    64
  3
----------  --  ----------  --  
 72
    65
 73
     4
 40
60.0
 49
37.5
 49
-7.5
 49
7.5
 49
-7.5
  0
LTYPE
  2
dashed
 70
   64
  3
-------   -------------   ------
 72
   65
 73
    2
 40
7.5
 49
6
 49
-1.5
  0
LTYPE
  2
dashed_spaced
 70
   64
  3
----        --------        ----
 72
   65
 73
    2
 40
12
 49
6
 49
-6
  0
LTYPE
  2
long_dashed_dotted
 70
   64
  3
------------- --- --------------
 72
   65
 73
    4
 40
15.25
 49
12
 49
-1.5
 49
0.25
 49
-1.5
  0
LTYPE
  2
long_dashed_double-dotted
 70
   64
  3
----------- --- --- ------------
 72
   65
 73
    6
 40
17
 49
12
 49
-1.5
 49
0.25
 49
-1.5
 49
0.25
 49
-1.5
  0
LTYPE
  2
long_dashed_triplicate-dotted
 70
   64
  3
--------- --- --- --- ----------
 72
   65
 73
    8
 40
18.75
 49
12
 49
-1.5
 49
0.25
 49
-1.5
 49
0.25
 49
-1.5
 49
0.25
 49
-1.5
  0
LTYPE
  2
dotted
 70
   64
  3
   -       -       -       -    
 72
   65
 73
    2
 40
1.75
 49
0.25
 49
-1.5
  0
LTYPE
  2
chain
 70
   64
  3
-------------- -- --------------
 72
   65
 73
    4
 40
18.5
 49
12
 49
-1.5
 49
3.5
 49
-1.5
  0
LTYPE
  2
chain_double_dash
 70
   64
  3
------------ -- -- -------------
 72
   65
 73
    6
 40
23.5
 49
12
 49
-1.5
 49
3.5
 49
-1.5
 49
3.5
 49
-1.5
  0
LTYPE
  2
dashed_dotted
 70
   64
  3
-----------     -     ----------
 72
   65
 73
    4
 40
9.25
 49
6
 49
-1.5
 49
0.25
 49
-1.5
  0
LTYPE
  2
double-dashed_dotted
 70
   64
  3
------   -----------   -   -----
 72
   65
 73
    6
 40
16.75
 49
6
 49
-1.5
 49
6
 49
-1.5
 49
0.25
 49
-1.5
  0
LTYPE
  2
dashed_double-dotted
 70
   64
  3
---------    -    -    ---------
 72
   65
 73
    6
 40
11
 49
6
 49
-1.5
 49
0.25
 49
-1.5
 49
0.25
 49
-1.5
  0
LTYPE
  2
double-dashed_double-dotted
 70
   64
  3
-----   ---------   -   -   ----
 72
   65
 73
    8
 40
18.5
 49
6
 49
-1.5
 49
6
 49
-1.5
 49
0.25
 49
-1.5
 49
0.25
 49
-1.5
  0
LTYPE
  2
dashed_triplicate-dotted
 70
   64
  3
-------    -    -    -    ------
 72
   65
 73
    8
 40
12.75
 49
6
 49
-1.5
 49
0.25
 49
-1.5
 49
0.25
 49
-1.5
 49
0.25
 49
-1.5
  0
LTYPE
  2
double-dashed_triplicate-dotted
 70
   64
  3
-----  ---------  -  -  -  -----
 72
   65
 73
   10
 40
20.25
 49
6
 49
-1.5
 49
6
 49
-1.5
 49
0.25
 49
-1.5
 49
0.25
 49
-1.5
 49
0.25
 49
-1.5
  0
LTYPE
  2
undefined
 70
   64
  3
--------------------------------
 72
   65
 73
    0
 40
0
  0
ENDTAB
  0
TABLE
  2
STYLE
  5
3
100
AcDbSymbolTable
 70
     1
  0
STYLE
  5
10
100
AcDbSymbolTableRecord
100
AcDbTextStyleTableRecord
  2
STANDARD
 70
     0
 40
0.0
 41
1.0
 50
0.0
 71
     0
 42
0.2
  3
txt
  4
bigfont.shx
  0
STYLE
  5
26
100
AcDbSymbolTableRecord
100
AcDbTextStyleTableRecord
  2
TATEGAKI
 70
    68
 40
0.0
 41
1.0
 50
0.0
 71
     0
 42
1.0
  3
txt
  4
bigfont.shx
  0
ENDTAB
  0
TABLE
  2
LAYER
 70
    5
  0
LAYER
  2
_0-0_
 70
   64
 62
    7
  6
CONTINUOUS
  0
LAYER
  2
_1-0_
 70
   64
 62
    7
  6
CONTINUOUS
  0
LAYER
  2
_1-2_
 70
   64
 62
    7
  6
CONTINUOUS
  0
LAYER
  2
_1-3_
 70
   64
 62
    7
  6
CONTINUOUS
  0
LAYER
  2
ADD_LINE
 70
   64
 62
    7
  6
CONTINUOUS
  0
ENDTAB
  0
ENDSEC
  0
SECTION
  2
BLOCKS
  0
ENDSEC
  0
SECTION
  2
ENTITIES
  0
LINE
  8
_0-0_
  6
CONTINUOUS
 62
    5
 10
6.7567526327597136
 20
280.13513513513516
 11
406.75677325274495
 21
280.13513513513516
  0
LINE
  8
_0-0_
  6
CONTINUOUS
 62
    5
 10
406.75677325274495
 20
10.13513513513513
 11
6.7567526327597136
 21
10.13513513513513
  0
LINE
  8
_0-0_
  6
CONTINUOUS
 62
    5
 10
406.75677325274495
 20
30.135133073136615
 11
6.7567402607685949
 21
30.135133073136615
  0
LINE
  8
_0-0_
  6
CONTINUOUS
 62
    5
 10
371.75678150073907
 20
10.13513513513513
 11
371.75678150073907
 21
30.135133073136615
  0
LINE
  8
_0-0_
  6
CONTINUOUS
 62
    5
 10
137.02703939901818
 20
30.135133073136615
 11
137.02703939901818
 21
10.13513513513513
  0
LINE
  8
_0-0_
  6
CONTINUOUS
 62
    5
 10
214.86486486486487
 20
30.135133073136615
 11
214.86486486486487
 21
10.13513513513513
  0
LINE
  8
_0-0_
  6
CONTINUOUS
 62
    5
 10
137.02703939901818
 20
20.135134104135886
 11
214.86486486486487
 21
20.135134104135886
  0
LINE
  8
_0-0_
  6
CONTINUOUS
 62
    5
 10
396.48648648648651
 20
25.945945945945951
 11
383.91891891891896
 21
13.378379924877265
  0
LINE
  8
_1-0_
  6
CONTINUOUS
 62
    7
 10
272.36933527766047
 20
155.8612802866343
 11
270.89202056059969
 21
159.14420050543708
  0
LINE
  8
_1-0_
  6
CONTINUOUS
 62
    7
 10
270.89202056059969
 20
159.14420050543708
 11
275.2692557669975
 21
161.11394521352409
  0
LINE
  8
_1-0_
  6
CONTINUOUS
 62
    7
 10
275.2692557669975
 20
161.11394521352409
 11
276.74657048405828
 21
157.8310249947213
  0
LINE
  8
_1-0_
  6
CONTINUOUS
 62
    7
 10
276.74657048405828
 20
157.8310249947213
 11
272.36933527766047
 21
155.8612802866343
  0
LINE
  8
_1-0_
  6
CONTINUOUS
 62
    7
 10
270.89202056059969
 20
159.14420050543708
 11
276.74657048405828
 21
157.8310249947213
  0
LINE
  8
_1-0_
  6
CONTINUOUS
 62
    7
 10
322.68916774440459
 20
182.4529080777555
 11
324.16648246146536
 21
179.16998785895271
  0
LINE
  8
_1-0_
  6
CONTINUOUS
 62
    7
 10
324.16648246146536
 20
179.16998785895271
 11
319.78924725506761
 21
177.20024315086573
  0
LINE
  8
_1-0_
  6
CONTINUOUS
 62
    7
 10
370.10907972181167
 20
203.79187094198693
 11
371.5863944388725
 21
200.50895072318414
  0
LINE
  8
_1-0_
  6
CONTINUOUS
 62
    7
 10
371.5863944388725
 20
200.50895072318414
 11
367.20915923247469
 21
198.53920601509714
  0
LINE
  8
_1-2_
  6
CONTINUOUS
 62
    3
 10
276.36781434755068
 20
158.87273427602409
 11
278.18736308329818
 21
159.48455398147172
  0
LINE
  8
ADD_LINE
  6
DOT
 62
    7
 10
274.70754262563344
 20
164.11699862093539
 11
274.53485437341641
 21
164.69192504882813
  0
LINE
  8
_1-2_
  6
CONTINUOUS
 62
    3
 10
274.53485437341641
 20
164.69192504882813
 11
274.70754262563344
 21
164.11699862093539
  0
LINE
  8
_1-2_
  6
CONTINUOUS
 62
    3
 10
275.57105811866558
 20
161.24229224952492
 11
276.37038772170609
 21
158.86507601351352
  0
LINE
  8
_1-2_
  6
CONTINUOUS
 62
    3
 10
219.75422627217063
 20
141.62777462521115
 11
220.51292625633448
 21
141.88288508234797
  0
LINE
  8
_1-2_
  6
CONTINUOUS
 62
    3
 10
221.68603845544766
 20
143.12356072503167
 11
275.57105811866558
 21
161.24229224952492
  0
LINE
  8
_1-2_
  6
CONTINUOUS
 62
    3
 10
220.64654376055745
 20
141.4380625131968
 11
220.51292625633448
 21
141.88288508234797
  0
LINE
  8
_1-2_
  6
CONTINUOUS
 62
    3
 10
219.89160486169766
 20
141.17046871700802
 11
219.75422627217063
 21
141.62777462521115
  0
LINE
  8
_1-2_
  6
CONTINUOUS
 62
    3
 10
221.37599635768584
 20
141.46546647355365
 11
220.9018274255701
 21
141.3060286238387
  0
LINE
  8
_1-2_
  6
CONTINUOUS
 62
    3
 10
221.50379902607688
 20
141.71257225242823
 11
221.30265519425677
 21
142.38224338840794
  0
LINE
  8
_1-2_
  6
CONTINUOUS
 62
    3
 10
219.28963326119089
 20
140.76392508841852
 11
219.76380219330659
 21
140.92336293813347
  0
LINE
  8
_1-2_
  6
CONTINUOUS
 62
    3
 10
219.03432485219597
 20
140.89595897777662
 11
217.80633050042232
 21
144.98407312341638
  0
LINE
  8
_1-2_
  6
CONTINUOUS
 62
    3
 10
274.53485437341641
 20
164.69192504882813
 11
276.43155484586151
 21
165.32970119167018
  0
LINE
  8
_1-2_
  6
CONTINUOUS
 62
    3
 10
278.18736308329818
 20
159.48455398147172
 11
276.43155484586151
 21
165.32970119167018
  0
LINE
  8
_1-0_
  6
CONTINUOUS
 62
    7
 10
322.68916774440459
 20
182.45289570576438
 11
324.16648246146536
 21
179.16997548696159
  0
LINE
  8
_1-0_
  6
CONTINUOUS
 62
    7
 10
324.16648246146536
 20
179.16997548696159
 11
319.78924725506761
 21
177.20023077887458
  0
LINE
  8
_1-2_
  6
CONTINUOUS
 62
    3
 10
323.77864528346709
 20
180.20835670264992
 11
325.59279983108109
 21
180.83602492873734
  0
LINE
  8
ADD_LINE
  6
DOT
 62
    7
 10
322.07269617029141
 20
185.43793549408784
 11
321.89496014569261
 21
186.01132779508023
  0
LINE
  8
_1-2_
  6
CONTINUOUS
 62
    3
 10
321.89496014569261
 20
186.01132779508023
 11
322.07269617029141
 21
185.43793549408784
  0
LINE
  8
_1-2_
  6
CONTINUOUS
 62
    3
 10
322.96125257337417
 20
182.57086264120568
 11
323.78129288956927
 21
180.2007108121305
  0
LINE
  8
_1-2_
  6
CONTINUOUS
 62
    3
 10
267.31772757865286
 20
162.47001441749367
 11
268.07412637246625
 21
162.73173151789484
  0
LINE
  8
_1-2_
  6
CONTINUOUS
 62
    3
 10
269.23640070734797
 20
163.98260168127112
 11
322.96125257337417
 21
182.57086264120568
  0
LINE
  8
_1-2_
  6
CONTINUOUS
 62
    3
 10
268.21162868190459
 20
162.28809665989232
 11
268.07412637246625
 21
162.73173151789484
  0
LINE
  8
_1-2_
  6
CONTINUOUS
 62
    3
 10
267.45908994932432
 20
162.01392096442146
 11
267.31772757865286
 21
162.47001441749367
  0
LINE
  8
_1-2_
  6
CONTINUOUS
 62
    3
 10
268.94080909522808
 20
162.32185982369089
 11
268.46807531408365
 21
162.1582773569468
  0
LINE
  8
_1-2_
  6
CONTINUOUS
 62
    3
 10
269.06645903716219
 20
162.5700667097762
 11
268.85947562552786
 21
163.23795627903294
  0
LINE
  8
_1-2_
  6
CONTINUOUS
 62
    3
 10
266.86065673828125
 20
161.60213161159206
 11
267.33344000739021
 21
161.76571407833615
  0
LINE
  8
_1-2_
  6
CONTINUOUS
 62
    3
 10
266.60423485008448
 20
161.73193854254646
 11
265.34060916385135
 21
165.80917770798143
  0
LINE
  8
_1-2_
  6
CONTINUOUS
 62
    3
 10
325.59279983108109
 20
180.83602492873734
 11
323.78604373416385
 21
186.66563291807432
  0
LINE
  8
_1-2_
  6
CONTINUOUS
 62
    7
 10
265.34060916385135
 20
165.80917770798143
 11
260.63217575485641
 21
179.41765037742823
  0
LINE
  8
_1-2_
  6
CONTINUOUS
 62
    3
 10
274.70754262563344
 20
164.11699862093539
 11
217.80633050042232
 21
144.98407312341638
  0
LINE
  8
_1-0_
  6
CONTINUOUS
 62
    7
 10
319.78924725506761
 20
177.20024315086573
 11
318.32908011771536
 21
180.44509475295609
  0
LINE
  8
_1-0_
  6
CONTINUOUS
 62
    7
 10
319.78924725506761
 20
177.20023077887458
 11
318.32905537373313
 21
180.44508238096495
  0
LINE
  8
_1-0_
  6
CONTINUOUS
 62
    7
 10
318.32908011771536
 20
180.44509475295609
 11
324.16648246146536
 21
179.16998785895271
  0
LINE
  8
_1-2_
  6
CONTINUOUS
 62
    7
 10
276.43155484586151
 20
165.32970119167018
 11
276.08748977248734
 21
166.35300095016893
  0
LINE
  8
_1-0_
  6
CONTINUOUS
 62
    7
 10
274.53485437341641
 20
164.69192504882813
 11
274.22904349662161
 21
165.71000382706927
  0
LINE
  8
_1-0_
  6
CONTINUOUS
 62
    7
 10
370.10907972181167
 20
203.79187094198693
 11
371.5863944388725
 21
200.50895072318414
  0
LINE
  8
_1-0_
  6
CONTINUOUS
 62
    7
 10
371.5863944388725
 20
200.50895072318414
 11
367.20915923247469
 21
198.53920601509714
  0
LINE
  8
_1-0_
  6
CONTINUOUS
 62
    7
 10
370.10907972181167
 20
203.79185856999578
 11
371.5863944388725
 21
200.508938351193
  0
LINE
  8
_1-0_
  6
CONTINUOUS
 62
    7
 10
371.5863944388725
 20
200.508938351193
 11
367.20915923247469
 21
198.53919364310602
  0
LINE
  8
_1-2_
  6
CONTINUOUS
 62
    3
 10
369.37467832823057
 20
207.36983840529984
 11
369.54736658044766
 21
206.79491197740711
  0
LINE
  8
_1-2_
  6
CONTINUOUS
 62
    3
 10
371.19855726087417
 20
201.54731956688136
 11
373.01271180848818
 21
202.17498779296875
  0
LINE
  8
ADD_LINE
  6
DOT
 62
    7
 10
369.49260814769849
 20
206.77689835831927
 11
369.31487212309969
 21
207.35029065931167
  0
LINE
  8
_1-2_
  6
CONTINUOUS
 62
    3
 10
369.31487212309969
 20
207.35029065931167
 11
369.49260814769849
 21
206.77689835831927
  0
LINE
  8
_1-2_
  6
CONTINUOUS
 62
    3
 10
370.38116455078125
 20
203.90982550543708
 11
371.20120486697635
 21
201.53967367636193
  0
LINE
  8
_1-2_
  6
CONTINUOUS
 62
    3
 10
314.73763955606
 20
183.80897728172511
 11
315.49403834987334
 21
184.07069438212628
  0
LINE
  8
_1-2_
  6
CONTINUOUS
 62
    3
 10
316.65631268475511
 20
185.32156454550255
 11
370.38116455078125
 21
203.90982550543708
  0
LINE
  8
_1-2_
  6
CONTINUOUS
 62
    3
 10
315.63154065931167
 20
183.62705952412375
 11
315.49403834987334
 21
184.07069438212628
  0
LINE
  8
_1-2_
  6
CONTINUOUS
 62
    3
 10
314.87900192673146
 20
183.35288382865289
 11
314.73763955606
 21
183.80897728172511
  0
LINE
  8
_1-2_
  6
CONTINUOUS
 62
    3
 10
316.36072107263516
 20
183.66082268792232
 11
315.88798729149073
 21
183.49724022117823
  0
LINE
  8
_1-2_
  6
CONTINUOUS
 62
    3
 10
316.48637101456927
 20
183.9090295740076
 11
316.279387602935
 21
184.57691914326438
  0
LINE
  8
_1-2_
  6
CONTINUOUS
 62
    3
 10
369.49260814769849
 20
206.77689835831927
 11
312.76052114125844
 21
187.14814057221284
  0
LINE
  8
_1-2_
  6
CONTINUOUS
 62
    3
 10
314.02414682749156
 20
183.07090140677789
 11
312.76052114125844
 21
187.14814057221284
  0
LINE
  8
_1-2_
  6
CONTINUOUS
 62
    3
 10
373.01271180848818
 20
202.17498779296875
 11
371.20595571157099
 21
208.00459578230576
  0
LINE
  8
_1-2_
  6
CONTINUOUS
 62
    7
 10
312.76052114125844
 20
187.14814057221284
 11
308.05208773226354
 21
200.75661324165964
  0
LINE
  8
_1-0_
  6
CONTINUOUS
 62
    7
 10
367.20915923247469
 20
198.53920601509714
 11
365.7489920951225
 21
201.7840576171875
  0
LINE
  8
_1-0_
  6
CONTINUOUS
 62
    7
 10
367.20915923247469
 20
198.53919364310602
 11
365.74896735114021
 21
201.78404524519638
  0
LINE
  8
_1-0_
  6
CONTINUOUS
 62
    7
 10
365.74896735114021
 20
201.78404524519638
 11
370.08050042229729
 21
203.77884323532518
  0
LINE
  8
_1-0_
  6
CONTINUOUS
 62
    7
 10
365.7489920951225
 20
201.7840576171875
 11
371.5863944388725
 21
200.50895072318414
  0
LINE
  8
_1-2_
  6
CONTINUOUS
 62
    3
 10
362.15757627744932
 20
205.14794014595651
 11
362.91395032728042
 21
205.40965724635771
  0
LINE
  8
_1-2_
  6
CONTINUOUS
 62
    3
 10
363.05147738070104
 20
204.96602238835516
 11
362.91395032728042
 21
205.40965724635771
  0
LINE
  8
_1-2_
  6
CONTINUOUS
 62
    3
 10
362.29891390413854
 20
204.6918466928843
 11
362.15757627744932
 21
205.14794014595651
  0
LINE
  8
_1-2_
  6
CONTINUOUS
 62
    3
 10
363.78068253800677
 20
204.99978555215372
 11
363.30792401288011
 21
204.83620308540964
  0
LINE
  8
_1-2_
  6
CONTINUOUS
 62
    3
 10
363.90630773595865
 20
205.24799243823904
 11
363.69932432432432
 21
205.91588200749578
  0
LINE
  8
_1-2_
  6
CONTINUOUS
 62
    3
 10
361.70050543707771
 20
204.28005734005492
 11
362.17326396220443
 21
204.44363980679898
  0
LINE
  8
_1-2_
  6
CONTINUOUS
 62
    3
 10
361.44405880489865
 20
204.4098642710093
 11
360.18043311866558
 21
208.48710343644427
  0
LINE
  8
_1-2_
  6
CONTINUOUS
 62
    7
 10
360.18043311866558
 20
208.48710343644427
 11
355.47204919763516
 21
222.09557610589107
  0
LINE
  8
_1-2_
  6
CONTINUOUS
 62
    7
 10
309.57611908783787
 20
196.35178849503802
 11
260.63217575485641
 21
179.41765037742823
  0
LINE
  8
_1-2_
  6
CONTINUOUS
 62
    7
 10
323.78604373416385
 20
186.66563291807432
 11
323.43910835884714
 21
187.6683333113387
  0
LINE
  8
_1-2_
  6
CONTINUOUS
 62
    3
 10
321.89496014569261
 20
186.01132779508023
 11
323.78606847814615
 21
186.66563291807432
  0
LINE
  8
ADD_LINE
  6
DOT
 62
    7
 10
325.59279983108109
 20
180.83602492873734
 11
323.78606847814615
 21
186.66563291807432
  0
LINE
  8
_1-2_
  6
CONTINUOUS
 62
    7
 10
321.89496014569261
 20
186.01132779508023
 11
321.5806868269637
 21
187.02534856023016
  0
LINE
  8
ADD_LINE
  6
DOT
 62
    7
 10
373.01271180848818
 20
202.17498779296875
 11
371.20598045555323
 21
208.00459578230576
  0
LINE
  8
_1-2_
  6
CONTINUOUS
 62
    3
 10
369.31487212309969
 20
207.35029065931167
 11
371.20598045555323
 21
208.00459578230576
  0
LINE
  8
_1-2_
  6
CONTINUOUS
 62
    7
 10
356.99605580922724
 20
217.69075135926943
 11
308.05208773226354
 21
200.75661324165964
  0
LINE
  8
_1-2_
  6
CONTINUOUS
 62
    7
 10
371.20595571157099
 20
208.00459578230576
 11
370.85902033625422
 21
209.0072961755701
  0
LINE
  8
_1-0_
  6
CONTINUOUS
 62
    7
 10
318.32905537373313
 20
180.44508238096495
 11
322.68914300042229
 21
182.45301942567568
  0
LINE
  8
ADD_LINE
  6
DOT
 62
    7
 10
361.44405880489865
 20
204.4098642710093
 11
361.63386989284209
 21
203.79738885003169
  0
LINE
  8
_1-3_
  6
CONTINUOUS
 62
    7
 10
298.86675035631339
 20
186.83397860140414
 11
288.72038145323057
 21
214.71085831925677
  0
LINE
  8
_1-3_
  6
CONTINUOUS
 62
    7
 10
288.72038145323057
 20
214.71085831925677
 11
287.44651175834036
 21
214.71085831925677
  0
LINE
  8
_1-0_
  6
CONTINUOUS
 62
    7
 10
124.06438466664908
 20
155.8612802866343
 11
125.54169938370988
 21
159.14420050543708
  0
LINE
  8
_1-0_
  6
CONTINUOUS
 62
    7
 10
125.54169938370988
 20
159.14420050543708
 11
121.16447654930322
 21
161.11394521352409
  0
LINE
  8
_1-0_
  6
CONTINUOUS
 62
    7
 10
121.16447654930322
 20
161.11394521352409
 11
119.68716183224241
 21
157.8310249947213
  0
LINE
  8
_1-0_
  6
CONTINUOUS
 62
    7
 10
119.68716183224241
 20
157.8310249947213
 11
124.06438466664908
 21
155.8612802866343
  0
LINE
  8
_1-0_
  6
CONTINUOUS
 62
    7
 10
125.54169938370988
 20
159.14420050543708
 11
119.68716183224241
 21
157.8310249947213
  0
LINE
  8
_1-0_
  6
CONTINUOUS
 62
    7
 10
73.74456457189612
 20
182.4529080777555
 11
72.267249854835313
 21
179.16998785895271
  0
LINE
  8
_1-0_
  6
CONTINUOUS
 62
    7
 10
72.267249854835313
 20
179.16998785895271
 11
76.644485061233127
 21
177.20024315086573
  0
LINE
  8
_1-0_
  6
CONTINUOUS
 62
    7
 10
26.32465259448901
 20
203.79187094198693
 11
24.847337877428203
 21
200.50895072318414
  0
LINE
  8
_1-0_
  6
CONTINUOUS
 62
    7
 10
24.847337877428203
 20
200.50895072318414
 11
29.224573083826016
 21
198.53920601509714
  0
LINE
  8
_1-2_
  6
CONTINUOUS
 62
    3
 10
120.06591796875
 20
158.87273427602409
 11
118.24636923300254
 21
159.48455398147172
  0
LINE
  8
ADD_LINE
  6
DOT
 62
    7
 10
121.72618969066724
 20
164.11699862093539
 11
121.8988779428843
 21
164.69192504882813
  0
LINE
  8
_1-2_
  6
CONTINUOUS
 62
    3
 10
121.8988779428843
 20
164.69192504882813
 11
121.72618969066724
 21
164.11699862093539
  0
LINE
  8
_1-2_
  6
CONTINUOUS
 62
    3
 10
120.86267419763514
 20
161.24229224952492
 11
120.0633445945946
 21
158.86507601351352
  0
LINE
  8
_1-2_
  6
CONTINUOUS
 62
    3
 10
176.67949367213893
 20
141.62777462521115
 11
175.92081843195737
 21
141.88288508234797
  0
LINE
  8
_1-2_
  6
CONTINUOUS
 62
    3
 10
174.74769386085305
 20
143.12356072503167
 11
120.86267419763514
 21
161.24229224952492
  0
LINE
  8
_1-2_
  6
CONTINUOUS
 62
    3
 10
175.78720092773437
 20
141.4380625131968
 11
175.92081843195737
 21
141.88288508234797
  0
LINE
  8
_1-2_
  6
CONTINUOUS
 62
    3
 10
176.54212745460305
 20
141.17046871700802
 11
176.67949367213893
 21
141.62777462521115
  0
LINE
  8
_1-2_
  6
CONTINUOUS
 62
    3
 10
175.05773595861487
 20
141.46546647355365
 11
175.53190489073057
 21
141.3060286238387
  0
LINE
  8
_1-2_
  6
CONTINUOUS
 62
    3
 10
174.92993329022383
 20
141.71257225242823
 11
175.13108949403505
 21
142.38224338840794
  0
LINE
  8
_1-2_
  6
CONTINUOUS
 62
    3
 10
177.14411142710094
 20
140.76392508841852
 11
176.66993012299409
 21
140.92336293813347
  0
LINE
  8
_1-2_
  6
CONTINUOUS
 62
    3
 10
121.8988779428843
 20
164.69192504882813
 11
120.00217747043919
 21
165.32970119167018
  0
LINE
  8
_1-2_
  6
CONTINUOUS
 62
    3
 10
118.24636923300254
 20
159.48455398147172
 11
120.00217747043919
 21
165.32970119167018
  0
LINE
  8
_1-0_
  6
CONTINUOUS
 62
    7
 10
73.74456457189612
 20
182.45289570576438
 11
72.267249854835313
 21
179.16997548696159
  0
LINE
  8
_1-0_
  6
CONTINUOUS
 62
    7
 10
72.267249854835313
 20
179.16997548696159
 11
76.644485061233127
 21
177.20023077887458
  0
LINE
  8
_1-2_
  6
CONTINUOUS
 62
    3
 10
72.65508703283362
 20
180.20835670264992
 11
70.840932485219582
 21
180.83602492873734
  0
LINE
  8
ADD_LINE
  6
DOT
 62
    7
 10
74.361036146009297
 20
185.43793549408784
 11
74.538772170608127
 21
186.01132779508023
  0
LINE
  8
_1-2_
  6
CONTINUOUS
 62
    3
 10
74.538772170608127
 20
186.01132779508023
 11
74.361036146009297
 21
185.43793549408784
  0
LINE
  8
_1-2_
  6
CONTINUOUS
 62
    3
 10
73.47247974292651
 20
182.57086264120568
 11
72.652439426731405
 21
180.2007108121305
  0
LINE
  8
_1-2_
  6
CONTINUOUS
 62
    3
 10
129.11600473764781
 20
162.47001441749367
 11
128.3596183158256
 21
162.73173151789484
  0
LINE
  8
_1-2_
  6
CONTINUOUS
 62
    3
 10
127.19731923696158
 20
163.98260168127112
 11
73.47247974292651
 21
182.57086264120568
  0
LINE
  8
_1-2_
  6
CONTINUOUS
 62
    3
 10
128.22210363439612
 20
162.28809665989232
 11
128.3596183158256
 21
162.73173151789484
  0
LINE
  8
_1-2_
  6
CONTINUOUS
 62
    3
 10
128.9746547389675
 20
162.01392096442146
 11
129.11600473764781
 21
162.47001441749367
  0
LINE
  8
_1-2_
  6
CONTINUOUS
 62
    3
 10
127.49291084908151
 20
162.32185982369089
 11
127.96565700221707
 21
162.1582773569468
  0
LINE
  8
_1-2_
  6
CONTINUOUS
 62
    3
 10
127.36727327913852
 20
162.5700667097762
 11
127.57425669077281
 21
163.23795627903294
  0
LINE
  8
_1-2_
  6
CONTINUOUS
 62
    3
 10
129.57307557801943
 20
161.60213161159206
 11
129.10030468090162
 21
161.76571407833615
  0
LINE
  8
_1-2_
  6
CONTINUOUS
 62
    3
 10
74.361036146009297
 20
185.43793549408784
 11
131.09313552444047
 21
165.80917770798143
  0
LINE
  8
_1-2_
  6
CONTINUOUS
 62
    3
 10
129.82950983820734
 20
161.73193854254646
 11
131.09313552444047
 21
165.80917770798143
  0
LINE
  8
_1-2_
  6
CONTINUOUS
 62
    3
 10
70.840932485219582
 20
180.83602492873734
 11
72.647688582136823
 21
186.66563291807432
  0
LINE
  8
_1-2_
  6
CONTINUOUS
 62
    7
 10
131.09313552444047
 20
165.80917770798143
 11
135.80154418945313
 21
179.41765037742823
  0
LINE
  8
_1-2_
  6
CONTINUOUS
 62
    3
 10
121.72618969066724
 20
164.11699862093539
 11
178.62740181587839
 21
144.98407312341638
  0
LINE
  8
_1-0_
  6
CONTINUOUS
 62
    7
 10
76.644485061233127
 20
177.20024315086573
 11
78.104652198585313
 21
180.44509475295609
  0
LINE
  8
_1-0_
  6
CONTINUOUS
 62
    7
 10
76.644485061233127
 20
177.20023077887458
 11
78.104676942567551
 21
180.44508238096495
  0
LINE
  8
_1-0_
  6
CONTINUOUS
 62
    7
 10
78.104652198585313
 20
180.44509475295609
 11
72.267249854835313
 21
179.16998785895271
  0
LINE
  8
_1-2_
  6
CONTINUOUS
 62
    7
 10
120.00217747043919
 20
165.32970119167018
 11
120.34624254381335
 21
166.35300095016893
  0
LINE
  8
_1-0_
  6
CONTINUOUS
 62
    7
 10
121.8988779428843
 20
164.69192504882813
 11
122.20468881967906
 21
165.71000382706927
  0
LINE
  8
_1-0_
  6
CONTINUOUS
 62
    7
 10
26.32465259448901
 20
203.79187094198693
 11
24.847337877428203
 21
200.50895072318414
  0
LINE
  8
_1-0_
  6
CONTINUOUS
 62
    7
 10
24.847337877428203
 20
200.50895072318414
 11
29.224573083826016
 21
198.53920601509714
  0
LINE
  8
_1-0_
  6
CONTINUOUS
 62
    7
 10
26.32465259448901
 20
203.79185856999578
 11
24.847337877428203
 21
200.508938351193
  0
LINE
  8
_1-0_
  6
CONTINUOUS
 62
    7
 10
24.847337877428203
 20
200.508938351193
 11
29.224573083826016
 21
198.53919364310602
  0
LINE
  8
_1-2_
  6
CONTINUOUS
 62
    3
 10
27.059053988070104
 20
207.36983840529984
 11
26.886365735853047
 21
206.79491197740711
  0
LINE
  8
_1-2_
  6
CONTINUOUS
 62
    3
 10
25.23517505542651
 20
201.54731956688136
 11
23.4210205078125
 21
202.17498779296875
  0
LINE
  8
ADD_LINE
  6
DOT
 62
    7
 10
26.941124168602187
 20
206.77689835831927
 11
27.118860193201016
 21
207.35029065931167
  0
LINE
  8
_1-2_
  6
CONTINUOUS
 62
    3
 10
27.118860193201016
 20
207.35029065931167
 11
26.941124168602187
 21
206.77689835831927
  0
LINE
  8
_1-2_
  6
CONTINUOUS
 62
    3
 10
26.052567765519427
 20
203.90982550543708
 11
25.232527449324323
 21
201.53967367636193
  0
LINE
  8
_1-2_
  6
CONTINUOUS
 62
    3
 10
81.696092760240731
 20
183.80897728172511
 11
80.93969396642737
 21
184.07069438212628
  0
LINE
  8
_1-2_
  6
CONTINUOUS
 62
    3
 10
79.777419631545627
 20
185.32156454550255
 11
26.052567765519427
 21
203.90982550543708
  0
LINE
  8
_1-2_
  6
CONTINUOUS
 62
    3
 10
80.80219165698901
 20
183.62705952412375
 11
80.93969396642737
 21
184.07069438212628
  0
LINE
  8
_1-2_
  6
CONTINUOUS
 62
    3
 10
81.554730389569272
 20
183.35288382865289
 11
81.696092760240731
 21
183.80897728172511
  0
LINE
  8
_1-2_
  6
CONTINUOUS
 62
    3
 10
80.073011243665547
 20
183.66082268792232
 11
80.545745024809975
 21
183.49724022117823
  0
LINE
  8
_1-2_
  6
CONTINUOUS
 62
    3
 10
79.947361301731405
 20
183.9090295740076
 11
80.154344713365731
 21
184.57691914326438
  0
LINE
  8
_1-2_
  6
CONTINUOUS
 62
    3
 10
82.153163600612331
 20
182.94109447582349
 11
81.680380331503386
 21
183.10467694256758
  0
LINE
  8
_1-2_
  6
CONTINUOUS
 62
    3
 10
26.941124168602187
 20
206.77689835831927
 11
83.67321117504224
 21
187.14814057221284
  0
LINE
  8
_1-2_
  6
CONTINUOUS
 62
    3
 10
82.409585488809128
 20
183.07090140677789
 11
83.67321117504224
 21
187.14814057221284
  0
LINE
  8
_1-2_
  6
CONTINUOUS
 62
    3
 10
23.4210205078125
 20
202.17498779296875
 11
25.22777660472974
 21
208.00459578230576
  0
LINE
  8
_1-2_
  6
CONTINUOUS
 62
    7
 10
83.67321117504224
 20
187.14814057221284
 11
88.381644584037161
 21
200.75661324165964
  0
LINE
  8
_1-0_
  6
CONTINUOUS
 62
    7
 10
29.224573083826016
 20
198.53920601509714
 11
30.684740221178203
 21
201.7840576171875
  0
LINE
  8
_1-0_
  6
CONTINUOUS
 62
    7
 10
29.224573083826016
 20
198.53919364310602
 11
30.684764965160468
 21
201.78404524519638
  0
LINE
  8
_1-0_
  6
CONTINUOUS
 62
    7
 10
30.684764965160468
 20
201.78404524519638
 11
26.353231894003386
 21
203.77884323532518
  0
LINE
  8
_1-0_
  6
CONTINUOUS
 62
    7
 10
30.684740221178203
 20
201.7840576171875
 11
24.847337877428203
 21
200.50895072318414
  0
LINE
  8
_1-2_
  6
CONTINUOUS
 62
    3
 10
34.276156038851354
 20
205.14794014595651
 11
33.51978198902026
 21
205.40965724635771
  0
LINE
  8
_1-2_
  6
CONTINUOUS
 62
    3
 10
33.382254935599661
 20
204.96602238835516
 11
33.51978198902026
 21
205.40965724635771
  0
LINE
  8
_1-2_
  6
CONTINUOUS
 62
    3
 10
34.134818412162161
 20
204.6918466928843
 11
34.276156038851354
 21
205.14794014595651
  0
LINE
  8
_1-2_
  6
CONTINUOUS
 62
    3
 10
32.653049778293905
 20
204.99978555215372
 11
33.125808303420627
 21
204.83620308540964
  0
LINE
  8
_1-2_
  6
CONTINUOUS
 62
    3
 10
32.527424580342057
 20
205.24799243823904
 11
32.734407991976354
 21
205.91588200749578
  0
LINE
  8
_1-2_
  6
CONTINUOUS
 62
    3
 10
34.733226879222968
 20
204.28005734005492
 11
34.260468354096275
 21
204.44363980679898
  0
LINE
  8
_1-2_
  6
CONTINUOUS
 62
    3
 10
34.989673511402032
 20
204.4098642710093
 11
36.25329919763513
 21
208.48710343644427
  0
LINE
  8
_1-2_
  6
CONTINUOUS
 62
    7
 10
36.25329919763513
 20
208.48710343644427
 11
40.961683118665547
 21
222.09557610589107
  0
LINE
  8
_1-2_
  6
CONTINUOUS
 62
    7
 10
86.857613228462839
 20
196.35178849503802
 11
135.80154418945313
 21
179.41765037742823
  0
LINE
  8
_1-2_
  6
CONTINUOUS
 62
    7
 10
72.647688582136823
 20
186.66563291807432
 11
72.994623957453541
 21
187.6683333113387
  0
LINE
  8
_1-2_
  6
CONTINUOUS
 62
    3
 10
74.538772170608127
 20
186.01132779508023
 11
72.647663838154585
 21
186.66563291807432
  0
LINE
  8
ADD_LINE
  6
DOT
 62
    7
 10
70.840932485219582
 20
180.83602492873734
 11
72.647663838154585
 21
186.66563291807432
  0
LINE
  8
_1-2_
  6
CONTINUOUS
 62
    7
 10
74.538772170608127
 20
186.01132779508023
 11
74.853045489336978
 21
187.02534856023016
  0
LINE
  8
ADD_LINE
  6
DOT
 62
    7
 10
23.4210205078125
 20
202.17498779296875
 11
25.227751860747475
 21
208.00459578230576
  0
LINE
  8
_1-2_
  6
CONTINUOUS
 62
    3
 10
27.118860193201016
 20
207.35029065931167
 11
25.227751860747475
 21
208.00459578230576
  0
LINE
  8
_1-2_
  6
CONTINUOUS
 62
    7
 10
39.43767650707349
 20
217.69075135926943
 11
88.381644584037161
 21
200.75661324165964
  0
LINE
  8
_1-2_
  6
CONTINUOUS
 62
    7
 10
25.22777660472974
 20
208.00459578230576
 11
25.574711980046459
 21
209.0072961755701
  0
LINE
  8
_1-0_
  6
CONTINUOUS
 62
    7
 10
78.104676942567551
 20
180.44508238096495
 11
73.744589315878386
 21
182.45301942567568
  0
LINE
  8
_1-2_
  6
CONTINUOUS
 62
    3
 10
364.07627415012672
 20
206.66052740973396
 11
375.40540540540542
 21
210.58029587204393
  0
LINE
  8
_1-2_
  6
CONTINUOUS
 62
    3
 10
375.40540540540542
 20
213.75480033255914
 11
360.18043311866558
 21
208.48710343644427
  0
LINE
  8
_1-2_
  6
CONTINUOUS
 62
    7
 10
375.40540540540542
 20
228.99234256228885
 11
355.47204919763516
 21
222.09557610589107
  0
LINE
  8
_1-2_
  6
CONTINUOUS
 62
    3
 10
32.357458166173984
 20
206.66052740973396
 11
17.027027027027032
 21
211.96469693570523
  0
LINE
  8
_1-2_
  6
CONTINUOUS
 62
    3
 10
17.027027027027032
 20
215.13920139622044
 11
36.25329919763513
 21
208.48710343644427
  0
LINE
  8
_1-2_
  6
CONTINUOUS
 62
    7
 10
17.027027027027032
 20
230.37674362595018
 11
40.961683118665547
 21
222.09557610589107
  0
LINE
  8
_1-0_
  6
CONTINUOUS
 62
    7
 10
198.21686615815034
 20
118.10631829339106
 11
17.027027027027032
 21
199.64174837679477
  0
LINE
  8
_1-0_
  6
CONTINUOUS
 62
    7
 10
198.21686615815034
 20
118.10631829339106
 11
375.40540540540542
 21
197.84117827544341
  0
LINE
  8
_1-0_
  6
CONTINUOUS
 62
    7
 10
198.21686615815034
 20
120.73812536291175
 11
375.40540540540542
 21
200.472972972973
  0
LINE
  8
_1-0_
  6
CONTINUOUS
 62
    7
 10
198.21686615815034
 20
120.73812536291175
 11
17.027027027027032
 21
202.27354307432432
  0
LINE
  8
_1-0_
  6
CONTINUOUS
 62
    7
 10
197.82883102829393
 20
122.66728994008658
 11
17.027027027027032
 21
204.02808936866555
  0
LINE
  8
_1-2_
  6
CONTINUOUS
 62
    7
 10
197.82883102829393
 20
122.66728994008658
 11
197.58261603278083
 21
122.1201262602935
  0
LINE
  8
_1-0_
  6
CONTINUOUS
 62
    7
 10
197.58261603278083
 20
122.1201262602935
 11
17.027027027027032
 21
203.37014688027872
  0
LINE
  8
_1-0_
  6
CONTINUOUS
 62
    7
 10
198.8267063450169
 20
122.10915230415964
 11
375.40540540540542
 21
201.56956440693625
  0
LINE
  8
_1-2_
  6
CONTINUOUS
 62
    7
 10
198.5804913495038
 20
122.65630361196158
 11
198.8267063450169
 21
122.10915230415964
  0
LINE
  8
_1-0_
  6
CONTINUOUS
 62
    7
 10
198.5804913495038
 20
122.65630361196158
 11
375.40540540540542
 21
202.22750689532307
  0
LINE
  8
_1-2_
  6
CONTINUOUS
 62
    3
 10
198.21686615815034
 20
123.79408140440246
 11
229.22218941353464
 21
137.74647068332982
  0
LINE
  8
_1-2_
  6
CONTINUOUS
 62
    7
 10
227.36968169341216
 20
143.75491580447635
 11
235.13741158150339
 21
145.98814680769638
  0
LINE
  8
_1-2_
  6
CONTINUOUS
 62
    7
 10
227.36968169341216
 20
143.75491580447635
 11
230.41712580500425
 21
136.98279715873102
  0
LINE
  8
_1-2_
  6
CONTINUOUS
 62
    7
 10
235.13741158150339
 20
145.98814680769638
 11
237.71249307168497
 21
140.26570500554266
  0
LINE
  8
_1-2_
  6
CONTINUOUS
 62
    7
 10
227.36968169341216
 20
143.75491580447635
 11
237.71249307168497
 21
140.26570500554266
  0
LINE
  8
_1-2_
  6
CONTINUOUS
 62
    3
 10
229.22218941353464
 20
137.74647068332982
 11
226.51930525496201
 21
143.75289916992187
  0
LINE
  8
_1-2_
  6
CONTINUOUS
 62
    3
 10
226.51930525496201
 20
143.75289916992187
 11
234.75600783889359
 21
146.1417698215794
  0
LINE
  8
_1-2_
  6
CONTINUOUS
 62
    3
 10
234.75600783889359
 20
146.1417698215794
 11
230.88953791437925
 21
145.83651568438557
  0
LINE
  8
_1-2_
  6
CONTINUOUS
 62
    3
 10
176.67950604413008
 20
141.62777462521115
 11
175.92080605996622
 21
141.88288508234797
  0
LINE
  8
_1-2_
  6
CONTINUOUS
 62
    3
 10
175.78718855574326
 20
141.4380625131968
 11
175.92080605996622
 21
141.88288508234797
  0
LINE
  8
_1-2_
  6
CONTINUOUS
 62
    3
 10
176.54212745460305
 20
141.17046871700802
 11
176.67950604413008
 21
141.62777462521115
  0
LINE
  8
_1-2_
  6
CONTINUOUS
 62
    3
 10
175.05773595861487
 20
141.46546647355365
 11
175.53190489073057
 21
141.3060286238387
  0
LINE
  8
_1-2_
  6
CONTINUOUS
 62
    3
 10
174.92993329022383
 20
141.71257225242823
 11
175.13107712204393
 21
142.38224338840794
  0
LINE
  8
_1-2_
  6
CONTINUOUS
 62
    3
 10
177.14409905510982
 20
140.76392508841852
 11
176.66993012299409
 21
140.92336293813347
  0
LINE
  8
_1-2_
  6
CONTINUOUS
 62
    3
 10
177.39940746410474
 20
140.89595897777662
 11
178.62740181587839
 21
144.98407312341638
  0
LINE
  8
_1-2_
  6
CONTINUOUS
 62
    3
 10
198.21686615815034
 20
123.79408140440246
 11
167.21154290276607
 21
137.74647068332982
  0
LINE
  8
_1-2_
  6
CONTINUOUS
 62
    7
 10
169.06405062288852
 20
143.75491580447635
 11
161.29632073479732
 21
145.98814680769638
  0
LINE
  8
_1-2_
  6
CONTINUOUS
 62
    7
 10
169.06405062288852
 20
143.75491580447635
 11
166.01660651129646
 21
136.98279715873102
  0
LINE
  8
_1-2_
  6
CONTINUOUS
 62
    7
 10
161.29632073479732
 20
145.98814680769638
 11
158.72123924461573
 21
140.26570500554266
  0
LINE
  8
_1-2_
  6
CONTINUOUS
 62
    7
 10
169.06405062288852
 20
143.75491580447635
 11
158.72123924461573
 21
140.26570500554266
  0
LINE
  8
_1-2_
  6
CONTINUOUS
 62
    3
 10
167.21154290276607
 20
137.74647068332982
 11
169.9144270613387
 21
143.75289916992187
  0
LINE
  8
_1-2_
  6
CONTINUOUS
 62
    3
 10
169.9144270613387
 20
143.75289916992187
 11
161.67772447740711
 21
146.1417698215794
  0
LINE
  8
_1-2_
  6
CONTINUOUS
 62
    3
 10
161.67772447740711
 20
146.1417698215794
 11
165.54419440192146
 21
145.83651568438557
  0
LINE
  8
_1-2_
  6
CONTINUOUS
 62
    3
 10
322.07269617029141
 20
185.43793549408784
 11
265.34060916385135
 21
165.80917770798143
  0
LINE
  8
_1-2_
  6
CONTINUOUS
 62
    7
 10
134.16743922877956
 20
175.12590562975086
 11
182.77224154085727
 21
158.78262906461148
  0
LINE
  8
_1-3_
  6
CONTINUOUS
 62
    7
 10
178.62740181587839
 20
144.98407312341638
 11
182.77224154085727
 21
158.78262906461148
  0
LINE
  8
_1-3_
  6
CONTINUOUS
 62
    7
 10
217.80633050042232
 20
144.98407312341638
 11
213.66149077544341
 21
158.78262906461148
  0
LINE
  8
_1-2_
  6
CONTINUOUS
 62
    7
 10
262.26629308752115
 20
175.12590562975086
 11
213.66149077544341
 21
158.78262906461148
  0
ARC
  8
_1-2_
  6
CONTINUOUS
 62
    3
 10
221.87725995038008
 20
142.55485740867823
 40
0.599999959404404
 50
108.5858917236328
 51
196.71983337402344
  0
ARC
  8
_1-2_
  6
CONTINUOUS
 62
    3
 10
220.83806218327703
 20
141.49559227195948
 40
0.1999999904954755
 50
196.71757507324219
 51
288.5885009765625
  0
ARC
  8
_1-2_
  6
CONTINUOUS
 62
    3
 10
219.70006169499578
 20
141.11293895824537
 40
0.1999999904954755
 50
288.58401489257812
 51
16.717575073242227
  0
ARC
  8
_1-2_
  6
CONTINUOUS
 62
    3
 10
221.312255859375
 20
141.65503012167443
 40
0.1999999904954755
 50
288.5885009765625
 51
16.719955444335923
  0
ARC
  8
_1-2_
  6
CONTINUOUS
 62
    3
 10
219.22589276288008
 20
140.95348873653927
 40
0.1999999904954755
 50
196.716552734375
 51
288.58514404296875
  0
ARC
  8
_1-2_
  6
CONTINUOUS
 62
    3
 10
269.43257099873313
 20
163.41558095571159
 40
0.599999959404404
 50
109.0858917236328
 51
197.21983337402344
  0
ARC
  8
_1-2_
  6
CONTINUOUS
 62
    3
 10
268.40267696896115
 20
162.34728426546664
 40
0.1999999904954755
 50
197.21757507324216
 51
289.0885009765625
  0
ARC
  8
_1-2_
  6
CONTINUOUS
 62
    3
 10
267.26801691828547
 20
161.95470861486487
 40
0.1999999904954755
 50
289.08401489257812
 51
17.217575073242223
  0
ARC
  8
_1-2_
  6
CONTINUOUS
 62
    3
 10
268.87541075010557
 20
162.51085436021961
 40
0.1999999904954755
 50
289.0885009765625
 51
17.219955444335916
  0
ARC
  8
_1-2_
  6
CONTINUOUS
 62
    3
 10
266.7952583931588
 20
161.79115089210305
 40
0.1999999904954755
 50
197.216552734375
 51
289.08514404296875
  0
ARC
  8
_1-2_
  6
CONTINUOUS
 62
    3
 10
316.85248297614021
 20
184.754543819943
 40
0.599999959404404
 50
109.0858917236328
 51
197.21983337402344
  0
ARC
  8
_1-2_
  6
CONTINUOUS
 62
    3
 10
315.82258894636828
 20
183.68624712969807
 40
0.1999999904954755
 50
197.21757507324216
 51
289.0885009765625
  0
ARC
  8
_1-2_
  6
CONTINUOUS
 62
    3
 10
314.68792889569261
 20
183.2936714790963
 40
0.1999999904954755
 50
289.08401489257812
 51
17.217575073242223
  0
ARC
  8
_1-2_
  6
CONTINUOUS
 62
    3
 10
316.29532272751271
 20
183.84981722445102
 40
0.1999999904954755
 50
289.0885009765625
 51
17.219955444335916
  0
ARC
  8
_1-2_
  6
CONTINUOUS
 62
    3
 10
314.21517037056589
 20
183.13011375633448
 40
0.1999999904954755
 50
197.216552734375
 51
289.08514404296875
  0
ARC
  8
_1-2_
  6
CONTINUOUS
 62
    3
 10
364.27244444151182
 20
206.09350668417443
 40
0.599999959404404
 50
109.0858917236328
 51
197.21983337402344
  0
ARC
  8
_1-2_
  6
CONTINUOUS
 62
    3
 10
363.2425504117399
 20
205.02520999392948
 40
0.1999999904954755
 50
197.21757507324216
 51
289.0885009765625
  0
ARC
  8
_1-2_
  6
CONTINUOUS
 62
    3
 10
362.10786561708193
 20
204.63263434332771
 40
0.1999999904954755
 50
289.08401489257812
 51
17.217575073242223
  0
ARC
  8
_1-2_
  6
CONTINUOUS
 62
    3
 10
363.71525944890203
 20
205.18878008868245
 40
0.1999999904954755
 50
289.0885009765625
 51
17.219955444335916
  0
ARC
  8
_1-2_
  6
CONTINUOUS
 62
    3
 10
361.63510709195526
 20
204.46907662056589
 40
0.1999999904954755
 50
197.216552734375
 51
289.08514404296875
  0
ARC
  8
_1-2_
  6
CONTINUOUS
 62
    3
 10
174.55645999392948
 20
142.55485740867823
 40
0.599999959404404
 50
343.28016662597656
 51
71.414108276367131
  0
ARC
  8
_1-2_
  6
CONTINUOUS
 62
    3
 10
175.59565776103253
 20
141.49559227195948
 40
0.1999999904954755
 50
251.41149902343753
 51
343.28242492675787
  0
ARC
  8
_1-2_
  6
CONTINUOUS
 62
    3
 10
176.7336706213049
 20
141.11293895824537
 40
0.1999999904954755
 50
163.28242492675778
 51
251.41598510742185
  0
ARC
  8
_1-2_
  6
CONTINUOUS
 62
    3
 10
175.12148882891682
 20
141.65503012167443
 40
0.1999999904954755
 50
163.28004455566406
 51
251.41149902343753
  0
ARC
  8
_1-2_
  6
CONTINUOUS
 62
    3
 10
177.20785192541175
 20
140.95348873653927
 40
0.1999999904954755
 50
251.41485595703128
 51
343.283447265625
  0
ARC
  8
_1-2_
  6
CONTINUOUS
 62
    3
 10
127.00114894557645
 20
163.41558095571159
 40
0.599999959404404
 50
342.77923583984375
 51
70.913177490234318
  0
ARC
  8
_1-2_
  6
CONTINUOUS
 62
    3
 10
128.03104297534841
 20
162.34728426546664
 40
0.1999999904954755
 50
250.90820312500003
 51
342.77912902832037
  0
ARC
  8
_1-2_
  6
CONTINUOUS
 62
    3
 10
129.16571539801521
 20
161.95470861486487
 40
0.1999999904954755
 50
162.77912902832031
 51
250.91268920898437
  0
ARC
  8
_1-2_
  6
CONTINUOUS
 62
    3
 10
127.5583215661951
 20
162.51085436021961
 40
0.1999999904954755
 50
162.77674865722659
 51
250.90820312500003
  0
ARC
  8
_1-2_
  6
CONTINUOUS
 62
    3
 10
129.6384739231419
 20
161.79115089210305
 40
0.1999999904954755
 50
250.91156005859378
 51
342.7801513671875
  0
ARC
  8
_1-2_
  6
CONTINUOUS
 62
    3
 10
79.581249340160468
 20
184.754543819943
 40
0.599999959404404
 50
342.77923583984375
 51
70.913177490234318
  0
ARC
  8
_1-2_
  6
CONTINUOUS
 62
    3
 10
80.611143369932449
 20
183.68624712969807
 40
0.1999999904954755
 50
250.90820312500003
 51
342.77912902832037
  0
ARC
  8
_1-2_
  6
CONTINUOUS
 62
    3
 10
81.745803420608127
 20
183.2936714790963
 40
0.1999999904954755
 50
162.77912902832031
 51
250.91268920898437
  0
ARC
  8
_1-2_
  6
CONTINUOUS
 62
    3
 10
80.138409588788022
 20
183.84981722445102
 40
0.1999999904954755
 50
162.77674865722659
 51
250.90820312500003
  0
ARC
  8
_1-2_
  6
CONTINUOUS
 62
    3
 10
82.218561945734805
 20
183.13011375633448
 40
0.1999999904954755
 50
250.91156005859378
 51
342.7801513671875
  0
ARC
  8
_1-2_
  6
CONTINUOUS
 62
    3
 10
32.161287874788854
 20
206.09350668417443
 40
0.599999959404404
 50
342.77923583984375
 51
70.913177490234318
  0
ARC
  8
_1-2_
  6
CONTINUOUS
 62
    3
 10
33.191181904560807
 20
205.02520999392948
 40
0.1999999904954755
 50
250.90820312500003
 51
342.77912902832037
  0
ARC
  8
_1-2_
  6
CONTINUOUS
 62
    3
 10
34.32586669921875
 20
204.63263434332771
 40
0.1999999904954755
 50
162.77912902832031
 51
250.91268920898437
  0
ARC
  8
_1-2_
  6
CONTINUOUS
 62
    3
 10
32.718472867398646
 20
205.18878008868245
 40
0.1999999904954755
 50
162.77674865722659
 51
250.90820312500003
  0
ARC
  8
_1-2_
  6
CONTINUOUS
 62
    3
 10
34.798625224345443
 20
204.46907662056589
 40
0.1999999904954755
 50
250.91156005859378
 51
342.7801513671875
  0
ARC
  8
_1-2_
  6
CONTINUOUS
 62
    3
 10
174.55647236592063
 20
142.55485740867823
 40
0.599999959404404
 50
343.28016662597656
 51
71.414108276367131
  0
ARC
  8
_1-2_
  6
CONTINUOUS
 62
    3
 10
175.59567013302365
 20
141.49559227195948
 40
0.1999999904954755
 50
251.41149902343753
 51
343.28242492675787
  0
ARC
  8
_1-2_
  6
CONTINUOUS
 62
    3
 10
176.7336706213049
 20
141.11293895824537
 40
0.1999999904954755
 50
163.28242492675778
 51
251.41598510742185
  0
ARC
  8
_1-2_
  6
CONTINUOUS
 62
    3
 10
175.12147645692568
 20
141.65503012167443
 40
0.1999999904954755
 50
163.28004455566406
 51
251.41149902343753
  0
ARC
  8
_1-2_
  6
CONTINUOUS
 62
    3
 10
177.20783955342063
 20
140.95348873653927
 40
0.1999999904954755
 50
251.41485595703128
 51
343.283447265625
  0
TEXT
  8
_0-0_
 62
    7
 10
141.89189395389042
 20
14.594594594594582
 40
2.5
 41
1
 50
0
  1
縮尺
  0
TEXT
  8
_0-0_
 62
    7
 10
377.10214563318203
 20
22.865493362014362
 40
2.5
 41
1
 50
0
  1
ＮＯ
  0
TEXT
  8
_1-0_
 62
    7
 10
169.90681828679266
 20
13.3181144095756
 40
2.5
 41
1
 50
0
  1
1/5
  0
TEXT
  8
_0-0_
 62
    7
 10
25.556194717819636
 20
20.211577544341225
 40
2.5
 41
1
 50
0
  1
木造
  0
TEXT
  8
_0-0_
 62
    7
 10
383.97877873601146
 20
17.689098667454061
 40
2.5
 41
1
 50
0
  1
Ｓ
  0
TEXT
  8
_1-3_
 62
    7
 10
305.03806861671239
 20
117.06003137536952
 40
2.5
 41
1
 50
0
  1
瓦桟
  0
TEXT
  8
_1-3_
 62
    7
 10
394.74121506149709
 20
15.199572588946381
 40
2.5
 41
1
 50
0
  1
8
  0
TEXT
  8
_1-3_
 62
    7
 10
39.721903929839272
 20
15.395235628695104
 40
2.5
 41
1
 50
0
  1
谷
  0
TEXT
  8
_1-3_
 62
    7
 10
156.63369317853943
 20
40.125411645239367
 40
2.5
 41
1
 50
0
  1
谷巾については専門業者と相談
  0
TEXT
  8
_1-3_
 62
    7
 10
156.91828815254178
 20
44.277436404068013
 40
2.5
 41
1
 50
0
  1
谷底部分には捨て貼りをする
  0
LINE
  8
_1-0_
  6
CONTINUOUS
 62
    7
 10
198.21686619707543
 20
104.94729225281583
 11
17.027027027027032
 21
186.48270065720018
  0
LINE
  8
_1-0_
  6
CONTINUOUS
 62
    7
 10
198.21686619707543
 20
104.94729225281583
 11
375.40540540540542
 21
184.68213055584883
  0
LINE
  8
_1-0_
  6
DASHED1
 62
    7
 10
198.21686615815034
 20
121.236852697424
 11
17.027027027027032
 21
202.77225803684544
  0
LINE
  8
_1-0_
  6
DASHED1
 62
    7
 10
198.21686615815034
 20
121.236852697424
 11
243.81294093988572
 21
141.75508762390814
  0
LINE
  8
_1-0_
  6
DASHED1
 62
    7
 10
198.21686615815034
 20
120.98749112485849
 11
374.32721710205078
 21
200.23715305328369
  0
LINE
  8
_1-0_
  6
DASHED1
 62
    7
 10
198.21686615815034
 20
120.98749112485849
 11
152.62078996903978
 21
141.5057229238422
  0
LINE
  8
_1-0_
  6
DASHED1
 62
    6
 10
198.21686615815034
 20
118.10631829339106
 11
152.62078996903978
 21
138.62455009237473
  0
LINE
  8
_1-0_
  6
DASHED1
 62
    6
 10
198.21686615815034
 20
118.10631829339106
 11
243.81293974737684
 21
138.62455586989458
  0
POINT
  8
_1-3_
 62
    7
 10
137.43795317411269
 20
104.8849048111896
  0
POINT
  8
_1-3_
 62
    7
 10
183.03403024417551
 20
84.366674969878019
  0
LINE
  8
_1-3_
  6
CONTINUOUS
 62
    7
 10
137.43795317411269
 20
104.8849048111896
 11
150.31211852758281
 21
133.49416790111084
  0
LINE
  8
_1-3_
  6
CONTINUOUS
 62
    7
 10
183.03403024417551
 20
84.366674969878019
 11
195.90819559764563
 21
112.97593805979926
  0
LINE
  8
_1-3_
  6
CONTINUOUS
 62
    7
 10
137.43795317411269
 20
104.8849048111896
 11
183.03403024417551
 21
84.366674969878019
  0
TEXT
  8
_1-3_
 62
    7
 10
158.73132111742987
 20
95.851184280283633
 40
2.5
 41
1
 50
-24.227740260000022
  1
250
  0
POINT
  8
_1-3_
 62
    7
 10
212.64868727224138
 20
86.035602959556343
  0
POINT
  8
_1-3_
 62
    7
 10
258.24476294925341
 20
106.55383589653628
  0
LINE
  8
_1-3_
  6
CONTINUOUS
 62
    7
 10
212.64868727224138
 20
86.035602959556343
 11
200.43575689065582
 21
113.17544973033864
  0
LINE
  8
_1-3_
  6
CONTINUOUS
 62
    7
 10
258.24476294925341
 20
106.55383589653628
 11
246.03183256766783
 21
133.6936826673186
  0
LINE
  8
_1-3_
  6
CONTINUOUS
 62
    7
 10
212.64868727224138
 20
86.035602959556343
 11
258.24476294925341
 21
106.55383589653628
  0
TEXT
  8
_1-3_
 62
    7
 10
233.53168994348962
 20
95.981246449679688
 40
2.5
 41
1
 50
24.227744149999968
  1
250
  0
TEXT
  8
_1-3_
 62
    7
 10
163.70588798452977
 20
93.513694344878118
 40
2.5
 41
1
 50
-24.227746934022353
  1
谷底部分捨て貼り
  0
TEXT
  8
_1-3_
 62
    7
 10
238.34521634133836
 20
97.797063120062987
 40
2.5
 41
1
 50
24.227748550088318
  1
谷底部分捨て貼り
  0
TEXT
  8
_1-3_
 62
    7
 10
316.47463835047472
 20
113.77480872621184
 40
2.5
 41
1
 50
0
  1
※　地域により瓦桟木の大きさは、異なります
  0
TEXT
  8
_1-3_
 62
    7
 10
316.24375225197389
 20
116.96195736166369
 40
2.5
 41
1
 50
0
  1
15×21以上　（防腐処理）
  0
LINE
  8
_1-3_
  6
CONTINUOUS
 62
    7
 10
274.28570721600511
 20
158.09793833139781
 11
297.56947285420188
 21
92.092578810480859
  0
TEXT
  8
_1-3_
 62
    7
 10
319.47123759501693
 20
91.026323498772655
 40
2.5
 41
1
 50
0
  1
60ｘ60
  0
TEXT
  8
_1-3_
 62
    7
 10
305.03807274070948
 20
97.02632473597177
 40
2.5
 41
1
 50
0
  1
野地板
  0
TEXT
  8
_1-3_
 62
    7
 10
319.47123759501693
 20
97.02632473597177
 40
2.5
 41
1
 50
0
  1
ｔ＝12
  0
LINE
  8
_1-3_
  6
CONTINUOUS
 62
    7
 10
301.62162162162161
 20
118.41102806297509
 11
288.28549032909103
 21
118.41102806297509
  0
LINE
  8
_1-3_
  6
CONTINUOUS
 62
    7
 10
301.62162162162161
 20
109.97788797829125
 11
291.26032841422619
 21
109.97788797829125
  0
LINE
  8
_1-3_
  6
CONTINUOUS
 62
    7
 10
301.62162162162161
 20
104.03557114974396
 11
293.35651444196782
 21
104.03557114974396
  0
LINE
  8
_1-3_
  6
CONTINUOUS
 62
    7
 10
301.62162162162161
 20
97.864706529019713
 11
295.53332200209405
 21
97.864706529019713
  0
LINE
  8
_1-3_
  6
CONTINUOUS
 62
    7
 10
297.56947285420188
 20
92.092578810480859
 11
301.62162162162161
 21
92.092578810480859
  0
LINE
  8
_1-3_
  6
CONTINUOUS
 62
    7
 10
168.52843083424838
 20
219.7811980033278
 11
179.2512479201331
 21
219.7811980033278
  0
LINE
  8
_1-3_
  6
CONTINUOUS
 62
    7
 10
168.52843083424838
 20
219.7811980033278
 11
151.83771164215591
 21
219.7811980033278
  0
TEXT
  8
_1-3_
 62
    7
 10
107.68990882530096
 20
218.35243097946801
 40
2.5
 41
1
 50
0
  1
ステンレス　（ＳＵＳ３０４）又は、
  0
TEXT
  8
_1-3_
 62
    7
 10
98.7788863297219
 20
218.23818801335733
 40
2.5
 41
1
 50
0
  1
谷樋
  0
TEXT
  8
_1-3_
 62
    7
 10
107.68990470130393
 20
214.9251172521665
 40
2.5
 41
1
 50
0
  1
銅板ｔ=0.4以上もしくは、耐久性の有する材料を使用すること
  0
LINE
  8
_1-3_
  6
CONTINUOUS
 62
    7
 10
210.26239071992057
 20
129.21456505394846
 11
179.2512479201331
 21
219.7811980033278
  0
LINE
  8
_1-3_
  6
CONTINUOUS
 62
    3
 10
52.618945450835753
 20
87.281041857546199
 11
79.752602545430335
 21
75.070888741783946
  0
LINE
  8
_1-3_
  6
CONTINUOUS
 62
    3
 10
79.752602545430335
 20
75.070888741783946
 11
106.99693947268966
 21
87.330839121851511
  0
LINE
  8
_1-3_
  6
CONTINUOUS
 62
    3
 10
104.80803731369471
 20
92.19501115521301
 11
104.75322939298101
 21
92.316801035914011
  0
LINE
  8
_1-3_
  6
CONTINUOUS
 62
    3
 10
50.798035796063772
 20
93.949879121323647
 11
55.212114792051949
 21
93.949879121323647
  0
LINE
  8
_1-3_
  6
CONTINUOUS
 62
    3
 10
109.24686029194638
 20
94.123520016857853
 11
104.46186900182815
 21
94.123520016857853
  0
LINE
  8
_1-3_
  6
CONTINUOUS
 62
    3
 10
54.881188773259709
 20
92.308202502077449
 11
50.798035796063772
 21
93.949879121323647
  0
LINE
  8
_1-3_
  6
CONTINUOUS
 62
    3
 10
52.618945450835753
 20
87.281041857546199
 11
54.881188773259709
 21
92.308202502077449
  0
LINE
  8
_1-3_
  6
CONTINUOUS
 62
    3
 10
106.99693947268966
 20
87.330839121851511
 11
104.75322939298101
 21
92.316801035914011
  0
LINE
  8
_1-3_
  6
CONTINUOUS
 62
    3
 10
104.75322939298101
 20
92.316801035914011
 11
109.24686029194638
 21
94.123520016857853
  0
LINE
  8
_1-3_
  6
CONTINUOUS
 62
    7
 10
60.507079556621221
 20
113.68405864386378
 11
64.350661297541848
 21
113.68405864386378
  0
LINE
  8
_1-3_
  6
CONTINUOUS
 62
    7
 10
56.220877460970911
 20
98.988545717607437
 11
60.507079556621221
 21
113.68405864386378
  0
LINE
  8
_1-3_
  6
CONTINUOUS
 62
    7
 10
56.220877460970911
 20
98.988545717607437
 11
56.220877460970911
 21
102.76489805871807
  0
CIRCLE
  8
_1-3_
  6
CONTINUOUS
 62
    7
 10
54.932681000350129
 20
93.531780053017059
 40
5.6067640716965137
  0
TEXT
  8
_1-3_
 62
    7
 10
64.869856029383072
 20
112.56022408542839
 40
2.5
 41
1
 50
0
  1
ハぜを必ず付けること
  0
TEXT
  8
_1-3_
 62
    7
 10
75.881454358669373
 20
68.958599313073009
 40
3
 41
1
 50
0
  1
谷樋
  0
TEXT
  8
_1-3_
 62
    7
 10
305.03807274070948
 20
109.02632102437443
 40
2.5
 41
1
 50
0
  1
縦桟
  0
TEXT
  8
_1-3_
 62
    7
 10
305.03807686470651
 20
103.02632597317088
 40
2.5
 41
1
 50
0
  1
ルーフィング
  0
TEXT
  8
_1-3_
 62
    7
 10
305.03806861671239
 20
91.026323498772655
 40
2.5
 41
1
 50
0
  1
たる木
  0
TEXT
  8
_1-3_
 62
    7
 10
156.63832648921829
 20
48.717784230226684
 40
2.5
 41
1
 50
0
  1
谷部分のルーフィングは、両方向へそれぞれ250ｍｍ以上重ね合わせること。
  0
TEXT
  8
_0-0_
 62
    7
 10
14.594594336844779
 20
24.324324324324323
 40
2.5
 41
1
 50
0
  1
Ｓ形
  0
TEXT
  8
_1-3_
 62
    7
 10
270.41636286555115
 20
212.88010055954393
 40
2.5
 41
1
 50
0
  1
Ｓ形　桟瓦
  0
ENDSEC
  0
EOF
