0
SECTION
2
HEADER
  9
$EXTMIN
10
0
20
0
30
0
  9
$EXTMAX
10
8367.568
20
3520.286
30
0
  9
$LTSCALE
40
20.000
  9
$DIMSCALE
40
20.000
  9
$PDMODE
70
0
  9
$PDSIZE
40
40
0
ENDSEC
0
SECTION
2
TABLES
0
TABLE
2
LTYPE
70
9
0
LTYPE
5
1f4
2
CONTINUOUS
70
0
3
実線
72
65
73
0
40
0.0
0
LTYPE
5
1f5
2
DOT
70
0
3
--  --  --  --  --  --  --  --     
72
65
73
2
40
5.000
49
1.000
49
-4.000
0
LTYPE
5
1f6
2
DASHED
70
0
3
----    ----    ----    ----    
72
65
73
2
40
5.000
49
2.000
49
-3.000
0
LTYPE
5
1f7
2
DASHED2
70
0
3
------  ------  ------  ------ 
72
65
73
2
40
10.000
49
4.000
49
-6.000
0
LTYPE
5
1f8
2
CENTER
70
0
3
----- - ----- - ----- - ----- - 
72
65
73
4
40
9.000
49
6.000
49
-1.000
49
1.000
49
-1.000
0
LTYPE
5
1f9
2
CENTER2
70
0
3
----------  --  ----------  -- 
72
65
73
4
40
18.000
49
12.000
49
-2.000
49
2.000
49
-2.000
0
LTYPE
5
1fa
2
PHANTOM
70
0
3
--- - - --- - - --- - - --- - -
72
65
73
6
40
10.000
49
5.000
49
-1.000
49
1.000
49
-1.000
49
1.000
49
-1.000
0
LTYPE
5
1fb
2
PHANTOM2
70
0
3
--------  -  -  --------  -  -
72
65
73
6
40
16.000
49
6.000
49
-2.000
49
2.000
49
-2.000
49
2.000
49
-2.000
0
LTYPE
5
1fc
2
HIDDEN
70
0
3
-   -   -   -   -   -   -   -   
72
65
73
2
40
2.500
49
0.500
49
-2.000
0
ENDTAB
0
TABLE
2
STYLE
70
1
0
STYLE
5
1fd
100
AcDbSymbolTableRecord
100
AcDbTextStyleTableRecord
2
STANDARD
70
0
40
0.0
41
1.0
50
0.0
71
0
42
0.0
3
txt.shx
4
extfont.shx
0
STYLE
5
1fe
100
AcDbSymbolTableRecord
100
AcDbTextStyleTableRecord
2
TATEGAKI
70
4
40
0.0
41
1.0
50
0.0
71
0
42
0.0
3
txt.shx
4
extfont.shx
0
STYLE
5
1ff
100
AcDbSymbolTableRecord
100
AcDbTextStyleTableRecord
2
MT
70
0
40
0.0
41
1.0
50
0.0
71
0
42
0.0
3
MS Mincho
4

0
STYLE
5
200
100
AcDbSymbolTableRecord
100
AcDbTextStyleTableRecord
2
TMT
70
4
40
0.0
41
1.0
50
0.0
71
0
42
0.0
3
@MS Mincho
4

0
ENDTAB
0
TABLE
2
LAYER
5
3b5b
100
AcDbSymbolTable
70
10
0
LAYER
5
3b5c
100
AcDbSymbolTableRecord
100
AcDbLayerTableRecord
2
0
70
64
62
  7
  6
CONTINUOUS
0
LAYER
5
3b5d
100
AcDbSymbolTableRecord
100
AcDbLayerTableRecord
2
0-0
70
64
62
  7
  6
CONTINUOUS
0
LAYER
5
3b5e
100
AcDbSymbolTableRecord
100
AcDbLayerTableRecord
2
0-1
70
64
62
  7
  6
CONTINUOUS
0
LAYER
5
3b5f
100
AcDbSymbolTableRecord
100
AcDbLayerTableRecord
2
0-2
70
64
62
  7
  6
CONTINUOUS
0
LAYER
5
3b60
100
AcDbSymbolTableRecord
100
AcDbLayerTableRecord
2
ADD_LINE
70
64
62
  -7
  6
CONTINUOUS
0
ENDTAB
0
ENDSEC
0
SECTION
2
ENTITIES
0
LINE
5
3b61
8
0-1
6
CONTINUOUS
62
  7
10
3834.180
20
1812.220
30
0.0
11
3870.380
21
1915.030
31
0.0
0
LINE
5
3b62
8
0-1
6
CONTINUOUS
62
  7
10
3853.510
20
1927.330
30
0.0
11
3870.380
21
1915.030
31
0.0
0
LINE
5
3b63
8
0-1
6
CONTINUOUS
62
  7
10
3834.180
20
1812.220
30
0.0
11
3825.540
21
1787.690
31
0.0
0
LINE
5
3b64
8
0-1
6
CONTINUOUS
62
  7
10
3541.770
20
1915.170
30
0.0
11
3825.540
21
1787.690
31
0.0
0
LINE
5
3b65
8
0-1
6
CONTINUOUS
62
  7
10
3795.340
20
1801.260
30
0.0
11
3841.240
21
1931.650
31
0.0
0
LINE
5
3b66
8
0-1
6
CONTINUOUS
62
  7
10
3852.800
20
1925.990
30
0.0
11
3869.860
21
1913.560
31
0.0
0
LINE
5
3b67
8
0-1
6
CONTINUOUS
62
  7
10
3615.100
20
2033.090
30
0.0
11
3569.240
21
1902.830
31
0.0
0
LINE
5
3b68
8
0-1
6
CONTINUOUS
62
  7
10
3613.140
20
2038.930
30
0.0
11
3599.190
21
2048.130
31
0.0
0
LINE
5
3b69
8
0-1
6
CONTINUOUS
62
  7
10
3615.100
20
2033.090
30
0.0
11
3569.240
21
1902.830
31
0.0
0
LINE
5
3b6a
8
0-1
6
CONTINUOUS
62
  4
10
3612.090
20
2039.610
30
0.0
11
3564.660
21
1904.900
31
0.0
0
LINE
5
3b6b
8
0-1
6
CONTINUOUS
62
  4
10
3584.100
20
2053.450
30
0.0
11
3536.300
21
1917.680
31
0.0
0
LINE
5
3b6c
8
0-1
6
CONTINUOUS
62
  7
10
3608.260
20
2013.680
30
0.0
11
3853.510
21
1927.330
31
0.0
0
LINE
5
3b6d
8
0-1
6
CONTINUOUS
62
  7
10
3607.760
20
2012.270
30
0.0
11
3852.800
21
1925.990
31
0.0
0
LINE
5
3b6e
8
0-1
6
CONTINUOUS
62
  7
10
3313.050
20
2018.320
30
0.0
11
3569.240
21
1902.830
31
0.0
0
LINE
5
3b6f
8
0-1
6
CONTINUOUS
62
  7
10
3353.950
20
2134.480
30
0.0
11
3599.190
21
2048.130
31
0.0
0
LINE
5
3b70
8
0-1
6
CONTINUOUS
62
  7
10
3358.910
20
2148.580
30
0.0
11
3313.050
21
2018.320
31
0.0
0
LINE
5
3b71
8
0-1
6
CONTINUOUS
62
  7
10
3356.950
20
2154.410
30
0.0
11
3343.000
21
2163.620
31
0.0
0
LINE
5
3b72
8
0-1
6
CONTINUOUS
62
  7
10
3358.910
20
2148.580
30
0.0
11
3313.050
21
2018.320
31
0.0
0
LINE
5
3b73
8
0-1
6
CONTINUOUS
62
  4
10
3355.900
20
2155.100
30
0.0
11
3308.470
21
2020.380
31
0.0
0
LINE
5
3b74
8
0-1
6
CONTINUOUS
62
  4
10
3327.910
20
2168.930
30
0.0
11
3280.110
21
2033.170
31
0.0
0
LINE
5
3b75
8
0-1
6
CONTINUOUS
62
  7
10
3056.860
20
2133.800
30
0.0
11
3313.050
21
2018.320
31
0.0
0
LINE
5
3b76
8
0-1
6
CONTINUOUS
62
  7
10
3097.760
20
2249.960
30
0.0
11
3056.860
21
2133.800
31
0.0
0
LINE
5
3b77
8
0-1
6
CONTINUOUS
62
  7
10
3097.760
20
2249.960
30
0.0
11
3343.000
21
2163.620
31
0.0
0
LINE
5
3b78
8
0-1
6
CONTINUOUS
62
  7
10
3102.720
20
2264.060
30
0.0
11
3056.860
21
2133.800
31
0.0
0
LINE
5
3b79
8
0-1
6
CONTINUOUS
62
  7
10
3100.760
20
2269.890
30
0.0
11
3086.810
21
2279.100
31
0.0
0
LINE
5
3b7a
8
0-1
6
CONTINUOUS
62
  7
10
3102.720
20
2264.060
30
0.0
11
3056.860
21
2133.800
31
0.0
0
LINE
5
3b7b
8
0-1
6
CONTINUOUS
62
  4
10
3099.720
20
2270.580
30
0.0
11
3052.280
21
2135.860
31
0.0
0
LINE
5
3b7c
8
0-1
6
CONTINUOUS
62
  4
10
3071.720
20
2284.410
30
0.0
11
3023.920
21
2148.650
31
0.0
0
LINE
5
3b7d
8
0-1
6
CONTINUOUS
62
  7
10
2800.670
20
2249.290
30
0.0
11
3056.860
21
2133.800
31
0.0
0
LINE
5
3b7e
8
0-1
6
CONTINUOUS
62
  7
10
2841.570
20
2365.450
30
0.0
11
2800.670
21
2249.290
31
0.0
0
LINE
5
3b7f
8
0-1
6
CONTINUOUS
62
  7
10
2841.570
20
2365.450
30
0.0
11
3086.810
21
2279.100
31
0.0
0
LINE
5
3b80
8
0-1
6
CONTINUOUS
62
  7
10
2846.530
20
2379.540
30
0.0
11
2800.670
21
2249.290
31
0.0
0
LINE
5
3b81
8
0-1
6
CONTINUOUS
62
  7
10
2844.570
20
2385.380
30
0.0
11
2830.630
21
2394.580
31
0.0
0
LINE
5
3b82
8
0-1
6
CONTINUOUS
62
  7
10
2846.530
20
2379.540
30
0.0
11
2800.670
21
2249.290
31
0.0
0
LINE
5
3b83
8
0-1
6
CONTINUOUS
62
  4
10
2843.530
20
2386.070
30
0.0
11
2796.100
21
2251.350
31
0.0
0
LINE
5
3b84
8
0-1
6
CONTINUOUS
62
  4
10
2815.530
20
2399.900
30
0.0
11
2767.730
21
2264.130
31
0.0
0
LINE
5
3b85
8
0-1
6
CONTINUOUS
62
  7
10
2544.480
20
2364.770
30
0.0
11
2800.670
21
2249.290
31
0.0
0
LINE
5
3b86
8
0-1
6
CONTINUOUS
62
  7
10
2585.380
20
2480.930
30
0.0
11
2544.480
21
2364.770
31
0.0
0
LINE
5
3b87
8
0-1
6
CONTINUOUS
62
  7
10
2585.380
20
2480.930
30
0.0
11
2830.630
21
2394.580
31
0.0
0
LINE
5
3b88
8
0-1
6
CONTINUOUS
62
  7
10
2590.350
20
2495.030
30
0.0
11
2544.480
21
2364.770
31
0.0
0
LINE
5
3b89
8
0-1
6
CONTINUOUS
62
  7
10
2588.380
20
2500.860
30
0.0
11
2574.440
21
2510.070
31
0.0
0
LINE
5
3b8a
8
0-1
6
CONTINUOUS
62
  7
10
2590.350
20
2495.030
30
0.0
11
2544.480
21
2364.770
31
0.0
0
LINE
5
3b8b
8
0-1
6
CONTINUOUS
62
  4
10
2587.340
20
2501.550
30
0.0
11
2539.910
21
2366.830
31
0.0
0
LINE
5
3b8c
8
0-1
6
CONTINUOUS
62
  4
10
2559.350
20
2515.380
30
0.0
11
2511.550
21
2379.620
31
0.0
0
LINE
5
3b8d
8
0-1
6
CONTINUOUS
62
  7
10
2288.300
20
2480.250
30
0.0
11
2544.480
21
2364.770
31
0.0
0
LINE
5
3b8e
8
0-1
6
CONTINUOUS
62
  7
10
2329.190
20
2596.420
30
0.0
11
2288.300
21
2480.250
31
0.0
0
LINE
5
3b8f
8
0-1
6
CONTINUOUS
62
  7
10
2329.190
20
2596.420
30
0.0
11
2574.440
21
2510.070
31
0.0
0
LINE
5
3b90
8
0-1
6
CONTINUOUS
62
  7
10
2334.160
20
2610.510
30
0.0
11
2288.300
21
2480.250
31
0.0
0
LINE
5
3b91
8
0-1
6
CONTINUOUS
62
  7
10
2332.200
20
2616.350
30
0.0
11
2318.250
21
2625.550
31
0.0
0
LINE
5
3b92
8
0-1
6
CONTINUOUS
62
  7
10
2334.160
20
2610.510
30
0.0
11
2288.300
21
2480.250
31
0.0
0
LINE
5
3b93
8
0-1
6
CONTINUOUS
62
  4
10
2331.150
20
2617.030
30
0.0
11
2283.720
21
2482.320
31
0.0
0
LINE
5
3b94
8
0-1
6
CONTINUOUS
62
  4
10
2303.160
20
2630.870
30
0.0
11
2255.360
21
2495.100
31
0.0
0
LINE
5
3b95
8
0-1
6
CONTINUOUS
62
  7
10
2032.110
20
2595.740
30
0.0
11
2288.300
21
2480.250
31
0.0
0
LINE
5
3b96
8
0-1
6
CONTINUOUS
62
  7
10
2073.010
20
2711.900
30
0.0
11
2032.110
21
2595.740
31
0.0
0
LINE
5
3b97
8
0-1
6
CONTINUOUS
62
  7
10
2073.010
20
2711.900
30
0.0
11
2318.250
21
2625.550
31
0.0
0
LINE
5
3b98
8
0-1
6
CONTINUOUS
62
  7
10
2077.970
20
2726.000
30
0.0
11
2032.110
21
2595.740
31
0.0
0
LINE
5
3b99
8
0-1
6
CONTINUOUS
62
  7
10
2076.010
20
2731.830
30
0.0
11
2062.060
21
2741.040
31
0.0
0
LINE
5
3b9a
8
0-1
6
CONTINUOUS
62
  7
10
2077.970
20
2726.000
30
0.0
11
2032.110
21
2595.740
31
0.0
0
LINE
5
3b9b
8
0-1
6
CONTINUOUS
62
  7
10
1775.920
20
2711.220
30
0.0
11
2032.110
21
2595.740
31
0.0
0
LINE
5
3b9c
8
0-1
6
CONTINUOUS
62
  7
10
1816.820
20
2827.380
30
0.0
11
1775.920
21
2711.220
31
0.0
0
LINE
5
3b9d
8
0-1
6
CONTINUOUS
62
  7
10
1816.820
20
2827.380
30
0.0
11
2062.060
21
2741.040
31
0.0
0
LINE
5
3b9e
8
0-1
6
CONTINUOUS
62
  7
10
1821.780
20
2841.480
30
0.0
11
1775.920
21
2711.220
31
0.0
0
LINE
5
3b9f
8
0-1
6
CONTINUOUS
62
  7
10
1819.820
20
2847.310
30
0.0
11
1805.870
21
2856.520
31
0.0
0
LINE
5
3ba0
8
0-1
6
CONTINUOUS
62
  7
10
1821.780
20
2841.480
30
0.0
11
1775.920
21
2711.220
31
0.0
0
LINE
5
3ba1
8
0-1
6
CONTINUOUS
62
  4
10
1818.780
20
2848.000
30
0.0
11
1771.350
21
2713.280
31
0.0
0
LINE
5
3ba2
8
0-1
6
CONTINUOUS
62
  4
10
1790.780
20
2861.830
30
0.0
11
1742.980
21
2726.070
31
0.0
0
LINE
5
3ba3
8
0-1
6
CONTINUOUS
62
  7
10
1519.730
20
2826.710
30
0.0
11
1775.920
21
2711.220
31
0.0
0
LINE
5
3ba4
8
0-1
6
CONTINUOUS
62
  7
10
1560.630
20
2942.870
30
0.0
11
1519.730
21
2826.710
31
0.0
0
LINE
5
3ba5
8
0-1
6
CONTINUOUS
62
  7
10
1560.630
20
2942.870
30
0.0
11
1805.870
21
2856.520
31
0.0
0
LINE
5
3ba6
8
0-1
6
CONTINUOUS
62
  7
10
1565.590
20
2956.960
30
0.0
11
1519.730
21
2826.710
31
0.0
0
LINE
5
3ba7
8
0-1
6
CONTINUOUS
62
  7
10
1563.630
20
2962.800
30
0.0
11
1549.690
21
2972.000
31
0.0
0
LINE
5
3ba8
8
0-1
6
CONTINUOUS
62
  7
10
1565.590
20
2956.960
30
0.0
11
1519.730
21
2826.710
31
0.0
0
LINE
5
3ba9
8
0-1
6
CONTINUOUS
62
  4
10
1562.590
20
2963.490
30
0.0
11
1515.160
21
2828.770
31
0.0
0
LINE
5
3baa
8
0-1
6
CONTINUOUS
62
  4
10
1534.590
20
2977.320
30
0.0
11
1486.790
21
2841.550
31
0.0
0
LINE
5
3bab
8
0-1
6
CONTINUOUS
62
  7
10
1263.540
20
2942.190
30
0.0
11
1519.730
21
2826.710
31
0.0
0
LINE
5
3bac
8
0-1
6
CONTINUOUS
62
  7
10
1304.440
20
3058.350
30
0.0
11
1263.540
21
2942.190
31
0.0
0
LINE
5
3bad
8
0-1
6
CONTINUOUS
62
  7
10
1304.440
20
3058.350
30
0.0
11
1549.690
21
2972.000
31
0.0
0
LINE
5
3bae
8
0-1
6
CONTINUOUS
62
  7
10
1309.410
20
3072.450
30
0.0
11
1263.540
21
2942.190
31
0.0
0
LINE
5
3baf
8
0-1
6
CONTINUOUS
62
  7
10
1307.450
20
3078.280
30
0.0
11
1293.500
21
3087.490
31
0.0
0
LINE
5
3bb0
8
0-1
6
CONTINUOUS
62
  7
10
1309.410
20
3072.450
30
0.0
11
1263.540
21
2942.190
31
0.0
0
LINE
5
3bb1
8
0-1
6
CONTINUOUS
62
  4
10
1306.400
20
3078.970
30
0.0
11
1258.970
21
2944.250
31
0.0
0
LINE
5
3bb2
8
0-1
6
CONTINUOUS
62
  4
10
1278.410
20
3092.800
30
0.0
11
1230.610
21
2957.040
31
0.0
0
LINE
5
3bb3
8
0-1
6
CONTINUOUS
62
  7
10
1007.360
20
3057.670
30
0.0
11
1263.540
21
2942.190
31
0.0
0
LINE
5
3bb4
8
0-1
6
CONTINUOUS
62
  7
10
1048.260
20
3173.830
30
0.0
11
1007.360
21
3057.670
31
0.0
0
LINE
5
3bb5
8
0-1
6
CONTINUOUS
62
  7
10
1048.260
20
3173.830
30
0.0
11
1293.500
21
3087.490
31
0.0
0
LINE
5
3bb6
8
0-1
6
CONTINUOUS
62
  7
10
1053.220
20
3187.930
30
0.0
11
1007.360
21
3057.670
31
0.0
0
LINE
5
3bb7
8
0-1
6
CONTINUOUS
62
  7
10
1051.260
20
3193.760
30
0.0
11
1037.310
21
3202.970
31
0.0
0
LINE
5
3bb8
8
0-1
6
CONTINUOUS
62
  7
10
1053.220
20
3187.930
30
0.0
11
1007.360
21
3057.670
31
0.0
0
LINE
5
3bb9
8
0-1
6
CONTINUOUS
62
  4
10
1050.210
20
3194.450
30
0.0
11
1002.780
21
3059.740
31
0.0
0
LINE
5
3bba
8
0-1
6
CONTINUOUS
62
  4
10
1022.220
20
3208.290
30
0.0
11
974.420
21
3072.520
31
0.0
0
LINE
5
3bbb
8
0-1
6
CONTINUOUS
62
  7
10
751.170
20
3173.160
30
0.0
11
1007.360
21
3057.670
31
0.0
0
LINE
5
3bbc
8
0-1
6
CONTINUOUS
62
  7
10
792.070
20
3289.320
30
0.0
11
751.170
21
3173.160
31
0.0
0
LINE
5
3bbd
8
0-1
6
CONTINUOUS
62
  7
10
792.070
20
3289.320
30
0.0
11
1037.310
21
3202.970
31
0.0
0
LINE
5
3bbe
8
0-1
6
CONTINUOUS
62
  7
10
797.030
20
3303.420
30
0.0
11
751.170
21
3173.160
31
0.0
0
LINE
5
3bbf
8
0-1
6
CONTINUOUS
62
  7
10
795.070
20
3309.250
30
0.0
11
781.120
21
3318.460
31
0.0
0
LINE
5
3bc0
8
0-1
6
CONTINUOUS
62
  7
10
797.030
20
3303.420
30
0.0
11
751.170
21
3173.160
31
0.0
0
LINE
5
3bc1
8
0-1
6
CONTINUOUS
62
  4
10
794.030
20
3309.940
30
0.0
11
746.590
21
3175.220
31
0.0
0
LINE
5
3bc2
8
0-1
6
CONTINUOUS
62
  4
10
766.030
20
3323.770
30
0.0
11
718.230
21
3188.000
31
0.0
0
LINE
5
3bc3
8
0-1
6
CONTINUOUS
62
  7
10
494.980
20
3288.640
30
0.0
11
751.170
21
3173.160
31
0.0
0
LINE
5
3bc4
8
0-1
6
CONTINUOUS
62
  7
10
535.880
20
3404.800
30
0.0
11
494.980
21
3288.640
31
0.0
0
LINE
5
3bc5
8
0-1
6
CONTINUOUS
62
  7
10
535.880
20
3404.800
30
0.0
11
781.120
21
3318.460
31
0.0
0
LINE
5
3bc6
8
0-1
6
CONTINUOUS
62
  7
10
540.840
20
3418.900
30
0.0
11
494.980
21
3288.640
31
0.0
0
LINE
5
3bc7
8
0-1
6
CONTINUOUS
62
  7
10
538.880
20
3424.730
30
0.0
11
524.940
21
3433.940
31
0.0
0
LINE
5
3bc8
8
0-1
6
CONTINUOUS
62
  7
10
540.840
20
3418.900
30
0.0
11
494.980
21
3288.640
31
0.0
0
LINE
5
3bc9
8
0-1
6
CONTINUOUS
62
  4
10
537.840
20
3425.420
30
0.0
11
490.410
21
3290.700
31
0.0
0
LINE
5
3bca
8
0-1
6
CONTINUOUS
62
  4
10
509.840
20
3439.250
30
0.0
11
462.040
21
3303.490
31
0.0
0
LINE
5
3bcb
8
0-1
6
CONTINUOUS
62
  7
10
238.790
20
3404.120
30
0.0
11
494.980
21
3288.640
31
0.0
0
LINE
5
3bcc
8
0-1
6
CONTINUOUS
62
  7
10
279.690
20
3520.290
30
0.0
11
238.790
21
3404.120
31
0.0
0
LINE
5
3bcd
8
0-1
6
CONTINUOUS
62
  7
10
279.690
20
3520.290
30
0.0
11
524.940
21
3433.940
31
0.0
0
LINE
5
3bce
8
0-1
6
CONTINUOUS
62
  7
10
4086.490
20
1776.030
30
0.0
11
4086.700
21
1775.860
31
0.0
0
LINE
5
3bcf
8
0-1
6
CONTINUOUS
62
  7
10
4086.700
20
1775.860
30
0.0
11
4086.920
21
1775.710
31
0.0
0
LINE
5
3bd0
8
0-1
6
CONTINUOUS
62
  7
10
4086.920
20
1775.710
30
0.0
11
4087.150
21
1775.560
31
0.0
0
LINE
5
3bd1
8
0-1
6
CONTINUOUS
62
  7
10
4087.150
20
1775.560
30
0.0
11
4087.390
21
1775.420
31
0.0
0
LINE
5
3bd2
8
0-1
6
CONTINUOUS
62
  7
10
4087.390
20
1775.420
30
0.0
11
4087.640
21
1775.290
31
0.0
0
LINE
5
3bd3
8
0-1
6
CONTINUOUS
62
  7
10
4087.640
20
1775.290
30
0.0
11
4087.910
21
1775.160
31
0.0
0
LINE
5
3bd4
8
0-1
6
CONTINUOUS
62
  7
10
4087.910
20
1775.160
30
0.0
11
4088.190
21
1775.050
31
0.0
0
LINE
5
3bd5
8
0-1
6
CONTINUOUS
62
  7
10
4088.190
20
1775.050
30
0.0
11
4088.500
21
1774.940
31
0.0
0
LINE
5
3bd6
8
0-1
6
CONTINUOUS
62
  7
10
4088.500
20
1774.940
30
0.0
11
4088.830
21
1774.840
31
0.0
0
LINE
5
3bd7
8
0-1
6
CONTINUOUS
62
  7
10
4088.830
20
1774.840
30
0.0
11
4089.170
21
1774.740
31
0.0
0
LINE
5
3bd8
8
0-1
6
CONTINUOUS
62
  7
10
4089.170
20
1774.740
30
0.0
11
4089.550
21
1774.640
31
0.0
0
LINE
5
3bd9
8
0-1
6
CONTINUOUS
62
  7
10
4089.550
20
1774.640
30
0.0
11
4089.950
21
1774.560
31
0.0
0
LINE
5
3bda
8
0-1
6
CONTINUOUS
62
  7
10
4089.950
20
1774.560
30
0.0
11
4090.370
21
1774.470
31
0.0
0
LINE
5
3bdb
8
0-1
6
CONTINUOUS
62
  7
10
4090.370
20
1774.470
30
0.0
11
4090.820
21
1774.390
31
0.0
0
LINE
5
3bdc
8
0-1
6
CONTINUOUS
62
  7
10
4090.820
20
1774.390
30
0.0
11
4091.300
21
1774.320
31
0.0
0
LINE
5
3bdd
8
0-1
6
CONTINUOUS
62
  7
10
4091.300
20
1774.320
30
0.0
11
4091.800
21
1774.240
31
0.0
0
LINE
5
3bde
8
0-1
6
CONTINUOUS
62
  7
10
4091.800
20
1774.240
30
0.0
11
4092.340
21
1774.170
31
0.0
0
LINE
5
3bdf
8
0-1
6
CONTINUOUS
62
  7
10
4092.340
20
1774.170
30
0.0
11
4092.900
21
1774.100
31
0.0
0
LINE
5
3be0
8
0-1
6
CONTINUOUS
62
  7
10
4092.900
20
1774.100
30
0.0
11
4093.490
21
1774.030
31
0.0
0
LINE
5
3be1
8
0-1
6
CONTINUOUS
62
  7
10
4115.490
20
1774.030
30
0.0
11
4116.030
21
1774.130
31
0.0
0
LINE
5
3be2
8
0-1
6
CONTINUOUS
62
  7
10
4116.030
20
1774.130
30
0.0
11
4116.560
21
1774.240
31
0.0
0
LINE
5
3be3
8
0-1
6
CONTINUOUS
62
  7
10
4116.560
20
1774.240
30
0.0
11
4117.080
21
1774.350
31
0.0
0
LINE
5
3be4
8
0-1
6
CONTINUOUS
62
  7
10
4117.080
20
1774.350
30
0.0
11
4117.580
21
1774.470
31
0.0
0
LINE
5
3be5
8
0-1
6
CONTINUOUS
62
  7
10
4117.580
20
1774.470
30
0.0
11
4118.070
21
1774.590
31
0.0
0
LINE
5
3be6
8
0-1
6
CONTINUOUS
62
  7
10
4118.070
20
1774.590
30
0.0
11
4118.550
21
1774.720
31
0.0
0
LINE
5
3be7
8
0-1
6
CONTINUOUS
62
  7
10
4118.550
20
1774.720
30
0.0
11
4119.000
21
1774.860
31
0.0
0
LINE
5
3be8
8
0-1
6
CONTINUOUS
62
  7
10
4119.000
20
1774.860
30
0.0
11
4119.440
21
1775.010
31
0.0
0
LINE
5
3be9
8
0-1
6
CONTINUOUS
62
  7
10
4119.440
20
1775.010
30
0.0
11
4119.850
21
1775.160
31
0.0
0
LINE
5
3bea
8
0-1
6
CONTINUOUS
62
  7
10
4119.850
20
1775.160
30
0.0
11
4120.230
21
1775.320
31
0.0
0
LINE
5
3beb
8
0-1
6
CONTINUOUS
62
  7
10
4120.230
20
1775.320
30
0.0
11
4120.590
21
1775.490
31
0.0
0
LINE
5
3bec
8
0-1
6
CONTINUOUS
62
  7
10
4120.590
20
1775.490
30
0.0
11
4120.920
21
1775.660
31
0.0
0
LINE
5
3bed
8
0-1
6
CONTINUOUS
62
  7
10
4120.920
20
1775.660
30
0.0
11
4121.220
21
1775.850
31
0.0
0
LINE
5
3bee
8
0-1
6
CONTINUOUS
62
  7
10
4121.220
20
1775.850
30
0.0
11
4121.490
21
1776.030
31
0.0
0
LINE
5
3bef
8
0-1
6
CONTINUOUS
62
  7
10
4086.490
20
1915.030
30
0.0
11
4086.490
21
1776.030
31
0.0
0
LINE
5
3bf0
8
0-1
6
CONTINUOUS
62
  7
10
4093.490
20
1774.030
30
0.0
11
4115.490
21
1774.030
31
0.0
0
LINE
5
3bf1
8
0-1
6
CONTINUOUS
62
  7
10
4093.490
20
1906.030
30
0.0
11
4093.490
21
1774.030
31
0.0
0
LINE
5
3bf2
8
0-1
6
CONTINUOUS
62
  7
10
4093.490
20
1906.030
30
0.0
11
4217.490
21
1906.030
31
0.0
0
LINE
5
3bf3
8
0-1
6
CONTINUOUS
62
  7
10
4217.490
20
1906.030
30
0.0
11
4217.490
21
1877.030
31
0.0
0
LINE
5
3bf4
8
0-1
6
CONTINUOUS
62
  7
10
4086.490
20
1915.030
30
0.0
11
4214.490
21
1915.030
31
0.0
0
LINE
5
3bf5
8
0-1
6
CONTINUOUS
62
  7
10
4214.490
20
1915.030
30
0.0
11
4217.490
21
1906.030
31
0.0
0
LINE
5
3bf6
8
0-1
6
CONTINUOUS
62
  4
10
2074.970
20
2732.520
30
0.0
11
2027.530
21
2597.800
31
0.0
0
LINE
5
3bf7
8
0-1
6
CONTINUOUS
62
  4
10
2046.970
20
2746.350
30
0.0
11
1999.170
21
2610.590
31
0.0
0
LINE
5
3bf8
8
0-1
6
CONTINUOUS
62
  7
10
4121.490
20
1776.030
30
0.0
11
4217.490
21
1877.030
31
0.0
0
LINE
5
3bf9
8
0-1
6
CONTINUOUS
62
  7
10
4217.490
20
2013.680
30
0.0
11
4217.490
21
1997.680
31
0.0
0
LINE
5
3bfa
8
0-1
6
CONTINUOUS
62
  7
10
4086.490
20
2008.680
30
0.0
11
4086.490
21
1881.680
31
0.0
0
LINE
5
3bfb
8
0-1
6
CONTINUOUS
62
  7
10
4122.490
20
2011.070
30
0.0
11
4112.490
21
2011.070
31
0.0
0
LINE
5
3bfc
8
0-1
6
CONTINUOUS
62
  7
10
4122.490
20
2013.680
30
0.0
11
4122.490
21
2011.070
31
0.0
0
LINE
5
3bfd
8
0-1
6
CONTINUOUS
62
  7
10
4112.490
20
2013.680
30
0.0
11
4112.490
21
2011.070
31
0.0
0
LINE
5
3bfe
8
0-1
6
CONTINUOUS
62
  7
10
4122.490
20
2013.680
30
0.0
11
4217.490
21
2013.680
31
0.0
0
LINE
5
3bff
8
0-1
6
CONTINUOUS
62
  7
10
4101.490
20
1997.680
30
0.0
11
4086.490
21
1915.030
31
0.0
0
LINE
5
3c00
8
0-1
6
CONTINUOUS
62
  7
10
4217.490
20
2118.480
30
0.0
11
4101.490
21
2118.480
31
0.0
0
LINE
5
3c01
8
0-1
6
CONTINUOUS
62
  7
10
4217.490
20
2134.480
30
0.0
11
4217.490
21
2118.480
31
0.0
0
LINE
5
3c02
8
0-1
6
CONTINUOUS
62
  7
10
4122.490
20
2131.870
30
0.0
11
4112.490
21
2131.870
31
0.0
0
LINE
5
3c03
8
0-1
6
CONTINUOUS
62
  7
10
4122.490
20
2134.480
30
0.0
11
4122.490
21
2131.870
31
0.0
0
LINE
5
3c04
8
0-1
6
CONTINUOUS
62
  7
10
4112.490
20
2134.480
30
0.0
11
4112.490
21
2131.870
31
0.0
0
LINE
5
3c05
8
0-1
6
CONTINUOUS
62
  7
10
4091.490
20
2134.480
30
0.0
11
4112.490
21
2134.480
31
0.0
0
LINE
5
3c06
8
0-1
6
CONTINUOUS
62
  7
10
4122.490
20
2134.480
30
0.0
11
4217.490
21
2134.480
31
0.0
0
LINE
5
3c07
8
0-1
6
CONTINUOUS
62
  7
10
4086.490
20
2129.480
30
0.0
11
4086.490
21
2013.680
31
0.0
0
LINE
5
3c08
8
0-1
6
CONTINUOUS
62
  7
10
4101.490
20
2118.480
30
0.0
11
4086.490
21
2008.680
31
0.0
0
LINE
5
3c09
8
0-1
6
CONTINUOUS
62
  7
10
4086.490
20
2013.680
30
0.0
11
4086.490
21
2008.680
31
0.0
0
LINE
5
3c0a
8
0-1
6
CONTINUOUS
62
  7
10
4217.490
20
2233.960
30
0.0
11
4101.490
21
2233.960
31
0.0
0
LINE
5
3c0b
8
0-1
6
CONTINUOUS
62
  7
10
4217.490
20
2249.960
30
0.0
11
4217.490
21
2233.960
31
0.0
0
LINE
5
3c0c
8
0-1
6
CONTINUOUS
62
  7
10
4122.490
20
2247.350
30
0.0
11
4112.490
21
2247.350
31
0.0
0
LINE
5
3c0d
8
0-1
6
CONTINUOUS
62
  7
10
4122.490
20
2249.960
30
0.0
11
4122.490
21
2247.350
31
0.0
0
LINE
5
3c0e
8
0-1
6
CONTINUOUS
62
  7
10
4112.490
20
2249.960
30
0.0
11
4112.490
21
2247.350
31
0.0
0
LINE
5
3c0f
8
0-1
6
CONTINUOUS
62
  7
10
4091.490
20
2249.960
30
0.0
11
4112.490
21
2249.960
31
0.0
0
LINE
5
3c10
8
0-1
6
CONTINUOUS
62
  7
10
4122.490
20
2249.960
30
0.0
11
4217.490
21
2249.960
31
0.0
0
LINE
5
3c11
8
0-1
6
CONTINUOUS
62
  7
10
4217.490
20
2349.450
30
0.0
11
4101.490
21
2349.450
31
0.0
0
LINE
5
3c12
8
0-1
6
CONTINUOUS
62
  7
10
4217.490
20
2365.450
30
0.0
11
4217.490
21
2349.450
31
0.0
0
LINE
5
3c13
8
0-1
6
CONTINUOUS
62
  7
10
4122.490
20
2362.830
30
0.0
11
4112.490
21
2362.830
31
0.0
0
LINE
5
3c14
8
0-1
6
CONTINUOUS
62
  7
10
4122.490
20
2365.450
30
0.0
11
4122.490
21
2362.830
31
0.0
0
LINE
5
3c15
8
0-1
6
CONTINUOUS
62
  7
10
4112.490
20
2365.450
30
0.0
11
4112.490
21
2362.830
31
0.0
0
LINE
5
3c16
8
0-1
6
CONTINUOUS
62
  7
10
4091.490
20
2365.450
30
0.0
11
4112.490
21
2365.450
31
0.0
0
LINE
5
3c17
8
0-1
6
CONTINUOUS
62
  7
10
4122.490
20
2365.450
30
0.0
11
4217.490
21
2365.450
31
0.0
0
LINE
5
3c18
8
0-1
6
CONTINUOUS
62
  7
10
4217.490
20
2464.930
30
0.0
11
4101.490
21
2464.930
31
0.0
0
LINE
5
3c19
8
0-1
6
CONTINUOUS
62
  7
10
4217.490
20
2480.930
30
0.0
11
4217.490
21
2464.930
31
0.0
0
LINE
5
3c1a
8
0-1
6
CONTINUOUS
62
  7
10
4122.490
20
2478.320
30
0.0
11
4112.490
21
2478.320
31
0.0
0
LINE
5
3c1b
8
0-1
6
CONTINUOUS
62
  7
10
4122.490
20
2480.930
30
0.0
11
4122.490
21
2478.320
31
0.0
0
LINE
5
3c1c
8
0-1
6
CONTINUOUS
62
  7
10
4112.490
20
2480.930
30
0.0
11
4112.490
21
2478.320
31
0.0
0
LINE
5
3c1d
8
0-1
6
CONTINUOUS
62
  7
10
4091.490
20
2480.930
30
0.0
11
4112.490
21
2480.930
31
0.0
0
LINE
5
3c1e
8
0-1
6
CONTINUOUS
62
  7
10
4122.490
20
2480.930
30
0.0
11
4217.490
21
2480.930
31
0.0
0
LINE
5
3c1f
8
0-1
6
CONTINUOUS
62
  7
10
4217.490
20
2580.420
30
0.0
11
4101.490
21
2580.420
31
0.0
0
LINE
5
3c20
8
0-1
6
CONTINUOUS
62
  7
10
4217.490
20
2596.420
30
0.0
11
4217.490
21
2580.420
31
0.0
0
LINE
5
3c21
8
0-1
6
CONTINUOUS
62
  7
10
4122.490
20
2593.800
30
0.0
11
4112.490
21
2593.800
31
0.0
0
LINE
5
3c22
8
0-1
6
CONTINUOUS
62
  7
10
4122.490
20
2596.420
30
0.0
11
4122.490
21
2593.800
31
0.0
0
LINE
5
3c23
8
0-1
6
CONTINUOUS
62
  7
10
4112.490
20
2596.420
30
0.0
11
4112.490
21
2593.800
31
0.0
0
LINE
5
3c24
8
0-1
6
CONTINUOUS
62
  7
10
4091.490
20
2596.420
30
0.0
11
4112.490
21
2596.420
31
0.0
0
LINE
5
3c25
8
0-1
6
CONTINUOUS
62
  7
10
4122.490
20
2596.420
30
0.0
11
4217.490
21
2596.420
31
0.0
0
LINE
5
3c26
8
0-1
6
CONTINUOUS
62
  7
10
4217.490
20
2695.900
30
0.0
11
4101.490
21
2695.900
31
0.0
0
LINE
5
3c27
8
0-1
6
CONTINUOUS
62
  7
10
4217.490
20
2711.900
30
0.0
11
4217.490
21
2695.900
31
0.0
0
LINE
5
3c28
8
0-1
6
CONTINUOUS
62
  7
10
4122.490
20
2709.290
30
0.0
11
4112.490
21
2709.290
31
0.0
0
LINE
5
3c29
8
0-1
6
CONTINUOUS
62
  7
10
4122.490
20
2711.900
30
0.0
11
4122.490
21
2709.290
31
0.0
0
LINE
5
3c2a
8
0-1
6
CONTINUOUS
62
  7
10
4112.490
20
2711.900
30
0.0
11
4112.490
21
2709.290
31
0.0
0
LINE
5
3c2b
8
0-1
6
CONTINUOUS
62
  7
10
4091.490
20
2711.900
30
0.0
11
4112.490
21
2711.900
31
0.0
0
LINE
5
3c2c
8
0-1
6
CONTINUOUS
62
  7
10
4122.490
20
2711.900
30
0.0
11
4217.490
21
2711.900
31
0.0
0
LINE
5
3c2d
8
0-1
6
CONTINUOUS
62
  7
10
4217.490
20
2811.380
30
0.0
11
4101.490
21
2811.380
31
0.0
0
LINE
5
3c2e
8
0-1
6
CONTINUOUS
62
  7
10
4217.490
20
2827.380
30
0.0
11
4217.490
21
2811.380
31
0.0
0
LINE
5
3c2f
8
0-1
6
CONTINUOUS
62
  7
10
4122.490
20
2824.770
30
0.0
11
4112.490
21
2824.770
31
0.0
0
LINE
5
3c30
8
0-1
6
CONTINUOUS
62
  7
10
4122.490
20
2827.380
30
0.0
11
4122.490
21
2824.770
31
0.0
0
LINE
5
3c31
8
0-1
6
CONTINUOUS
62
  7
10
4112.490
20
2827.380
30
0.0
11
4112.490
21
2824.770
31
0.0
0
LINE
5
3c32
8
0-1
6
CONTINUOUS
62
  7
10
4091.490
20
2827.380
30
0.0
11
4112.490
21
2827.380
31
0.0
0
LINE
5
3c33
8
0-1
6
CONTINUOUS
62
  7
10
4122.490
20
2827.380
30
0.0
11
4217.490
21
2827.380
31
0.0
0
LINE
5
3c34
8
0-1
6
CONTINUOUS
62
  7
10
4217.490
20
2926.870
30
0.0
11
4101.490
21
2926.870
31
0.0
0
LINE
5
3c35
8
0-1
6
CONTINUOUS
62
  7
10
4217.490
20
2942.870
30
0.0
11
4217.490
21
2926.870
31
0.0
0
LINE
5
3c36
8
0-1
6
CONTINUOUS
62
  7
10
4122.490
20
2940.250
30
0.0
11
4112.490
21
2940.250
31
0.0
0
LINE
5
3c37
8
0-1
6
CONTINUOUS
62
  7
10
4122.490
20
2942.870
30
0.0
11
4122.490
21
2940.250
31
0.0
0
LINE
5
3c38
8
0-1
6
CONTINUOUS
62
  7
10
4112.490
20
2942.870
30
0.0
11
4112.490
21
2940.250
31
0.0
0
LINE
5
3c39
8
0-1
6
CONTINUOUS
62
  7
10
4091.490
20
2942.870
30
0.0
11
4112.490
21
2942.870
31
0.0
0
LINE
5
3c3a
8
0-1
6
CONTINUOUS
62
  7
10
4122.490
20
2942.870
30
0.0
11
4217.490
21
2942.870
31
0.0
0
LINE
5
3c3b
8
0-1
6
CONTINUOUS
62
  7
10
4217.490
20
3042.350
30
0.0
11
4101.490
21
3042.350
31
0.0
0
LINE
5
3c3c
8
0-1
6
CONTINUOUS
62
  7
10
4217.490
20
3058.350
30
0.0
11
4217.490
21
3042.350
31
0.0
0
LINE
5
3c3d
8
0-1
6
CONTINUOUS
62
  7
10
4122.490
20
3055.740
30
0.0
11
4112.490
21
3055.740
31
0.0
0
LINE
5
3c3e
8
0-1
6
CONTINUOUS
62
  7
10
4122.490
20
3058.350
30
0.0
11
4122.490
21
3055.740
31
0.0
0
LINE
5
3c3f
8
0-1
6
CONTINUOUS
62
  7
10
4112.490
20
3058.350
30
0.0
11
4112.490
21
3055.740
31
0.0
0
LINE
5
3c40
8
0-1
6
CONTINUOUS
62
  7
10
4091.490
20
3058.350
30
0.0
11
4112.490
21
3058.350
31
0.0
0
LINE
5
3c41
8
0-1
6
CONTINUOUS
62
  7
10
4122.490
20
3058.350
30
0.0
11
4217.490
21
3058.350
31
0.0
0
LINE
5
3c42
8
0-1
6
CONTINUOUS
62
  7
10
4217.490
20
3157.830
30
0.0
11
4101.490
21
3157.830
31
0.0
0
LINE
5
3c43
8
0-1
6
CONTINUOUS
62
  7
10
4217.490
20
3173.830
30
0.0
11
4217.490
21
3157.830
31
0.0
0
LINE
5
3c44
8
0-1
6
CONTINUOUS
62
  7
10
4122.490
20
3171.220
30
0.0
11
4112.490
21
3171.220
31
0.0
0
LINE
5
3c45
8
0-1
6
CONTINUOUS
62
  7
10
4122.490
20
3173.830
30
0.0
11
4122.490
21
3171.220
31
0.0
0
LINE
5
3c46
8
0-1
6
CONTINUOUS
62
  7
10
4112.490
20
3173.830
30
0.0
11
4112.490
21
3171.220
31
0.0
0
LINE
5
3c47
8
0-1
6
CONTINUOUS
62
  7
10
4091.490
20
3173.830
30
0.0
11
4112.490
21
3173.830
31
0.0
0
LINE
5
3c48
8
0-1
6
CONTINUOUS
62
  7
10
4122.490
20
3173.830
30
0.0
11
4217.490
21
3173.830
31
0.0
0
LINE
5
3c49
8
0-1
6
CONTINUOUS
62
  7
10
4217.490
20
3273.320
30
0.0
11
4101.490
21
3273.320
31
0.0
0
LINE
5
3c4a
8
0-1
6
CONTINUOUS
62
  7
10
4217.490
20
3289.320
30
0.0
11
4217.490
21
3273.320
31
0.0
0
LINE
5
3c4b
8
0-1
6
CONTINUOUS
62
  7
10
4122.490
20
3286.700
30
0.0
11
4112.490
21
3286.700
31
0.0
0
LINE
5
3c4c
8
0-1
6
CONTINUOUS
62
  7
10
4122.490
20
3289.320
30
0.0
11
4122.490
21
3286.700
31
0.0
0
LINE
5
3c4d
8
0-1
6
CONTINUOUS
62
  7
10
4112.490
20
3289.320
30
0.0
11
4112.490
21
3286.700
31
0.0
0
LINE
5
3c4e
8
0-1
6
CONTINUOUS
62
  7
10
4091.490
20
3289.320
30
0.0
11
4112.490
21
3289.320
31
0.0
0
LINE
5
3c4f
8
0-1
6
CONTINUOUS
62
  7
10
4122.490
20
3289.320
30
0.0
11
4217.490
21
3289.320
31
0.0
0
LINE
5
3c50
8
0-1
6
CONTINUOUS
62
  7
10
4217.490
20
3388.800
30
0.0
11
4101.490
21
3388.800
31
0.0
0
LINE
5
3c51
8
0-1
6
CONTINUOUS
62
  7
10
4217.490
20
3404.800
30
0.0
11
4217.490
21
3388.800
31
0.0
0
LINE
5
3c52
8
0-1
6
CONTINUOUS
62
  7
10
4122.490
20
3402.190
30
0.0
11
4112.490
21
3402.190
31
0.0
0
LINE
5
3c53
8
0-1
6
CONTINUOUS
62
  7
10
4122.490
20
3404.800
30
0.0
11
4122.490
21
3402.190
31
0.0
0
LINE
5
3c54
8
0-1
6
CONTINUOUS
62
  7
10
4112.490
20
3404.800
30
0.0
11
4112.490
21
3402.190
31
0.0
0
LINE
5
3c55
8
0-1
6
CONTINUOUS
62
  7
10
4091.490
20
3404.800
30
0.0
11
4112.490
21
3404.800
31
0.0
0
LINE
5
3c56
8
0-1
6
CONTINUOUS
62
  7
10
4122.490
20
3404.800
30
0.0
11
4217.490
21
3404.800
31
0.0
0
LINE
5
3c57
8
0-1
6
CONTINUOUS
62
  7
10
4086.490
20
3404.800
30
0.0
11
4086.490
21
2129.480
31
0.0
0
LINE
5
3c58
8
0-1
6
CONTINUOUS
62
  7
10
4101.490
20
2233.960
30
0.0
11
4086.490
21
2129.480
31
0.0
0
LINE
5
3c59
8
0-1
6
CONTINUOUS
62
  7
10
4101.490
20
2349.450
30
0.0
11
4086.490
21
2244.960
31
0.0
0
LINE
5
3c5a
8
0-1
6
CONTINUOUS
62
  7
10
4101.490
20
2464.930
30
0.0
11
4086.490
21
2360.450
31
0.0
0
LINE
5
3c5b
8
0-1
6
CONTINUOUS
62
  7
10
4101.490
20
2580.420
30
0.0
11
4086.490
21
2475.930
31
0.0
0
LINE
5
3c5c
8
0-1
6
CONTINUOUS
62
  7
10
4101.490
20
2695.900
30
0.0
11
4086.490
21
2596.420
31
0.0
0
LINE
5
3c5d
8
0-1
6
CONTINUOUS
62
  7
10
4101.490
20
2811.380
30
0.0
11
4086.490
21
2706.900
31
0.0
0
LINE
5
3c5e
8
0-1
6
CONTINUOUS
62
  7
10
4101.490
20
2926.870
30
0.0
11
4086.490
21
2822.380
31
0.0
0
LINE
5
3c5f
8
0-1
6
CONTINUOUS
62
  7
10
4101.490
20
3042.350
30
0.0
11
4086.490
21
2937.870
31
0.0
0
LINE
5
3c60
8
0-1
6
CONTINUOUS
62
  7
10
4101.490
20
3157.830
30
0.0
11
4086.490
21
3053.350
31
0.0
0
LINE
5
3c61
8
0-1
6
CONTINUOUS
62
  7
10
4101.490
20
3273.320
30
0.0
11
4086.490
21
3168.830
31
0.0
0
LINE
5
3c62
8
0-1
6
CONTINUOUS
62
  7
10
4101.490
20
3388.800
30
0.0
11
4086.490
21
3284.320
31
0.0
0
LINE
5
3c63
8
0-1
6
CONTINUOUS
62
  7
10
4217.490
20
1907.030
30
0.0
11
4523.490
21
1907.030
31
0.0
0
LINE
5
3c64
8
0-1
6
CONTINUOUS
62
  7
10
4217.490
20
1877.030
30
0.0
11
4523.490
21
1877.030
31
0.0
0
LINE
5
3c65
8
0-1
6
CONTINUOUS
62
  7
10
4217.490
20
1907.030
30
0.0
11
4217.490
21
1877.030
31
0.0
0
LINE
5
3c66
8
0-1
6
CONTINUOUS
62
  7
10
4340.490
20
1909.030
30
0.0
11
4400.490
21
1909.030
31
0.0
0
LINE
5
3c67
8
0-1
6
CONTINUOUS
62
  7
10
4340.490
20
1909.030
30
0.0
11
4340.490
21
1907.030
31
0.0
0
LINE
5
3c68
8
0-1
6
CONTINUOUS
62
  7
10
4400.490
20
1909.030
30
0.0
11
4400.490
21
1907.030
31
0.0
0
LINE
5
3c69
8
0-1
6
CONTINUOUS
62
  7
10
4523.490
20
1907.030
30
0.0
11
4829.490
21
1907.030
31
0.0
0
LINE
5
3c6a
8
0-1
6
CONTINUOUS
62
  7
10
4523.490
20
1877.030
30
0.0
11
4829.490
21
1877.030
31
0.0
0
LINE
5
3c6b
8
0-1
6
CONTINUOUS
62
  7
10
4646.490
20
1909.030
30
0.0
11
4706.490
21
1909.030
31
0.0
0
LINE
5
3c6c
8
0-1
6
CONTINUOUS
62
  7
10
4646.490
20
1909.030
30
0.0
11
4646.490
21
1907.030
31
0.0
0
LINE
5
3c6d
8
0-1
6
CONTINUOUS
62
  7
10
4706.490
20
1909.030
30
0.0
11
4706.490
21
1907.030
31
0.0
0
LINE
5
3c6e
8
0-1
6
CONTINUOUS
62
  7
10
4523.490
20
1907.030
30
0.0
11
4523.490
21
1877.030
31
0.0
0
LINE
5
3c6f
8
0-1
6
CONTINUOUS
62
  7
10
4829.490
20
1907.030
30
0.0
11
5135.490
21
1907.030
31
0.0
0
LINE
5
3c70
8
0-1
6
CONTINUOUS
62
  7
10
4829.490
20
1877.030
30
0.0
11
5135.490
21
1877.030
31
0.0
0
LINE
5
3c71
8
0-1
6
CONTINUOUS
62
  7
10
4952.490
20
1909.030
30
0.0
11
5012.490
21
1909.030
31
0.0
0
LINE
5
3c72
8
0-1
6
CONTINUOUS
62
  7
10
4952.490
20
1909.030
30
0.0
11
4952.490
21
1907.030
31
0.0
0
LINE
5
3c73
8
0-1
6
CONTINUOUS
62
  7
10
5012.490
20
1909.030
30
0.0
11
5012.490
21
1907.030
31
0.0
0
LINE
5
3c74
8
0-1
6
CONTINUOUS
62
  7
10
4829.490
20
1907.030
30
0.0
11
4829.490
21
1877.030
31
0.0
0
LINE
5
3c75
8
0-1
6
CONTINUOUS
62
  7
10
5135.490
20
1907.030
30
0.0
11
5441.490
21
1907.030
31
0.0
0
LINE
5
3c76
8
0-1
6
CONTINUOUS
62
  7
10
5135.490
20
1877.030
30
0.0
11
5441.490
21
1877.030
31
0.0
0
LINE
5
3c77
8
0-1
6
CONTINUOUS
62
  7
10
5258.490
20
1909.030
30
0.0
11
5318.490
21
1909.030
31
0.0
0
LINE
5
3c78
8
0-1
6
CONTINUOUS
62
  7
10
5258.490
20
1909.030
30
0.0
11
5258.490
21
1907.030
31
0.0
0
LINE
5
3c79
8
0-1
6
CONTINUOUS
62
  7
10
5318.490
20
1909.030
30
0.0
11
5318.490
21
1907.030
31
0.0
0
LINE
5
3c7a
8
0-1
6
CONTINUOUS
62
  7
10
5135.490
20
1907.030
30
0.0
11
5135.490
21
1877.030
31
0.0
0
LINE
5
3c7b
8
0-1
6
CONTINUOUS
62
  7
10
5441.490
20
1907.030
30
0.0
11
5747.490
21
1907.030
31
0.0
0
LINE
5
3c7c
8
0-1
6
CONTINUOUS
62
  7
10
5441.490
20
1877.030
30
0.0
11
5747.490
21
1877.030
31
0.0
0
LINE
5
3c7d
8
0-1
6
CONTINUOUS
62
  7
10
5564.490
20
1909.030
30
0.0
11
5624.490
21
1909.030
31
0.0
0
LINE
5
3c7e
8
0-1
6
CONTINUOUS
62
  7
10
5564.490
20
1909.030
30
0.0
11
5564.490
21
1907.030
31
0.0
0
LINE
5
3c7f
8
0-1
6
CONTINUOUS
62
  7
10
5624.490
20
1909.030
30
0.0
11
5624.490
21
1907.030
31
0.0
0
LINE
5
3c80
8
0-1
6
CONTINUOUS
62
  7
10
5441.490
20
1907.030
30
0.0
11
5441.490
21
1877.030
31
0.0
0
LINE
5
3c81
8
0-1
6
CONTINUOUS
62
  7
10
5747.490
20
1907.030
30
0.0
11
6053.490
21
1907.030
31
0.0
0
LINE
5
3c82
8
0-1
6
CONTINUOUS
62
  7
10
5747.490
20
1877.030
30
0.0
11
6053.490
21
1877.030
31
0.0
0
LINE
5
3c83
8
0-1
6
CONTINUOUS
62
  7
10
5870.490
20
1909.030
30
0.0
11
5930.490
21
1909.030
31
0.0
0
LINE
5
3c84
8
0-1
6
CONTINUOUS
62
  7
10
5870.490
20
1909.030
30
0.0
11
5870.490
21
1907.030
31
0.0
0
LINE
5
3c85
8
0-1
6
CONTINUOUS
62
  7
10
5930.490
20
1909.030
30
0.0
11
5930.490
21
1907.030
31
0.0
0
LINE
5
3c86
8
0-1
6
CONTINUOUS
62
  7
10
5747.490
20
1907.030
30
0.0
11
5747.490
21
1877.030
31
0.0
0
LINE
5
3c87
8
0-1
6
CONTINUOUS
62
  7
10
6053.490
20
1907.030
30
0.0
11
6359.490
21
1907.030
31
0.0
0
LINE
5
3c88
8
0-1
6
CONTINUOUS
62
  7
10
6053.490
20
1877.030
30
0.0
11
6359.490
21
1877.030
31
0.0
0
LINE
5
3c89
8
0-1
6
CONTINUOUS
62
  7
10
6176.490
20
1909.030
30
0.0
11
6236.490
21
1909.030
31
0.0
0
LINE
5
3c8a
8
0-1
6
CONTINUOUS
62
  7
10
6176.490
20
1909.030
30
0.0
11
6176.490
21
1907.030
31
0.0
0
LINE
5
3c8b
8
0-1
6
CONTINUOUS
62
  7
10
6236.490
20
1909.030
30
0.0
11
6236.490
21
1907.030
31
0.0
0
LINE
5
3c8c
8
0-1
6
CONTINUOUS
62
  7
10
6053.490
20
1907.030
30
0.0
11
6053.490
21
1877.030
31
0.0
0
LINE
5
3c8d
8
0-1
6
CONTINUOUS
62
  7
10
6359.490
20
1907.030
30
0.0
11
6665.490
21
1907.030
31
0.0
0
LINE
5
3c8e
8
0-1
6
CONTINUOUS
62
  7
10
6359.490
20
1877.030
30
0.0
11
6665.490
21
1877.030
31
0.0
0
LINE
5
3c8f
8
0-1
6
CONTINUOUS
62
  7
10
6482.490
20
1909.030
30
0.0
11
6542.490
21
1909.030
31
0.0
0
LINE
5
3c90
8
0-1
6
CONTINUOUS
62
  7
10
6482.490
20
1909.030
30
0.0
11
6482.490
21
1907.030
31
0.0
0
LINE
5
3c91
8
0-1
6
CONTINUOUS
62
  7
10
6542.490
20
1909.030
30
0.0
11
6542.490
21
1907.030
31
0.0
0
LINE
5
3c92
8
0-1
6
CONTINUOUS
62
  7
10
6359.490
20
1907.030
30
0.0
11
6359.490
21
1877.030
31
0.0
0
LINE
5
3c93
8
0-1
6
CONTINUOUS
62
  7
10
6665.490
20
1907.030
30
0.0
11
6971.490
21
1907.030
31
0.0
0
LINE
5
3c94
8
0-1
6
CONTINUOUS
62
  7
10
6665.490
20
1877.030
30
0.0
11
6971.490
21
1877.030
31
0.0
0
LINE
5
3c95
8
0-1
6
CONTINUOUS
62
  7
10
6788.490
20
1909.030
30
0.0
11
6848.490
21
1909.030
31
0.0
0
LINE
5
3c96
8
0-1
6
CONTINUOUS
62
  7
10
6788.490
20
1909.030
30
0.0
11
6788.490
21
1907.030
31
0.0
0
LINE
5
3c97
8
0-1
6
CONTINUOUS
62
  7
10
6848.490
20
1909.030
30
0.0
11
6848.490
21
1907.030
31
0.0
0
LINE
5
3c98
8
0-1
6
CONTINUOUS
62
  7
10
6665.490
20
1907.030
30
0.0
11
6665.490
21
1877.030
31
0.0
0
LINE
5
3c99
8
0-1
6
CONTINUOUS
62
  7
10
6971.490
20
1907.030
30
0.0
11
7277.490
21
1907.030
31
0.0
0
LINE
5
3c9a
8
0-1
6
CONTINUOUS
62
  7
10
6971.490
20
1877.030
30
0.0
11
7277.490
21
1877.030
31
0.0
0
LINE
5
3c9b
8
0-1
6
CONTINUOUS
62
  7
10
7094.490
20
1909.030
30
0.0
11
7154.490
21
1909.030
31
0.0
0
LINE
5
3c9c
8
0-1
6
CONTINUOUS
62
  7
10
7094.490
20
1909.030
30
0.0
11
7094.490
21
1907.030
31
0.0
0
LINE
5
3c9d
8
0-1
6
CONTINUOUS
62
  7
10
7154.490
20
1909.030
30
0.0
11
7154.490
21
1907.030
31
0.0
0
LINE
5
3c9e
8
0-1
6
CONTINUOUS
62
  7
10
6971.490
20
1907.030
30
0.0
11
6971.490
21
1877.030
31
0.0
0
LINE
5
3c9f
8
0-1
6
CONTINUOUS
62
  7
10
7277.490
20
1907.030
30
0.0
11
7583.490
21
1907.030
31
0.0
0
LINE
5
3ca0
8
0-1
6
CONTINUOUS
62
  7
10
7277.490
20
1877.030
30
0.0
11
7583.490
21
1877.030
31
0.0
0
LINE
5
3ca1
8
0-1
6
CONTINUOUS
62
  7
10
7400.490
20
1909.030
30
0.0
11
7460.490
21
1909.030
31
0.0
0
LINE
5
3ca2
8
0-1
6
CONTINUOUS
62
  7
10
7400.490
20
1909.030
30
0.0
11
7400.490
21
1907.030
31
0.0
0
LINE
5
3ca3
8
0-1
6
CONTINUOUS
62
  7
10
7460.490
20
1909.030
30
0.0
11
7460.490
21
1907.030
31
0.0
0
LINE
5
3ca4
8
0-1
6
CONTINUOUS
62
  7
10
7277.490
20
1907.030
30
0.0
11
7277.490
21
1877.030
31
0.0
0
LINE
5
3ca5
8
0-1
6
CONTINUOUS
62
  7
10
7583.490
20
1907.030
30
0.0
11
7889.490
21
1907.030
31
0.0
0
LINE
5
3ca6
8
0-1
6
CONTINUOUS
62
  7
10
7583.490
20
1877.030
30
0.0
11
7889.490
21
1877.030
31
0.0
0
LINE
5
3ca7
8
0-1
6
CONTINUOUS
62
  7
10
7706.490
20
1909.030
30
0.0
11
7766.490
21
1909.030
31
0.0
0
LINE
5
3ca8
8
0-1
6
CONTINUOUS
62
  7
10
7706.490
20
1909.030
30
0.0
11
7706.490
21
1907.030
31
0.0
0
LINE
5
3ca9
8
0-1
6
CONTINUOUS
62
  7
10
7766.490
20
1909.030
30
0.0
11
7766.490
21
1907.030
31
0.0
0
LINE
5
3caa
8
0-1
6
CONTINUOUS
62
  7
10
7583.490
20
1907.030
30
0.0
11
7583.490
21
1877.030
31
0.0
0
LINE
5
3cab
8
0-1
6
CONTINUOUS
62
  7
10
8195.490
20
1907.030
30
0.0
11
8195.490
21
1877.030
31
0.0
0
LINE
5
3cac
8
0-1
6
CONTINUOUS
62
  7
10
7889.490
20
1907.030
30
0.0
11
8195.490
21
1907.030
31
0.0
0
LINE
5
3cad
8
0-1
6
CONTINUOUS
62
  7
10
7889.490
20
1877.030
30
0.0
11
8195.490
21
1877.030
31
0.0
0
LINE
5
3cae
8
0-1
6
CONTINUOUS
62
  7
10
8012.490
20
1909.030
30
0.0
11
8072.490
21
1909.030
31
0.0
0
LINE
5
3caf
8
0-1
6
CONTINUOUS
62
  7
10
8012.490
20
1909.030
30
0.0
11
8012.490
21
1907.030
31
0.0
0
LINE
5
3cb0
8
0-1
6
CONTINUOUS
62
  7
10
8072.490
20
1909.030
30
0.0
11
8072.490
21
1907.030
31
0.0
0
LINE
5
3cb1
8
0-1
6
CONTINUOUS
62
  7
10
7889.490
20
1907.030
30
0.0
11
7889.490
21
1877.030
31
0.0
0
LINE
5
3cb2
8
0-1
6
CONTINUOUS
62
  7
10
8326.490
20
1776.030
30
0.0
11
8326.270
21
1775.860
31
0.0
0
LINE
5
3cb3
8
0-1
6
CONTINUOUS
62
  7
10
8326.270
20
1775.860
30
0.0
11
8326.050
21
1775.710
31
0.0
0
LINE
5
3cb4
8
0-1
6
CONTINUOUS
62
  7
10
8326.050
20
1775.710
30
0.0
11
8325.830
21
1775.560
31
0.0
0
LINE
5
3cb5
8
0-1
6
CONTINUOUS
62
  7
10
8325.830
20
1775.560
30
0.0
11
8325.590
21
1775.420
31
0.0
0
LINE
5
3cb6
8
0-1
6
CONTINUOUS
62
  7
10
8325.590
20
1775.420
30
0.0
11
8325.330
21
1775.290
31
0.0
0
LINE
5
3cb7
8
0-1
6
CONTINUOUS
62
  7
10
8325.330
20
1775.290
30
0.0
11
8325.070
21
1775.160
31
0.0
0
LINE
5
3cb8
8
0-1
6
CONTINUOUS
62
  7
10
8325.070
20
1775.160
30
0.0
11
8324.780
21
1775.050
31
0.0
0
LINE
5
3cb9
8
0-1
6
CONTINUOUS
62
  7
10
8324.780
20
1775.050
30
0.0
11
8324.470
21
1774.940
31
0.0
0
LINE
5
3cba
8
0-1
6
CONTINUOUS
62
  7
10
8324.470
20
1774.940
30
0.0
11
8324.150
21
1774.840
31
0.0
0
LINE
5
3cbb
8
0-1
6
CONTINUOUS
62
  7
10
8324.150
20
1774.840
30
0.0
11
8323.800
21
1774.740
31
0.0
0
LINE
5
3cbc
8
0-1
6
CONTINUOUS
62
  7
10
8323.800
20
1774.740
30
0.0
11
8323.420
21
1774.640
31
0.0
0
LINE
5
3cbd
8
0-1
6
CONTINUOUS
62
  7
10
8323.420
20
1774.640
30
0.0
11
8323.030
21
1774.560
31
0.0
0
LINE
5
3cbe
8
0-1
6
CONTINUOUS
62
  7
10
8323.030
20
1774.560
30
0.0
11
8322.600
21
1774.470
31
0.0
0
LINE
5
3cbf
8
0-1
6
CONTINUOUS
62
  7
10
8322.600
20
1774.470
30
0.0
11
8322.150
21
1774.390
31
0.0
0
LINE
5
3cc0
8
0-1
6
CONTINUOUS
62
  7
10
8322.150
20
1774.390
30
0.0
11
8321.680
21
1774.320
31
0.0
0
LINE
5
3cc1
8
0-1
6
CONTINUOUS
62
  7
10
8321.680
20
1774.320
30
0.0
11
8321.170
21
1774.240
31
0.0
0
LINE
5
3cc2
8
0-1
6
CONTINUOUS
62
  7
10
8321.170
20
1774.240
30
0.0
11
8320.640
21
1774.170
31
0.0
0
LINE
5
3cc3
8
0-1
6
CONTINUOUS
62
  7
10
8320.640
20
1774.170
30
0.0
11
8320.080
21
1774.100
31
0.0
0
LINE
5
3cc4
8
0-1
6
CONTINUOUS
62
  7
10
8320.080
20
1774.100
30
0.0
11
8319.490
21
1774.030
31
0.0
0
LINE
5
3cc5
8
0-1
6
CONTINUOUS
62
  7
10
8297.490
20
1774.030
30
0.0
11
8296.940
21
1774.130
31
0.0
0
LINE
5
3cc6
8
0-1
6
CONTINUOUS
62
  7
10
8296.940
20
1774.130
30
0.0
11
8296.410
21
1774.240
31
0.0
0
LINE
5
3cc7
8
0-1
6
CONTINUOUS
62
  7
10
8296.410
20
1774.240
30
0.0
11
8295.900
21
1774.350
31
0.0
0
LINE
5
3cc8
8
0-1
6
CONTINUOUS
62
  7
10
8295.900
20
1774.350
30
0.0
11
8295.390
21
1774.470
31
0.0
0
LINE
5
3cc9
8
0-1
6
CONTINUOUS
62
  7
10
8295.390
20
1774.470
30
0.0
11
8294.900
21
1774.590
31
0.0
0
LINE
5
3cca
8
0-1
6
CONTINUOUS
62
  7
10
8294.900
20
1774.590
30
0.0
11
8294.420
21
1774.720
31
0.0
0
LINE
5
3ccb
8
0-1
6
CONTINUOUS
62
  7
10
8294.420
20
1774.720
30
0.0
11
8293.970
21
1774.860
31
0.0
0
LINE
5
3ccc
8
0-1
6
CONTINUOUS
62
  7
10
8293.970
20
1774.860
30
0.0
11
8293.540
21
1775.010
31
0.0
0
LINE
5
3ccd
8
0-1
6
CONTINUOUS
62
  7
10
8293.540
20
1775.010
30
0.0
11
8293.130
21
1775.160
31
0.0
0
LINE
5
3cce
8
0-1
6
CONTINUOUS
62
  7
10
8293.130
20
1775.160
30
0.0
11
8292.740
21
1775.320
31
0.0
0
LINE
5
3ccf
8
0-1
6
CONTINUOUS
62
  7
10
8292.740
20
1775.320
30
0.0
11
8292.380
21
1775.490
31
0.0
0
LINE
5
3cd0
8
0-1
6
CONTINUOUS
62
  7
10
8292.380
20
1775.490
30
0.0
11
8292.050
21
1775.660
31
0.0
0
LINE
5
3cd1
8
0-1
6
CONTINUOUS
62
  7
10
8292.050
20
1775.660
30
0.0
11
8291.750
21
1775.850
31
0.0
0
LINE
5
3cd2
8
0-1
6
CONTINUOUS
62
  7
10
8291.750
20
1775.850
30
0.0
11
8291.490
21
1776.030
31
0.0
0
LINE
5
3cd3
8
0-1
6
CONTINUOUS
62
  7
10
8326.490
20
1915.030
30
0.0
11
8326.490
21
1776.030
31
0.0
0
LINE
5
3cd4
8
0-1
6
CONTINUOUS
62
  7
10
8319.490
20
1774.030
30
0.0
11
8297.490
21
1774.030
31
0.0
0
LINE
5
3cd5
8
0-1
6
CONTINUOUS
62
  7
10
8319.490
20
1906.030
30
0.0
11
8319.490
21
1774.030
31
0.0
0
LINE
5
3cd6
8
0-1
6
CONTINUOUS
62
  7
10
8319.490
20
1906.030
30
0.0
11
8195.490
21
1906.030
31
0.0
0
LINE
5
3cd7
8
0-1
6
CONTINUOUS
62
  7
10
8195.490
20
1906.030
30
0.0
11
8195.490
21
1877.030
31
0.0
0
LINE
5
3cd8
8
0-1
6
CONTINUOUS
62
  7
10
8326.490
20
1915.030
30
0.0
11
8198.490
21
1915.030
31
0.0
0
LINE
5
3cd9
8
0-1
6
CONTINUOUS
62
  7
10
8198.490
20
1915.030
30
0.0
11
8195.490
21
1906.030
31
0.0
0
LINE
5
3cda
8
0-1
6
CONTINUOUS
62
  7
10
8291.490
20
1776.030
30
0.0
11
8195.490
21
1877.030
31
0.0
0
LINE
5
3cdb
8
0-1
6
CONTINUOUS
62
  7
10
8195.490
20
1997.680
30
0.0
11
8311.490
21
1997.680
31
0.0
0
LINE
5
3cdc
8
0-1
6
CONTINUOUS
62
  7
10
8195.490
20
2013.680
30
0.0
11
8195.490
21
1997.680
31
0.0
0
LINE
5
3cdd
8
0-1
6
CONTINUOUS
62
  7
10
8326.490
20
2008.680
30
0.0
11
8326.490
21
1881.680
31
0.0
0
LINE
5
3cde
8
0-1
6
CONTINUOUS
62
  7
10
8290.490
20
2011.070
30
0.0
11
8300.490
21
2011.070
31
0.0
0
LINE
5
3cdf
8
0-1
6
CONTINUOUS
62
  7
10
8290.490
20
2013.680
30
0.0
11
8290.490
21
2011.070
31
0.0
0
LINE
5
3ce0
8
0-1
6
CONTINUOUS
62
  7
10
8300.490
20
2013.680
30
0.0
11
8300.490
21
2011.070
31
0.0
0
LINE
5
3ce1
8
0-1
6
CONTINUOUS
62
  7
10
8321.490
20
2013.680
30
0.0
11
8300.490
21
2013.680
31
0.0
0
LINE
5
3ce2
8
0-1
6
CONTINUOUS
62
  7
10
8290.490
20
2013.680
30
0.0
11
8195.490
21
2013.680
31
0.0
0
LINE
5
3ce3
8
0-1
6
CONTINUOUS
62
  7
10
8311.490
20
1997.680
30
0.0
11
8326.490
21
1915.030
31
0.0
0
LINE
5
3ce4
8
0-1
6
CONTINUOUS
62
  7
10
8195.490
20
2118.480
30
0.0
11
8311.490
21
2118.480
31
0.0
0
LINE
5
3ce5
8
0-1
6
CONTINUOUS
62
  7
10
8195.490
20
2134.480
30
0.0
11
8195.490
21
2118.480
31
0.0
0
LINE
5
3ce6
8
0-1
6
CONTINUOUS
62
  7
10
8290.490
20
2131.870
30
0.0
11
8300.490
21
2131.870
31
0.0
0
LINE
5
3ce7
8
0-1
6
CONTINUOUS
62
  7
10
8290.490
20
2134.480
30
0.0
11
8290.490
21
2131.870
31
0.0
0
LINE
5
3ce8
8
0-1
6
CONTINUOUS
62
  7
10
8300.490
20
2134.480
30
0.0
11
8300.490
21
2131.870
31
0.0
0
LINE
5
3ce9
8
0-1
6
CONTINUOUS
62
  7
10
8321.490
20
2134.480
30
0.0
11
8300.490
21
2134.480
31
0.0
0
LINE
5
3cea
8
0-1
6
CONTINUOUS
62
  7
10
8290.490
20
2134.480
30
0.0
11
8195.490
21
2134.480
31
0.0
0
LINE
5
3ceb
8
0-1
6
CONTINUOUS
62
  7
10
8326.490
20
2129.480
30
0.0
11
8326.490
21
2013.680
31
0.0
0
LINE
5
3cec
8
0-1
6
CONTINUOUS
62
  7
10
8311.490
20
2118.480
30
0.0
11
8326.490
21
2008.680
31
0.0
0
LINE
5
3ced
8
0-1
6
CONTINUOUS
62
  7
10
8326.490
20
2013.680
30
0.0
11
8326.490
21
2008.680
31
0.0
0
LINE
5
3cee
8
0-1
6
CONTINUOUS
62
  7
10
8195.490
20
2233.960
30
0.0
11
8311.490
21
2233.960
31
0.0
0
LINE
5
3cef
8
0-1
6
CONTINUOUS
62
  7
10
8195.490
20
2249.960
30
0.0
11
8195.490
21
2233.960
31
0.0
0
LINE
5
3cf0
8
0-1
6
CONTINUOUS
62
  7
10
8290.490
20
2247.350
30
0.0
11
8300.490
21
2247.350
31
0.0
0
LINE
5
3cf1
8
0-1
6
CONTINUOUS
62
  7
10
8290.490
20
2249.960
30
0.0
11
8290.490
21
2247.350
31
0.0
0
LINE
5
3cf2
8
0-1
6
CONTINUOUS
62
  7
10
8300.490
20
2249.960
30
0.0
11
8300.490
21
2247.350
31
0.0
0
LINE
5
3cf3
8
0-1
6
CONTINUOUS
62
  7
10
8321.490
20
2249.960
30
0.0
11
8300.490
21
2249.960
31
0.0
0
LINE
5
3cf4
8
0-1
6
CONTINUOUS
62
  7
10
8290.490
20
2249.960
30
0.0
11
8195.490
21
2249.960
31
0.0
0
LINE
5
3cf5
8
0-1
6
CONTINUOUS
62
  7
10
8195.490
20
2349.450
30
0.0
11
8311.490
21
2349.450
31
0.0
0
LINE
5
3cf6
8
0-1
6
CONTINUOUS
62
  7
10
8195.490
20
2365.450
30
0.0
11
8195.490
21
2349.450
31
0.0
0
LINE
5
3cf7
8
0-1
6
CONTINUOUS
62
  7
10
8290.490
20
2362.830
30
0.0
11
8300.490
21
2362.830
31
0.0
0
LINE
5
3cf8
8
0-1
6
CONTINUOUS
62
  7
10
8290.490
20
2365.450
30
0.0
11
8290.490
21
2362.830
31
0.0
0
LINE
5
3cf9
8
0-1
6
CONTINUOUS
62
  7
10
8300.490
20
2365.450
30
0.0
11
8300.490
21
2362.830
31
0.0
0
LINE
5
3cfa
8
0-1
6
CONTINUOUS
62
  7
10
8321.490
20
2365.450
30
0.0
11
8300.490
21
2365.450
31
0.0
0
LINE
5
3cfb
8
0-1
6
CONTINUOUS
62
  7
10
8290.490
20
2365.450
30
0.0
11
8195.490
21
2365.450
31
0.0
0
LINE
5
3cfc
8
0-1
6
CONTINUOUS
62
  7
10
8195.490
20
2464.930
30
0.0
11
8311.490
21
2464.930
31
0.0
0
LINE
5
3cfd
8
0-1
6
CONTINUOUS
62
  7
10
8195.490
20
2480.930
30
0.0
11
8195.490
21
2464.930
31
0.0
0
LINE
5
3cfe
8
0-1
6
CONTINUOUS
62
  7
10
8290.490
20
2478.320
30
0.0
11
8300.490
21
2478.320
31
0.0
0
LINE
5
3cff
8
0-1
6
CONTINUOUS
62
  7
10
8290.490
20
2480.930
30
0.0
11
8290.490
21
2478.320
31
0.0
0
LINE
5
3d00
8
0-1
6
CONTINUOUS
62
  7
10
8300.490
20
2480.930
30
0.0
11
8300.490
21
2478.320
31
0.0
0
LINE
5
3d01
8
0-1
6
CONTINUOUS
62
  7
10
8321.490
20
2480.930
30
0.0
11
8300.490
21
2480.930
31
0.0
0
LINE
5
3d02
8
0-1
6
CONTINUOUS
62
  7
10
8290.490
20
2480.930
30
0.0
11
8195.490
21
2480.930
31
0.0
0
LINE
5
3d03
8
0-1
6
CONTINUOUS
62
  7
10
8195.490
20
2580.420
30
0.0
11
8311.490
21
2580.420
31
0.0
0
LINE
5
3d04
8
0-1
6
CONTINUOUS
62
  7
10
8195.490
20
2596.420
30
0.0
11
8195.490
21
2580.420
31
0.0
0
LINE
5
3d05
8
0-1
6
CONTINUOUS
62
  7
10
8290.490
20
2593.800
30
0.0
11
8300.490
21
2593.800
31
0.0
0
LINE
5
3d06
8
0-1
6
CONTINUOUS
62
  7
10
8290.490
20
2596.420
30
0.0
11
8290.490
21
2593.800
31
0.0
0
LINE
5
3d07
8
0-1
6
CONTINUOUS
62
  7
10
8300.490
20
2596.420
30
0.0
11
8300.490
21
2593.800
31
0.0
0
LINE
5
3d08
8
0-1
6
CONTINUOUS
62
  7
10
8321.490
20
2596.420
30
0.0
11
8300.490
21
2596.420
31
0.0
0
LINE
5
3d09
8
0-1
6
CONTINUOUS
62
  7
10
8290.490
20
2596.420
30
0.0
11
8195.490
21
2596.420
31
0.0
0
LINE
5
3d0a
8
0-1
6
CONTINUOUS
62
  7
10
8195.490
20
2695.900
30
0.0
11
8311.490
21
2695.900
31
0.0
0
LINE
5
3d0b
8
0-1
6
CONTINUOUS
62
  7
10
8195.490
20
2711.900
30
0.0
11
8195.490
21
2695.900
31
0.0
0
LINE
5
3d0c
8
0-1
6
CONTINUOUS
62
  7
10
8290.490
20
2709.290
30
0.0
11
8300.490
21
2709.290
31
0.0
0
LINE
5
3d0d
8
0-1
6
CONTINUOUS
62
  7
10
8290.490
20
2711.900
30
0.0
11
8290.490
21
2709.290
31
0.0
0
LINE
5
3d0e
8
0-1
6
CONTINUOUS
62
  7
10
8300.490
20
2711.900
30
0.0
11
8300.490
21
2709.290
31
0.0
0
LINE
5
3d0f
8
0-1
6
CONTINUOUS
62
  7
10
8321.490
20
2711.900
30
0.0
11
8300.490
21
2711.900
31
0.0
0
LINE
5
3d10
8
0-1
6
CONTINUOUS
62
  7
10
8290.490
20
2711.900
30
0.0
11
8195.490
21
2711.900
31
0.0
0
LINE
5
3d11
8
0-1
6
CONTINUOUS
62
  7
10
8195.490
20
2811.380
30
0.0
11
8311.490
21
2811.380
31
0.0
0
LINE
5
3d12
8
0-1
6
CONTINUOUS
62
  7
10
8195.490
20
2827.380
30
0.0
11
8195.490
21
2811.380
31
0.0
0
LINE
5
3d13
8
0-1
6
CONTINUOUS
62
  7
10
8290.490
20
2824.770
30
0.0
11
8300.490
21
2824.770
31
0.0
0
LINE
5
3d14
8
0-1
6
CONTINUOUS
62
  7
10
8290.490
20
2827.380
30
0.0
11
8290.490
21
2824.770
31
0.0
0
LINE
5
3d15
8
0-1
6
CONTINUOUS
62
  7
10
8300.490
20
2827.380
30
0.0
11
8300.490
21
2824.770
31
0.0
0
LINE
5
3d16
8
0-1
6
CONTINUOUS
62
  7
10
8321.490
20
2827.380
30
0.0
11
8300.490
21
2827.380
31
0.0
0
LINE
5
3d17
8
0-1
6
CONTINUOUS
62
  7
10
8290.490
20
2827.380
30
0.0
11
8195.490
21
2827.380
31
0.0
0
LINE
5
3d18
8
0-1
6
CONTINUOUS
62
  7
10
8195.490
20
2926.870
30
0.0
11
8311.490
21
2926.870
31
0.0
0
LINE
5
3d19
8
0-1
6
CONTINUOUS
62
  7
10
8195.490
20
2942.870
30
0.0
11
8195.490
21
2926.870
31
0.0
0
LINE
5
3d1a
8
0-1
6
CONTINUOUS
62
  7
10
8290.490
20
2940.250
30
0.0
11
8300.490
21
2940.250
31
0.0
0
LINE
5
3d1b
8
0-1
6
CONTINUOUS
62
  7
10
8290.490
20
2942.870
30
0.0
11
8290.490
21
2940.250
31
0.0
0
LINE
5
3d1c
8
0-1
6
CONTINUOUS
62
  7
10
8300.490
20
2942.870
30
0.0
11
8300.490
21
2940.250
31
0.0
0
LINE
5
3d1d
8
0-1
6
CONTINUOUS
62
  7
10
8321.490
20
2942.870
30
0.0
11
8300.490
21
2942.870
31
0.0
0
LINE
5
3d1e
8
0-1
6
CONTINUOUS
62
  7
10
8290.490
20
2942.870
30
0.0
11
8195.490
21
2942.870
31
0.0
0
LINE
5
3d1f
8
0-1
6
CONTINUOUS
62
  7
10
8195.490
20
3042.350
30
0.0
11
8311.490
21
3042.350
31
0.0
0
LINE
5
3d20
8
0-1
6
CONTINUOUS
62
  7
10
8195.490
20
3058.350
30
0.0
11
8195.490
21
3042.350
31
0.0
0
LINE
5
3d21
8
0-1
6
CONTINUOUS
62
  7
10
8290.490
20
3055.740
30
0.0
11
8300.490
21
3055.740
31
0.0
0
LINE
5
3d22
8
0-1
6
CONTINUOUS
62
  7
10
8290.490
20
3058.350
30
0.0
11
8290.490
21
3055.740
31
0.0
0
LINE
5
3d23
8
0-1
6
CONTINUOUS
62
  7
10
8300.490
20
3058.350
30
0.0
11
8300.490
21
3055.740
31
0.0
0
LINE
5
3d24
8
0-1
6
CONTINUOUS
62
  7
10
8321.490
20
3058.350
30
0.0
11
8300.490
21
3058.350
31
0.0
0
LINE
5
3d25
8
0-1
6
CONTINUOUS
62
  7
10
8290.490
20
3058.350
30
0.0
11
8195.490
21
3058.350
31
0.0
0
LINE
5
3d26
8
0-1
6
CONTINUOUS
62
  7
10
8195.490
20
3157.830
30
0.0
11
8311.490
21
3157.830
31
0.0
0
LINE
5
3d27
8
0-1
6
CONTINUOUS
62
  7
10
8195.490
20
3173.830
30
0.0
11
8195.490
21
3157.830
31
0.0
0
LINE
5
3d28
8
0-1
6
CONTINUOUS
62
  7
10
8290.490
20
3171.220
30
0.0
11
8300.490
21
3171.220
31
0.0
0
LINE
5
3d29
8
0-1
6
CONTINUOUS
62
  7
10
8290.490
20
3173.830
30
0.0
11
8290.490
21
3171.220
31
0.0
0
LINE
5
3d2a
8
0-1
6
CONTINUOUS
62
  7
10
8300.490
20
3173.830
30
0.0
11
8300.490
21
3171.220
31
0.0
0
LINE
5
3d2b
8
0-1
6
CONTINUOUS
62
  7
10
8321.490
20
3173.830
30
0.0
11
8300.490
21
3173.830
31
0.0
0
LINE
5
3d2c
8
0-1
6
CONTINUOUS
62
  7
10
8290.490
20
3173.830
30
0.0
11
8195.490
21
3173.830
31
0.0
0
LINE
5
3d2d
8
0-1
6
CONTINUOUS
62
  7
10
8195.490
20
3273.320
30
0.0
11
8311.490
21
3273.320
31
0.0
0
LINE
5
3d2e
8
0-1
6
CONTINUOUS
62
  7
10
8195.490
20
3289.320
30
0.0
11
8195.490
21
3273.320
31
0.0
0
LINE
5
3d2f
8
0-1
6
CONTINUOUS
62
  7
10
8290.490
20
3286.700
30
0.0
11
8300.490
21
3286.700
31
0.0
0
LINE
5
3d30
8
0-1
6
CONTINUOUS
62
  7
10
8290.490
20
3289.320
30
0.0
11
8290.490
21
3286.700
31
0.0
0
LINE
5
3d31
8
0-1
6
CONTINUOUS
62
  7
10
8300.490
20
3289.320
30
0.0
11
8300.490
21
3286.700
31
0.0
0
LINE
5
3d32
8
0-1
6
CONTINUOUS
62
  7
10
8321.490
20
3289.320
30
0.0
11
8300.490
21
3289.320
31
0.0
0
LINE
5
3d33
8
0-1
6
CONTINUOUS
62
  7
10
8290.490
20
3289.320
30
0.0
11
8195.490
21
3289.320
31
0.0
0
LINE
5
3d34
8
0-1
6
CONTINUOUS
62
  7
10
8195.490
20
3388.800
30
0.0
11
8311.490
21
3388.800
31
0.0
0
LINE
5
3d35
8
0-1
6
CONTINUOUS
62
  7
10
8195.490
20
3404.800
30
0.0
11
8195.490
21
3388.800
31
0.0
0
LINE
5
3d36
8
0-1
6
CONTINUOUS
62
  7
10
8290.490
20
3402.190
30
0.0
11
8300.490
21
3402.190
31
0.0
0
LINE
5
3d37
8
0-1
6
CONTINUOUS
62
  7
10
8290.490
20
3404.800
30
0.0
11
8290.490
21
3402.190
31
0.0
0
LINE
5
3d38
8
0-1
6
CONTINUOUS
62
  7
10
8300.490
20
3404.800
30
0.0
11
8300.490
21
3402.190
31
0.0
0
LINE
5
3d39
8
0-1
6
CONTINUOUS
62
  7
10
8321.490
20
3404.800
30
0.0
11
8300.490
21
3404.800
31
0.0
0
LINE
5
3d3a
8
0-1
6
CONTINUOUS
62
  7
10
8290.490
20
3404.800
30
0.0
11
8195.490
21
3404.800
31
0.0
0
LINE
5
3d3b
8
0-1
6
CONTINUOUS
62
  7
10
8326.490
20
3404.800
30
0.0
11
8326.490
21
2129.480
31
0.0
0
LINE
5
3d3c
8
0-1
6
CONTINUOUS
62
  7
10
8311.490
20
2233.960
30
0.0
11
8326.490
21
2129.480
31
0.0
0
LINE
5
3d3d
8
0-1
6
CONTINUOUS
62
  7
10
8311.490
20
2349.450
30
0.0
11
8326.490
21
2244.960
31
0.0
0
LINE
5
3d3e
8
0-1
6
CONTINUOUS
62
  7
10
8311.490
20
2464.930
30
0.0
11
8326.490
21
2360.450
31
0.0
0
LINE
5
3d3f
8
0-1
6
CONTINUOUS
62
  7
10
8311.490
20
2580.420
30
0.0
11
8326.490
21
2475.930
31
0.0
0
LINE
5
3d40
8
0-1
6
CONTINUOUS
62
  7
10
8311.490
20
2695.900
30
0.0
11
8326.490
21
2596.420
31
0.0
0
LINE
5
3d41
8
0-1
6
CONTINUOUS
62
  7
10
8311.490
20
2811.380
30
0.0
11
8326.490
21
2706.900
31
0.0
0
LINE
5
3d42
8
0-1
6
CONTINUOUS
62
  7
10
8311.490
20
2926.870
30
0.0
11
8326.490
21
2822.380
31
0.0
0
LINE
5
3d43
8
0-1
6
CONTINUOUS
62
  7
10
8311.490
20
3042.350
30
0.0
11
8326.490
21
2937.870
31
0.0
0
LINE
5
3d44
8
0-1
6
CONTINUOUS
62
  7
10
8311.490
20
3157.830
30
0.0
11
8326.490
21
3053.350
31
0.0
0
LINE
5
3d45
8
0-1
6
CONTINUOUS
62
  7
10
8311.490
20
3273.320
30
0.0
11
8326.490
21
3168.830
31
0.0
0
LINE
5
3d46
8
0-1
6
CONTINUOUS
62
  7
10
8311.490
20
3388.800
30
0.0
11
8326.490
21
3284.320
31
0.0
0
LINE
5
3d47
8
0-1
6
CONTINUOUS
62
  7
10
8195.490
20
1907.030
30
0.0
11
8195.490
21
1877.030
31
0.0
0
LINE
5
3d48
8
0-1
6
CONTINUOUS
62
  7
10
8072.490
20
1909.030
30
0.0
11
8012.490
21
1909.030
31
0.0
0
LINE
5
3d49
8
0-1
6
CONTINUOUS
62
  7
10
8072.490
20
1909.030
30
0.0
11
8072.490
21
1907.030
31
0.0
0
LINE
5
3d4a
8
0-1
6
CONTINUOUS
62
  7
10
8012.490
20
1909.030
30
0.0
11
8012.490
21
1907.030
31
0.0
0
LINE
5
3d4b
8
ADD_LINE
6
HIDDEN
62
  3
10
4217.490
20
1997.680
30
0.0
11
4433.770
21
1997.680
31
0.0
0
LINE
5
3d4c
8
0-1
6
CONTINUOUS
62
  7
10
4370.490
20
1997.680
30
0.0
11
4676.490
21
1997.680
31
0.0
0
LINE
5
3d4d
8
0-1
6
CONTINUOUS
62
  7
10
4493.490
20
1999.680
30
0.0
11
4553.490
21
1999.680
31
0.0
0
LINE
5
3d4e
8
0-1
6
CONTINUOUS
62
  7
10
4493.490
20
1999.680
30
0.0
11
4493.490
21
1997.680
31
0.0
0
LINE
5
3d4f
8
0-1
6
CONTINUOUS
62
  7
10
4553.490
20
1999.680
30
0.0
11
4553.490
21
1997.680
31
0.0
0
LINE
5
3d50
8
0-1
6
CONTINUOUS
62
  7
10
4676.490
20
1997.680
30
0.0
11
4982.490
21
1997.680
31
0.0
0
LINE
5
3d51
8
0-1
6
CONTINUOUS
62
  7
10
4676.490
20
1967.680
30
0.0
11
4982.490
21
1967.680
31
0.0
0
LINE
5
3d52
8
0-1
6
CONTINUOUS
62
  7
10
4799.490
20
1999.680
30
0.0
11
4859.490
21
1999.680
31
0.0
0
LINE
5
3d53
8
0-1
6
CONTINUOUS
62
  7
10
4799.490
20
1999.680
30
0.0
11
4799.490
21
1997.680
31
0.0
0
LINE
5
3d54
8
0-1
6
CONTINUOUS
62
  7
10
4859.490
20
1999.680
30
0.0
11
4859.490
21
1997.680
31
0.0
0
LINE
5
3d55
8
0-1
6
CONTINUOUS
62
  7
10
4676.490
20
1997.680
30
0.0
11
4676.490
21
1967.680
31
0.0
0
LINE
5
3d56
8
0-1
6
CONTINUOUS
62
  7
10
4982.490
20
1997.680
30
0.0
11
5288.490
21
1997.680
31
0.0
0
LINE
5
3d57
8
0-1
6
CONTINUOUS
62
  7
10
4982.490
20
1967.680
30
0.0
11
5288.490
21
1967.680
31
0.0
0
LINE
5
3d58
8
0-1
6
CONTINUOUS
62
  7
10
5105.490
20
1999.680
30
0.0
11
5165.490
21
1999.680
31
0.0
0
LINE
5
3d59
8
0-1
6
CONTINUOUS
62
  7
10
5105.490
20
1999.680
30
0.0
11
5105.490
21
1997.680
31
0.0
0
LINE
5
3d5a
8
0-1
6
CONTINUOUS
62
  7
10
5165.490
20
1999.680
30
0.0
11
5165.490
21
1997.680
31
0.0
0
LINE
5
3d5b
8
0-1
6
CONTINUOUS
62
  7
10
4982.490
20
1997.680
30
0.0
11
4982.490
21
1967.680
31
0.0
0
LINE
5
3d5c
8
0-1
6
CONTINUOUS
62
  7
10
5288.490
20
1997.680
30
0.0
11
5594.490
21
1997.680
31
0.0
0
LINE
5
3d5d
8
0-1
6
CONTINUOUS
62
  7
10
5288.490
20
1967.680
30
0.0
11
5594.490
21
1967.680
31
0.0
0
LINE
5
3d5e
8
0-1
6
CONTINUOUS
62
  7
10
5411.490
20
1999.680
30
0.0
11
5471.490
21
1999.680
31
0.0
0
LINE
5
3d5f
8
0-1
6
CONTINUOUS
62
  7
10
5411.490
20
1999.680
30
0.0
11
5411.490
21
1997.680
31
0.0
0
LINE
5
3d60
8
0-1
6
CONTINUOUS
62
  7
10
5471.490
20
1999.680
30
0.0
11
5471.490
21
1997.680
31
0.0
0
LINE
5
3d61
8
0-1
6
CONTINUOUS
62
  7
10
5288.490
20
1997.680
30
0.0
11
5288.490
21
1967.680
31
0.0
0
LINE
5
3d62
8
0-1
6
CONTINUOUS
62
  7
10
5594.490
20
1997.680
30
0.0
11
5900.490
21
1997.680
31
0.0
0
LINE
5
3d63
8
0-1
6
CONTINUOUS
62
  7
10
5594.490
20
1967.680
30
0.0
11
5900.490
21
1967.680
31
0.0
0
LINE
5
3d64
8
0-1
6
CONTINUOUS
62
  7
10
5717.490
20
1999.680
30
0.0
11
5777.490
21
1999.680
31
0.0
0
LINE
5
3d65
8
0-1
6
CONTINUOUS
62
  7
10
5717.490
20
1999.680
30
0.0
11
5717.490
21
1997.680
31
0.0
0
LINE
5
3d66
8
0-1
6
CONTINUOUS
62
  7
10
5777.490
20
1999.680
30
0.0
11
5777.490
21
1997.680
31
0.0
0
LINE
5
3d67
8
0-1
6
CONTINUOUS
62
  7
10
5594.490
20
1997.680
30
0.0
11
5594.490
21
1967.680
31
0.0
0
LINE
5
3d68
8
0-1
6
CONTINUOUS
62
  7
10
5900.490
20
1997.680
30
0.0
11
6206.490
21
1997.680
31
0.0
0
LINE
5
3d69
8
0-1
6
CONTINUOUS
62
  7
10
5900.490
20
1967.680
30
0.0
11
6206.490
21
1967.680
31
0.0
0
LINE
5
3d6a
8
0-1
6
CONTINUOUS
62
  7
10
6023.490
20
1999.680
30
0.0
11
6083.490
21
1999.680
31
0.0
0
LINE
5
3d6b
8
0-1
6
CONTINUOUS
62
  7
10
6023.490
20
1999.680
30
0.0
11
6023.490
21
1997.680
31
0.0
0
LINE
5
3d6c
8
0-1
6
CONTINUOUS
62
  7
10
6083.490
20
1999.680
30
0.0
11
6083.490
21
1997.680
31
0.0
0
LINE
5
3d6d
8
0-1
6
CONTINUOUS
62
  7
10
5900.490
20
1997.680
30
0.0
11
5900.490
21
1967.680
31
0.0
0
LINE
5
3d6e
8
0-1
6
CONTINUOUS
62
  7
10
6206.490
20
1997.680
30
0.0
11
6512.490
21
1997.680
31
0.0
0
LINE
5
3d6f
8
0-1
6
CONTINUOUS
62
  7
10
6206.490
20
1967.680
30
0.0
11
6512.490
21
1967.680
31
0.0
0
LINE
5
3d70
8
0-1
6
CONTINUOUS
62
  7
10
6329.490
20
1999.680
30
0.0
11
6389.490
21
1999.680
31
0.0
0
LINE
5
3d71
8
0-1
6
CONTINUOUS
62
  7
10
6329.490
20
1999.680
30
0.0
11
6329.490
21
1997.680
31
0.0
0
LINE
5
3d72
8
0-1
6
CONTINUOUS
62
  7
10
6389.490
20
1999.680
30
0.0
11
6389.490
21
1997.680
31
0.0
0
LINE
5
3d73
8
0-1
6
CONTINUOUS
62
  7
10
6206.490
20
1997.680
30
0.0
11
6206.490
21
1967.680
31
0.0
0
LINE
5
3d74
8
0-1
6
CONTINUOUS
62
  7
10
6512.490
20
1997.680
30
0.0
11
6818.490
21
1997.680
31
0.0
0
LINE
5
3d75
8
0-1
6
CONTINUOUS
62
  7
10
6512.490
20
1967.680
30
0.0
11
6818.490
21
1967.680
31
0.0
0
LINE
5
3d76
8
0-1
6
CONTINUOUS
62
  7
10
6635.490
20
1999.680
30
0.0
11
6695.490
21
1999.680
31
0.0
0
LINE
5
3d77
8
0-1
6
CONTINUOUS
62
  7
10
6635.490
20
1999.680
30
0.0
11
6635.490
21
1997.680
31
0.0
0
LINE
5
3d78
8
0-1
6
CONTINUOUS
62
  7
10
6695.490
20
1999.680
30
0.0
11
6695.490
21
1997.680
31
0.0
0
LINE
5
3d79
8
0-1
6
CONTINUOUS
62
  7
10
6512.490
20
1997.680
30
0.0
11
6512.490
21
1967.680
31
0.0
0
LINE
5
3d7a
8
0-1
6
CONTINUOUS
62
  7
10
6818.490
20
1997.680
30
0.0
11
7124.490
21
1997.680
31
0.0
0
LINE
5
3d7b
8
0-1
6
CONTINUOUS
62
  7
10
6818.490
20
1967.680
30
0.0
11
7124.490
21
1967.680
31
0.0
0
LINE
5
3d7c
8
0-1
6
CONTINUOUS
62
  7
10
6941.490
20
1999.680
30
0.0
11
7001.490
21
1999.680
31
0.0
0
LINE
5
3d7d
8
0-1
6
CONTINUOUS
62
  7
10
6941.490
20
1999.680
30
0.0
11
6941.490
21
1997.680
31
0.0
0
LINE
5
3d7e
8
0-1
6
CONTINUOUS
62
  7
10
7001.490
20
1999.680
30
0.0
11
7001.490
21
1997.680
31
0.0
0
LINE
5
3d7f
8
0-1
6
CONTINUOUS
62
  7
10
6818.490
20
1997.680
30
0.0
11
6818.490
21
1967.680
31
0.0
0
LINE
5
3d80
8
0-1
6
CONTINUOUS
62
  7
10
7124.490
20
1997.680
30
0.0
11
7430.490
21
1997.680
31
0.0
0
LINE
5
3d81
8
0-1
6
CONTINUOUS
62
  7
10
7124.490
20
1967.680
30
0.0
11
7430.490
21
1967.680
31
0.0
0
LINE
5
3d82
8
0-1
6
CONTINUOUS
62
  7
10
7247.490
20
1999.680
30
0.0
11
7307.490
21
1999.680
31
0.0
0
LINE
5
3d83
8
0-1
6
CONTINUOUS
62
  7
10
7247.490
20
1999.680
30
0.0
11
7247.490
21
1997.680
31
0.0
0
LINE
5
3d84
8
0-1
6
CONTINUOUS
62
  7
10
7307.490
20
1999.680
30
0.0
11
7307.490
21
1997.680
31
0.0
0
LINE
5
3d85
8
0-1
6
CONTINUOUS
62
  7
10
7124.490
20
1997.680
30
0.0
11
7124.490
21
1967.680
31
0.0
0
LINE
5
3d86
8
0-1
6
CONTINUOUS
62
  7
10
7430.490
20
1997.680
30
0.0
11
7736.490
21
1997.680
31
0.0
0
LINE
5
3d87
8
0-1
6
CONTINUOUS
62
  7
10
7430.490
20
1967.680
30
0.0
11
7736.490
21
1967.680
31
0.0
0
LINE
5
3d88
8
0-1
6
CONTINUOUS
62
  7
10
7553.490
20
1999.680
30
0.0
11
7613.490
21
1999.680
31
0.0
0
LINE
5
3d89
8
0-1
6
CONTINUOUS
62
  7
10
7553.490
20
1999.680
30
0.0
11
7553.490
21
1997.680
31
0.0
0
LINE
5
3d8a
8
0-1
6
CONTINUOUS
62
  7
10
7613.490
20
1999.680
30
0.0
11
7613.490
21
1997.680
31
0.0
0
LINE
5
3d8b
8
0-1
6
CONTINUOUS
62
  7
10
7430.490
20
1997.680
30
0.0
11
7430.490
21
1967.680
31
0.0
0
LINE
5
3d8c
8
0-1
6
CONTINUOUS
62
  7
10
7736.490
20
1997.680
30
0.0
11
8042.490
21
1997.680
31
0.0
0
LINE
5
3d8d
8
0-1
6
CONTINUOUS
62
  7
10
7736.490
20
1967.680
30
0.0
11
8042.490
21
1967.680
31
0.0
0
LINE
5
3d8e
8
0-1
6
CONTINUOUS
62
  7
10
7859.490
20
1999.680
30
0.0
11
7919.490
21
1999.680
31
0.0
0
LINE
5
3d8f
8
0-1
6
CONTINUOUS
62
  7
10
7859.490
20
1999.680
30
0.0
11
7859.490
21
1997.680
31
0.0
0
LINE
5
3d90
8
0-1
6
CONTINUOUS
62
  7
10
7919.490
20
1999.680
30
0.0
11
7919.490
21
1997.680
31
0.0
0
LINE
5
3d91
8
0-1
6
CONTINUOUS
62
  7
10
7736.490
20
1997.680
30
0.0
11
7736.490
21
1967.680
31
0.0
0
LINE
5
3d92
8
0-1
6
CONTINUOUS
62
  7
10
8165.490
20
1999.680
30
0.0
11
8165.490
21
1997.680
31
0.0
0
LINE
5
3d93
8
0-1
6
CONTINUOUS
62
  7
10
8042.490
20
1997.680
30
0.0
11
8042.490
21
1967.680
31
0.0
0
LINE
5
3d94
8
0-1
6
CONTINUOUS
62
  7
10
8042.490
20
1967.680
30
0.0
11
8195.490
21
1967.680
31
0.0
0
LINE
5
3d95
8
0-2
6
CONTINUOUS
62
  7
10
8042.490
20
1997.680
30
0.0
11
8195.490
21
1997.680
31
0.0
0
LINE
5
3d96
8
0-1
6
CONTINUOUS
62
  7
10
8165.490
20
1999.680
30
0.0
11
8195.490
21
1999.680
31
0.0
0
LINE
5
3d97
8
0-1
6
CONTINUOUS
62
  7
10
4370.490
20
1997.680
30
0.0
11
4370.490
21
1967.680
31
0.0
0
LINE
5
3d98
8
0-1
6
CONTINUOUS
62
  7
10
4247.490
20
1999.680
30
0.0
11
4247.490
21
1997.680
31
0.0
0
LINE
5
3d99
8
0-1
6
CONTINUOUS
62
  7
10
4370.490
20
1997.680
30
0.0
11
4370.490
21
1967.680
31
0.0
0
LINE
5
3d9a
8
0-1
6
CONTINUOUS
62
  7
10
4217.490
20
1997.680
30
0.0
11
4370.490
21
1997.680
31
0.0
0
LINE
5
3d9b
8
0-1
6
CONTINUOUS
62
  7
10
4217.490
20
1999.680
30
0.0
11
4247.490
21
1999.680
31
0.0
0
LINE
5
3d9c
8
0-1
6
CONTINUOUS
62
  7
10
4217.490
20
1967.680
30
0.0
11
4370.490
21
1967.680
31
0.0
0
LINE
5
3d9d
8
0-2
6
CONTINUOUS
62
  7
10
4101.490
20
1997.680
30
0.0
11
4217.490
21
1997.680
31
0.0
0
LINE
5
3d9e
8
0-1
6
CONTINUOUS
62
  7
10
4370.490
20
1967.680
30
0.0
11
4676.490
21
1967.680
31
0.0
0
LINE
5
3d9f
8
0-1
6
CONTINUOUS
62
  7
10
4523.490
20
1967.680
30
0.0
11
4523.490
21
1877.030
31
0.0
0
LINE
5
3da0
8
0-1
6
CONTINUOUS
62
  7
10
4829.490
20
1967.680
30
0.0
11
4829.490
21
1877.030
31
0.0
0
LINE
5
3da1
8
0-1
6
CONTINUOUS
62
  7
10
5135.490
20
1967.680
30
0.0
11
5135.490
21
1877.030
31
0.0
0
LINE
5
3da2
8
0-1
6
CONTINUOUS
62
  7
10
5441.490
20
1967.680
30
0.0
11
5441.490
21
1877.030
31
0.0
0
LINE
5
3da3
8
0-1
6
CONTINUOUS
62
  7
10
5747.490
20
1967.680
30
0.0
11
5747.490
21
1877.030
31
0.0
0
LINE
5
3da4
8
0-1
6
CONTINUOUS
62
  7
10
6053.490
20
1967.680
30
0.0
11
6053.490
21
1877.030
31
0.0
0
LINE
5
3da5
8
0-1
6
CONTINUOUS
62
  7
10
6359.490
20
1967.680
30
0.0
11
6359.490
21
1877.030
31
0.0
0
LINE
5
3da6
8
0-1
6
CONTINUOUS
62
  7
10
6665.490
20
1967.680
30
0.0
11
6665.490
21
1877.030
31
0.0
0
LINE
5
3da7
8
0-1
6
CONTINUOUS
62
  7
10
6971.490
20
1967.680
30
0.0
11
6971.490
21
1877.030
31
0.0
0
LINE
5
3da8
8
0-1
6
CONTINUOUS
62
  7
10
7277.490
20
1967.680
30
0.0
11
7277.490
21
1877.030
31
0.0
0
LINE
5
3da9
8
0-1
6
CONTINUOUS
62
  7
10
7583.490
20
1967.680
30
0.0
11
7583.490
21
1877.030
31
0.0
0
LINE
5
3daa
8
0-1
6
CONTINUOUS
62
  7
10
7889.490
20
1967.680
30
0.0
11
7889.490
21
1877.030
31
0.0
0
LINE
5
3dab
8
0-1
6
CONTINUOUS
62
  7
10
4217.490
20
2118.480
30
0.0
11
4217.490
21
2089.480
31
0.0
0
LINE
5
3dac
8
0-1
6
CONTINUOUS
62
  7
10
4217.490
20
2119.480
30
0.0
11
4523.490
21
2119.480
31
0.0
0
LINE
5
3dad
8
0-1
6
CONTINUOUS
62
  7
10
4217.490
20
2089.480
30
0.0
11
4523.490
21
2089.480
31
0.0
0
LINE
5
3dae
8
0-1
6
CONTINUOUS
62
  7
10
4217.490
20
2119.480
30
0.0
11
4217.490
21
2089.480
31
0.0
0
LINE
5
3daf
8
0-1
6
CONTINUOUS
62
  7
10
4340.490
20
2121.480
30
0.0
11
4400.490
21
2121.480
31
0.0
0
LINE
5
3db0
8
0-1
6
CONTINUOUS
62
  7
10
4340.490
20
2121.480
30
0.0
11
4340.490
21
2119.480
31
0.0
0
LINE
5
3db1
8
0-1
6
CONTINUOUS
62
  7
10
4400.490
20
2121.480
30
0.0
11
4400.490
21
2119.480
31
0.0
0
LINE
5
3db2
8
0-1
6
CONTINUOUS
62
  7
10
4523.490
20
2119.480
30
0.0
11
4829.490
21
2119.480
31
0.0
0
LINE
5
3db3
8
0-1
6
CONTINUOUS
62
  7
10
4523.490
20
2089.480
30
0.0
11
4829.490
21
2089.480
31
0.0
0
LINE
5
3db4
8
0-1
6
CONTINUOUS
62
  7
10
4646.490
20
2121.480
30
0.0
11
4706.490
21
2121.480
31
0.0
0
LINE
5
3db5
8
0-1
6
CONTINUOUS
62
  7
10
4646.490
20
2121.480
30
0.0
11
4646.490
21
2119.480
31
0.0
0
LINE
5
3db6
8
0-1
6
CONTINUOUS
62
  7
10
4706.490
20
2121.480
30
0.0
11
4706.490
21
2119.480
31
0.0
0
LINE
5
3db7
8
0-1
6
CONTINUOUS
62
  7
10
4523.490
20
2119.480
30
0.0
11
4523.490
21
2089.480
31
0.0
0
LINE
5
3db8
8
0-1
6
CONTINUOUS
62
  7
10
4829.490
20
2119.480
30
0.0
11
5135.490
21
2119.480
31
0.0
0
LINE
5
3db9
8
0-1
6
CONTINUOUS
62
  7
10
4829.490
20
2089.480
30
0.0
11
5135.490
21
2089.480
31
0.0
0
LINE
5
3dba
8
0-1
6
CONTINUOUS
62
  7
10
4952.490
20
2121.480
30
0.0
11
5012.490
21
2121.480
31
0.0
0
LINE
5
3dbb
8
0-1
6
CONTINUOUS
62
  7
10
4952.490
20
2121.480
30
0.0
11
4952.490
21
2119.480
31
0.0
0
LINE
5
3dbc
8
0-1
6
CONTINUOUS
62
  7
10
5012.490
20
2121.480
30
0.0
11
5012.490
21
2119.480
31
0.0
0
LINE
5
3dbd
8
0-1
6
CONTINUOUS
62
  7
10
4829.490
20
2119.480
30
0.0
11
4829.490
21
2089.480
31
0.0
0
LINE
5
3dbe
8
0-1
6
CONTINUOUS
62
  7
10
5135.490
20
2119.480
30
0.0
11
5441.490
21
2119.480
31
0.0
0
LINE
5
3dbf
8
0-1
6
CONTINUOUS
62
  7
10
5135.490
20
2089.480
30
0.0
11
5441.490
21
2089.480
31
0.0
0
LINE
5
3dc0
8
0-1
6
CONTINUOUS
62
  7
10
5258.490
20
2121.480
30
0.0
11
5318.490
21
2121.480
31
0.0
0
LINE
5
3dc1
8
0-1
6
CONTINUOUS
62
  7
10
5258.490
20
2121.480
30
0.0
11
5258.490
21
2119.480
31
0.0
0
LINE
5
3dc2
8
0-1
6
CONTINUOUS
62
  7
10
5318.490
20
2121.480
30
0.0
11
5318.490
21
2119.480
31
0.0
0
LINE
5
3dc3
8
0-1
6
CONTINUOUS
62
  7
10
5135.490
20
2119.480
30
0.0
11
5135.490
21
2089.480
31
0.0
0
LINE
5
3dc4
8
0-1
6
CONTINUOUS
62
  7
10
5441.490
20
2119.480
30
0.0
11
5747.490
21
2119.480
31
0.0
0
LINE
5
3dc5
8
0-1
6
CONTINUOUS
62
  7
10
5441.490
20
2089.480
30
0.0
11
5747.490
21
2089.480
31
0.0
0
LINE
5
3dc6
8
0-1
6
CONTINUOUS
62
  7
10
5564.490
20
2121.480
30
0.0
11
5624.490
21
2121.480
31
0.0
0
LINE
5
3dc7
8
0-1
6
CONTINUOUS
62
  7
10
5564.490
20
2121.480
30
0.0
11
5564.490
21
2119.480
31
0.0
0
LINE
5
3dc8
8
0-1
6
CONTINUOUS
62
  7
10
5624.490
20
2121.480
30
0.0
11
5624.490
21
2119.480
31
0.0
0
LINE
5
3dc9
8
0-1
6
CONTINUOUS
62
  7
10
5441.490
20
2119.480
30
0.0
11
5441.490
21
2089.480
31
0.0
0
LINE
5
3dca
8
0-1
6
CONTINUOUS
62
  7
10
5747.490
20
2119.480
30
0.0
11
6053.490
21
2119.480
31
0.0
0
LINE
5
3dcb
8
0-1
6
CONTINUOUS
62
  7
10
5747.490
20
2089.480
30
0.0
11
6053.490
21
2089.480
31
0.0
0
LINE
5
3dcc
8
0-1
6
CONTINUOUS
62
  7
10
5870.490
20
2121.480
30
0.0
11
5930.490
21
2121.480
31
0.0
0
LINE
5
3dcd
8
0-1
6
CONTINUOUS
62
  7
10
5870.490
20
2121.480
30
0.0
11
5870.490
21
2119.480
31
0.0
0
LINE
5
3dce
8
0-1
6
CONTINUOUS
62
  7
10
5930.490
20
2121.480
30
0.0
11
5930.490
21
2119.480
31
0.0
0
LINE
5
3dcf
8
0-1
6
CONTINUOUS
62
  7
10
5747.490
20
2119.480
30
0.0
11
5747.490
21
2089.480
31
0.0
0
LINE
5
3dd0
8
0-1
6
CONTINUOUS
62
  7
10
6053.490
20
2119.480
30
0.0
11
6359.490
21
2119.480
31
0.0
0
LINE
5
3dd1
8
0-1
6
CONTINUOUS
62
  7
10
6053.490
20
2089.480
30
0.0
11
6359.490
21
2089.480
31
0.0
0
LINE
5
3dd2
8
0-1
6
CONTINUOUS
62
  7
10
6176.490
20
2121.480
30
0.0
11
6236.490
21
2121.480
31
0.0
0
LINE
5
3dd3
8
0-1
6
CONTINUOUS
62
  7
10
6176.490
20
2121.480
30
0.0
11
6176.490
21
2119.480
31
0.0
0
LINE
5
3dd4
8
0-1
6
CONTINUOUS
62
  7
10
6236.490
20
2121.480
30
0.0
11
6236.490
21
2119.480
31
0.0
0
LINE
5
3dd5
8
0-1
6
CONTINUOUS
62
  7
10
6053.490
20
2119.480
30
0.0
11
6053.490
21
2089.480
31
0.0
0
LINE
5
3dd6
8
0-1
6
CONTINUOUS
62
  7
10
6359.490
20
2119.480
30
0.0
11
6665.490
21
2119.480
31
0.0
0
LINE
5
3dd7
8
0-1
6
CONTINUOUS
62
  7
10
6359.490
20
2089.480
30
0.0
11
6665.490
21
2089.480
31
0.0
0
LINE
5
3dd8
8
0-1
6
CONTINUOUS
62
  7
10
6482.490
20
2121.480
30
0.0
11
6542.490
21
2121.480
31
0.0
0
LINE
5
3dd9
8
0-1
6
CONTINUOUS
62
  7
10
6482.490
20
2121.480
30
0.0
11
6482.490
21
2119.480
31
0.0
0
LINE
5
3dda
8
0-1
6
CONTINUOUS
62
  7
10
6542.490
20
2121.480
30
0.0
11
6542.490
21
2119.480
31
0.0
0
LINE
5
3ddb
8
0-1
6
CONTINUOUS
62
  7
10
6359.490
20
2119.480
30
0.0
11
6359.490
21
2089.480
31
0.0
0
LINE
5
3ddc
8
0-1
6
CONTINUOUS
62
  7
10
6665.490
20
2119.480
30
0.0
11
6971.490
21
2119.480
31
0.0
0
LINE
5
3ddd
8
0-1
6
CONTINUOUS
62
  7
10
6665.490
20
2089.480
30
0.0
11
6971.490
21
2089.480
31
0.0
0
LINE
5
3dde
8
0-1
6
CONTINUOUS
62
  7
10
6788.490
20
2121.480
30
0.0
11
6848.490
21
2121.480
31
0.0
0
LINE
5
3ddf
8
0-1
6
CONTINUOUS
62
  7
10
6788.490
20
2121.480
30
0.0
11
6788.490
21
2119.480
31
0.0
0
LINE
5
3de0
8
0-1
6
CONTINUOUS
62
  7
10
6848.490
20
2121.480
30
0.0
11
6848.490
21
2119.480
31
0.0
0
LINE
5
3de1
8
0-1
6
CONTINUOUS
62
  7
10
6665.490
20
2119.480
30
0.0
11
6665.490
21
2089.480
31
0.0
0
LINE
5
3de2
8
0-1
6
CONTINUOUS
62
  7
10
6971.490
20
2119.480
30
0.0
11
7277.490
21
2119.480
31
0.0
0
LINE
5
3de3
8
0-1
6
CONTINUOUS
62
  7
10
6971.490
20
2089.480
30
0.0
11
7277.490
21
2089.480
31
0.0
0
LINE
5
3de4
8
0-1
6
CONTINUOUS
62
  7
10
7094.490
20
2121.480
30
0.0
11
7154.490
21
2121.480
31
0.0
0
LINE
5
3de5
8
0-1
6
CONTINUOUS
62
  7
10
7094.490
20
2121.480
30
0.0
11
7094.490
21
2119.480
31
0.0
0
LINE
5
3de6
8
0-1
6
CONTINUOUS
62
  7
10
7154.490
20
2121.480
30
0.0
11
7154.490
21
2119.480
31
0.0
0
LINE
5
3de7
8
0-1
6
CONTINUOUS
62
  7
10
6971.490
20
2119.480
30
0.0
11
6971.490
21
2089.480
31
0.0
0
LINE
5
3de8
8
0-1
6
CONTINUOUS
62
  7
10
7277.490
20
2119.480
30
0.0
11
7583.490
21
2119.480
31
0.0
0
LINE
5
3de9
8
0-1
6
CONTINUOUS
62
  7
10
7277.490
20
2089.480
30
0.0
11
7583.490
21
2089.480
31
0.0
0
LINE
5
3dea
8
0-1
6
CONTINUOUS
62
  7
10
7400.490
20
2121.480
30
0.0
11
7460.490
21
2121.480
31
0.0
0
LINE
5
3deb
8
0-1
6
CONTINUOUS
62
  7
10
7400.490
20
2121.480
30
0.0
11
7400.490
21
2119.480
31
0.0
0
LINE
5
3dec
8
0-1
6
CONTINUOUS
62
  7
10
7460.490
20
2121.480
30
0.0
11
7460.490
21
2119.480
31
0.0
0
LINE
5
3ded
8
0-1
6
CONTINUOUS
62
  7
10
7277.490
20
2119.480
30
0.0
11
7277.490
21
2089.480
31
0.0
0
LINE
5
3dee
8
0-1
6
CONTINUOUS
62
  7
10
7583.490
20
2119.480
30
0.0
11
7889.490
21
2119.480
31
0.0
0
LINE
5
3def
8
0-1
6
CONTINUOUS
62
  7
10
7583.490
20
2089.480
30
0.0
11
7889.490
21
2089.480
31
0.0
0
LINE
5
3df0
8
0-1
6
CONTINUOUS
62
  7
10
7706.490
20
2121.480
30
0.0
11
7766.490
21
2121.480
31
0.0
0
LINE
5
3df1
8
0-1
6
CONTINUOUS
62
  7
10
7706.490
20
2121.480
30
0.0
11
7706.490
21
2119.480
31
0.0
0
LINE
5
3df2
8
0-1
6
CONTINUOUS
62
  7
10
7766.490
20
2121.480
30
0.0
11
7766.490
21
2119.480
31
0.0
0
LINE
5
3df3
8
0-1
6
CONTINUOUS
62
  7
10
7583.490
20
2119.480
30
0.0
11
7583.490
21
2089.480
31
0.0
0
LINE
5
3df4
8
0-1
6
CONTINUOUS
62
  7
10
8195.490
20
2119.480
30
0.0
11
8195.490
21
2089.480
31
0.0
0
LINE
5
3df5
8
0-1
6
CONTINUOUS
62
  7
10
7889.490
20
2119.480
30
0.0
11
8195.490
21
2119.480
31
0.0
0
LINE
5
3df6
8
0-1
6
CONTINUOUS
62
  7
10
7889.490
20
2089.480
30
0.0
11
8195.490
21
2089.480
31
0.0
0
LINE
5
3df7
8
0-1
6
CONTINUOUS
62
  7
10
8012.490
20
2121.480
30
0.0
11
8072.490
21
2121.480
31
0.0
0
LINE
5
3df8
8
0-1
6
CONTINUOUS
62
  7
10
8012.490
20
2121.480
30
0.0
11
8012.490
21
2119.480
31
0.0
0
LINE
5
3df9
8
0-1
6
CONTINUOUS
62
  7
10
8072.490
20
2121.480
30
0.0
11
8072.490
21
2119.480
31
0.0
0
LINE
5
3dfa
8
0-1
6
CONTINUOUS
62
  7
10
7889.490
20
2119.480
30
0.0
11
7889.490
21
2089.480
31
0.0
0
LINE
5
3dfb
8
0-1
6
CONTINUOUS
62
  7
10
8195.490
20
2118.480
30
0.0
11
8195.490
21
2089.480
31
0.0
0
LINE
5
3dfc
8
0-1
6
CONTINUOUS
62
  7
10
8195.490
20
2119.480
30
0.0
11
8195.490
21
2089.480
31
0.0
0
LINE
5
3dfd
8
0-1
6
CONTINUOUS
62
  7
10
8072.490
20
2121.480
30
0.0
11
8012.490
21
2121.480
31
0.0
0
LINE
5
3dfe
8
0-1
6
CONTINUOUS
62
  7
10
8072.490
20
2121.480
30
0.0
11
8072.490
21
2119.480
31
0.0
0
LINE
5
3dff
8
0-1
6
CONTINUOUS
62
  7
10
8012.490
20
2121.480
30
0.0
11
8012.490
21
2119.480
31
0.0
0
LINE
5
3e00
8
ADD_LINE
6
HIDDEN
62
  3
10
4217.490
20
2233.960
30
0.0
11
4433.770
21
2233.960
31
0.0
0
LINE
5
3e01
8
0-1
6
CONTINUOUS
62
  7
10
4370.490
20
2233.960
30
0.0
11
4676.490
21
2233.960
31
0.0
0
LINE
5
3e02
8
0-1
6
CONTINUOUS
62
  7
10
4493.490
20
2235.960
30
0.0
11
4553.490
21
2235.960
31
0.0
0
LINE
5
3e03
8
0-1
6
CONTINUOUS
62
  7
10
4493.490
20
2235.960
30
0.0
11
4493.490
21
2233.960
31
0.0
0
LINE
5
3e04
8
0-1
6
CONTINUOUS
62
  7
10
4553.490
20
2235.960
30
0.0
11
4553.490
21
2233.960
31
0.0
0
LINE
5
3e05
8
0-1
6
CONTINUOUS
62
  7
10
4676.490
20
2233.960
30
0.0
11
4982.490
21
2233.960
31
0.0
0
LINE
5
3e06
8
0-1
6
CONTINUOUS
62
  7
10
4676.490
20
2203.960
30
0.0
11
4982.490
21
2203.960
31
0.0
0
LINE
5
3e07
8
0-1
6
CONTINUOUS
62
  7
10
4799.490
20
2235.960
30
0.0
11
4859.490
21
2235.960
31
0.0
0
LINE
5
3e08
8
0-1
6
CONTINUOUS
62
  7
10
4799.490
20
2235.960
30
0.0
11
4799.490
21
2233.960
31
0.0
0
LINE
5
3e09
8
0-1
6
CONTINUOUS
62
  7
10
4859.490
20
2235.960
30
0.0
11
4859.490
21
2233.960
31
0.0
0
LINE
5
3e0a
8
0-1
6
CONTINUOUS
62
  7
10
4676.490
20
2233.960
30
0.0
11
4676.490
21
2203.960
31
0.0
0
LINE
5
3e0b
8
0-1
6
CONTINUOUS
62
  7
10
4982.490
20
2233.960
30
0.0
11
5288.490
21
2233.960
31
0.0
0
LINE
5
3e0c
8
0-1
6
CONTINUOUS
62
  7
10
4982.490
20
2203.960
30
0.0
11
5288.490
21
2203.960
31
0.0
0
LINE
5
3e0d
8
0-1
6
CONTINUOUS
62
  7
10
5105.490
20
2235.960
30
0.0
11
5165.490
21
2235.960
31
0.0
0
LINE
5
3e0e
8
0-1
6
CONTINUOUS
62
  7
10
5105.490
20
2235.960
30
0.0
11
5105.490
21
2233.960
31
0.0
0
LINE
5
3e0f
8
0-1
6
CONTINUOUS
62
  7
10
5165.490
20
2235.960
30
0.0
11
5165.490
21
2233.960
31
0.0
0
LINE
5
3e10
8
0-1
6
CONTINUOUS
62
  7
10
4982.490
20
2233.960
30
0.0
11
4982.490
21
2203.960
31
0.0
0
LINE
5
3e11
8
0-1
6
CONTINUOUS
62
  7
10
5288.490
20
2233.960
30
0.0
11
5594.490
21
2233.960
31
0.0
0
LINE
5
3e12
8
0-1
6
CONTINUOUS
62
  7
10
5288.490
20
2203.960
30
0.0
11
5594.490
21
2203.960
31
0.0
0
LINE
5
3e13
8
0-1
6
CONTINUOUS
62
  7
10
5411.490
20
2235.960
30
0.0
11
5471.490
21
2235.960
31
0.0
0
LINE
5
3e14
8
0-1
6
CONTINUOUS
62
  7
10
5411.490
20
2235.960
30
0.0
11
5411.490
21
2233.960
31
0.0
0
LINE
5
3e15
8
0-1
6
CONTINUOUS
62
  7
10
5471.490
20
2235.960
30
0.0
11
5471.490
21
2233.960
31
0.0
0
LINE
5
3e16
8
0-1
6
CONTINUOUS
62
  7
10
5288.490
20
2233.960
30
0.0
11
5288.490
21
2203.960
31
0.0
0
LINE
5
3e17
8
0-1
6
CONTINUOUS
62
  7
10
5594.490
20
2233.960
30
0.0
11
5900.490
21
2233.960
31
0.0
0
LINE
5
3e18
8
0-1
6
CONTINUOUS
62
  7
10
5594.490
20
2203.960
30
0.0
11
5900.490
21
2203.960
31
0.0
0
LINE
5
3e19
8
0-1
6
CONTINUOUS
62
  7
10
5717.490
20
2235.960
30
0.0
11
5777.490
21
2235.960
31
0.0
0
LINE
5
3e1a
8
0-1
6
CONTINUOUS
62
  7
10
5717.490
20
2235.960
30
0.0
11
5717.490
21
2233.960
31
0.0
0
LINE
5
3e1b
8
0-1
6
CONTINUOUS
62
  7
10
5777.490
20
2235.960
30
0.0
11
5777.490
21
2233.960
31
0.0
0
LINE
5
3e1c
8
0-1
6
CONTINUOUS
62
  7
10
5594.490
20
2233.960
30
0.0
11
5594.490
21
2203.960
31
0.0
0
LINE
5
3e1d
8
0-1
6
CONTINUOUS
62
  7
10
5900.490
20
2233.960
30
0.0
11
6206.490
21
2233.960
31
0.0
0
LINE
5
3e1e
8
0-1
6
CONTINUOUS
62
  7
10
5900.490
20
2203.960
30
0.0
11
6206.490
21
2203.960
31
0.0
0
LINE
5
3e1f
8
0-1
6
CONTINUOUS
62
  7
10
6023.490
20
2235.960
30
0.0
11
6083.490
21
2235.960
31
0.0
0
LINE
5
3e20
8
0-1
6
CONTINUOUS
62
  7
10
6023.490
20
2235.960
30
0.0
11
6023.490
21
2233.960
31
0.0
0
LINE
5
3e21
8
0-1
6
CONTINUOUS
62
  7
10
6083.490
20
2235.960
30
0.0
11
6083.490
21
2233.960
31
0.0
0
LINE
5
3e22
8
0-1
6
CONTINUOUS
62
  7
10
5900.490
20
2233.960
30
0.0
11
5900.490
21
2203.960
31
0.0
0
LINE
5
3e23
8
0-1
6
CONTINUOUS
62
  7
10
6206.490
20
2233.960
30
0.0
11
6512.490
21
2233.960
31
0.0
0
LINE
5
3e24
8
0-1
6
CONTINUOUS
62
  7
10
6206.490
20
2203.960
30
0.0
11
6512.490
21
2203.960
31
0.0
0
LINE
5
3e25
8
0-1
6
CONTINUOUS
62
  7
10
6329.490
20
2235.960
30
0.0
11
6389.490
21
2235.960
31
0.0
0
LINE
5
3e26
8
0-1
6
CONTINUOUS
62
  7
10
6329.490
20
2235.960
30
0.0
11
6329.490
21
2233.960
31
0.0
0
LINE
5
3e27
8
0-1
6
CONTINUOUS
62
  7
10
6389.490
20
2235.960
30
0.0
11
6389.490
21
2233.960
31
0.0
0
LINE
5
3e28
8
0-1
6
CONTINUOUS
62
  7
10
6206.490
20
2233.960
30
0.0
11
6206.490
21
2203.960
31
0.0
0
LINE
5
3e29
8
0-1
6
CONTINUOUS
62
  7
10
6512.490
20
2233.960
30
0.0
11
6818.490
21
2233.960
31
0.0
0
LINE
5
3e2a
8
0-1
6
CONTINUOUS
62
  7
10
6512.490
20
2203.960
30
0.0
11
6818.490
21
2203.960
31
0.0
0
LINE
5
3e2b
8
0-1
6
CONTINUOUS
62
  7
10
6635.490
20
2235.960
30
0.0
11
6695.490
21
2235.960
31
0.0
0
LINE
5
3e2c
8
0-1
6
CONTINUOUS
62
  7
10
6635.490
20
2235.960
30
0.0
11
6635.490
21
2233.960
31
0.0
0
LINE
5
3e2d
8
0-1
6
CONTINUOUS
62
  7
10
6695.490
20
2235.960
30
0.0
11
6695.490
21
2233.960
31
0.0
0
LINE
5
3e2e
8
0-1
6
CONTINUOUS
62
  7
10
6512.490
20
2233.960
30
0.0
11
6512.490
21
2203.960
31
0.0
0
LINE
5
3e2f
8
0-1
6
CONTINUOUS
62
  7
10
6818.490
20
2233.960
30
0.0
11
7124.490
21
2233.960
31
0.0
0
LINE
5
3e30
8
0-1
6
CONTINUOUS
62
  7
10
6818.490
20
2203.960
30
0.0
11
7124.490
21
2203.960
31
0.0
0
LINE
5
3e31
8
0-1
6
CONTINUOUS
62
  7
10
6941.490
20
2235.960
30
0.0
11
7001.490
21
2235.960
31
0.0
0
LINE
5
3e32
8
0-1
6
CONTINUOUS
62
  7
10
6941.490
20
2235.960
30
0.0
11
6941.490
21
2233.960
31
0.0
0
LINE
5
3e33
8
0-1
6
CONTINUOUS
62
  7
10
7001.490
20
2235.960
30
0.0
11
7001.490
21
2233.960
31
0.0
0
LINE
5
3e34
8
0-1
6
CONTINUOUS
62
  7
10
6818.490
20
2233.960
30
0.0
11
6818.490
21
2203.960
31
0.0
0
LINE
5
3e35
8
0-1
6
CONTINUOUS
62
  7
10
7124.490
20
2233.960
30
0.0
11
7430.490
21
2233.960
31
0.0
0
LINE
5
3e36
8
0-1
6
CONTINUOUS
62
  7
10
7124.490
20
2203.960
30
0.0
11
7430.490
21
2203.960
31
0.0
0
LINE
5
3e37
8
0-1
6
CONTINUOUS
62
  7
10
7247.490
20
2235.960
30
0.0
11
7307.490
21
2235.960
31
0.0
0
LINE
5
3e38
8
0-1
6
CONTINUOUS
62
  7
10
7247.490
20
2235.960
30
0.0
11
7247.490
21
2233.960
31
0.0
0
LINE
5
3e39
8
0-1
6
CONTINUOUS
62
  7
10
7307.490
20
2235.960
30
0.0
11
7307.490
21
2233.960
31
0.0
0
LINE
5
3e3a
8
0-1
6
CONTINUOUS
62
  7
10
7124.490
20
2233.960
30
0.0
11
7124.490
21
2203.960
31
0.0
0
LINE
5
3e3b
8
0-1
6
CONTINUOUS
62
  7
10
7430.490
20
2233.960
30
0.0
11
7736.490
21
2233.960
31
0.0
0
LINE
5
3e3c
8
0-1
6
CONTINUOUS
62
  7
10
7430.490
20
2203.960
30
0.0
11
7736.490
21
2203.960
31
0.0
0
LINE
5
3e3d
8
0-1
6
CONTINUOUS
62
  7
10
7553.490
20
2235.960
30
0.0
11
7613.490
21
2235.960
31
0.0
0
LINE
5
3e3e
8
0-1
6
CONTINUOUS
62
  7
10
7553.490
20
2235.960
30
0.0
11
7553.490
21
2233.960
31
0.0
0
LINE
5
3e3f
8
0-1
6
CONTINUOUS
62
  7
10
7613.490
20
2235.960
30
0.0
11
7613.490
21
2233.960
31
0.0
0
LINE
5
3e40
8
0-1
6
CONTINUOUS
62
  7
10
7430.490
20
2233.960
30
0.0
11
7430.490
21
2203.960
31
0.0
0
LINE
5
3e41
8
0-1
6
CONTINUOUS
62
  7
10
7736.490
20
2233.960
30
0.0
11
8042.490
21
2233.960
31
0.0
0
LINE
5
3e42
8
0-1
6
CONTINUOUS
62
  7
10
7736.490
20
2203.960
30
0.0
11
8042.490
21
2203.960
31
0.0
0
LINE
5
3e43
8
0-1
6
CONTINUOUS
62
  7
10
7859.490
20
2235.960
30
0.0
11
7919.490
21
2235.960
31
0.0
0
LINE
5
3e44
8
0-1
6
CONTINUOUS
62
  7
10
7859.490
20
2235.960
30
0.0
11
7859.490
21
2233.960
31
0.0
0
LINE
5
3e45
8
0-1
6
CONTINUOUS
62
  7
10
7919.490
20
2235.960
30
0.0
11
7919.490
21
2233.960
31
0.0
0
LINE
5
3e46
8
0-1
6
CONTINUOUS
62
  7
10
7736.490
20
2233.960
30
0.0
11
7736.490
21
2203.960
31
0.0
0
LINE
5
3e47
8
0-1
6
CONTINUOUS
62
  7
10
8165.490
20
2235.960
30
0.0
11
8165.490
21
2233.960
31
0.0
0
LINE
5
3e48
8
0-1
6
CONTINUOUS
62
  7
10
8042.490
20
2233.960
30
0.0
11
8042.490
21
2203.960
31
0.0
0
LINE
5
3e49
8
0-1
6
CONTINUOUS
62
  7
10
8042.490
20
2203.960
30
0.0
11
8195.490
21
2203.960
31
0.0
0
LINE
5
3e4a
8
0-2
6
CONTINUOUS
62
  7
10
8042.490
20
2233.960
30
0.0
11
8195.490
21
2233.960
31
0.0
0
LINE
5
3e4b
8
0-1
6
CONTINUOUS
62
  7
10
8165.490
20
2235.960
30
0.0
11
8195.490
21
2235.960
31
0.0
0
LINE
5
3e4c
8
0-1
6
CONTINUOUS
62
  7
10
4370.490
20
2233.960
30
0.0
11
4370.490
21
2203.960
31
0.0
0
LINE
5
3e4d
8
0-1
6
CONTINUOUS
62
  7
10
4247.490
20
2235.960
30
0.0
11
4247.490
21
2233.960
31
0.0
0
LINE
5
3e4e
8
0-1
6
CONTINUOUS
62
  7
10
4370.490
20
2233.960
30
0.0
11
4370.490
21
2203.960
31
0.0
0
LINE
5
3e4f
8
0-1
6
CONTINUOUS
62
  7
10
4217.490
20
2233.960
30
0.0
11
4370.490
21
2233.960
31
0.0
0
LINE
5
3e50
8
0-1
6
CONTINUOUS
62
  7
10
4217.490
20
2235.960
30
0.0
11
4247.490
21
2235.960
31
0.0
0
LINE
5
3e51
8
0-1
6
CONTINUOUS
62
  7
10
4217.490
20
2203.960
30
0.0
11
4370.490
21
2203.960
31
0.0
0
LINE
5
3e52
8
0-1
6
CONTINUOUS
62
  7
10
4370.490
20
2203.960
30
0.0
11
4676.490
21
2203.960
31
0.0
0
LINE
5
3e53
8
0-1
6
CONTINUOUS
62
  7
10
4217.490
20
2348.450
30
0.0
11
4217.490
21
2319.450
31
0.0
0
LINE
5
3e54
8
0-1
6
CONTINUOUS
62
  7
10
4217.490
20
2349.450
30
0.0
11
4523.490
21
2349.450
31
0.0
0
LINE
5
3e55
8
0-1
6
CONTINUOUS
62
  7
10
4217.490
20
2319.450
30
0.0
11
4523.490
21
2319.450
31
0.0
0
LINE
5
3e56
8
0-1
6
CONTINUOUS
62
  7
10
4217.490
20
2349.450
30
0.0
11
4217.490
21
2319.450
31
0.0
0
LINE
5
3e57
8
0-1
6
CONTINUOUS
62
  7
10
4340.490
20
2351.450
30
0.0
11
4400.490
21
2351.450
31
0.0
0
LINE
5
3e58
8
0-1
6
CONTINUOUS
62
  7
10
4340.490
20
2351.450
30
0.0
11
4340.490
21
2349.450
31
0.0
0
LINE
5
3e59
8
0-1
6
CONTINUOUS
62
  7
10
4400.490
20
2351.450
30
0.0
11
4400.490
21
2349.450
31
0.0
0
LINE
5
3e5a
8
0-1
6
CONTINUOUS
62
  7
10
4523.490
20
2349.450
30
0.0
11
4829.490
21
2349.450
31
0.0
0
LINE
5
3e5b
8
0-1
6
CONTINUOUS
62
  7
10
4523.490
20
2319.450
30
0.0
11
4829.490
21
2319.450
31
0.0
0
LINE
5
3e5c
8
0-1
6
CONTINUOUS
62
  7
10
4646.490
20
2351.450
30
0.0
11
4706.490
21
2351.450
31
0.0
0
LINE
5
3e5d
8
0-1
6
CONTINUOUS
62
  7
10
4646.490
20
2351.450
30
0.0
11
4646.490
21
2349.450
31
0.0
0
LINE
5
3e5e
8
0-1
6
CONTINUOUS
62
  7
10
4706.490
20
2351.450
30
0.0
11
4706.490
21
2349.450
31
0.0
0
LINE
5
3e5f
8
0-1
6
CONTINUOUS
62
  7
10
4829.490
20
2349.450
30
0.0
11
5135.490
21
2349.450
31
0.0
0
LINE
5
3e60
8
0-1
6
CONTINUOUS
62
  7
10
4829.490
20
2319.450
30
0.0
11
5135.490
21
2319.450
31
0.0
0
LINE
5
3e61
8
0-1
6
CONTINUOUS
62
  7
10
4952.490
20
2351.450
30
0.0
11
5012.490
21
2351.450
31
0.0
0
LINE
5
3e62
8
0-1
6
CONTINUOUS
62
  7
10
4952.490
20
2351.450
30
0.0
11
4952.490
21
2349.450
31
0.0
0
LINE
5
3e63
8
0-1
6
CONTINUOUS
62
  7
10
5012.490
20
2351.450
30
0.0
11
5012.490
21
2349.450
31
0.0
0
LINE
5
3e64
8
0-1
6
CONTINUOUS
62
  7
10
5135.490
20
2349.450
30
0.0
11
5441.490
21
2349.450
31
0.0
0
LINE
5
3e65
8
0-1
6
CONTINUOUS
62
  7
10
5135.490
20
2319.450
30
0.0
11
5441.490
21
2319.450
31
0.0
0
LINE
5
3e66
8
0-1
6
CONTINUOUS
62
  7
10
5258.490
20
2351.450
30
0.0
11
5318.490
21
2351.450
31
0.0
0
LINE
5
3e67
8
0-1
6
CONTINUOUS
62
  7
10
5258.490
20
2351.450
30
0.0
11
5258.490
21
2349.450
31
0.0
0
LINE
5
3e68
8
0-1
6
CONTINUOUS
62
  7
10
5318.490
20
2351.450
30
0.0
11
5318.490
21
2349.450
31
0.0
0
LINE
5
3e69
8
0-1
6
CONTINUOUS
62
  7
10
5441.490
20
2349.450
30
0.0
11
5747.490
21
2349.450
31
0.0
0
LINE
5
3e6a
8
0-1
6
CONTINUOUS
62
  7
10
5441.490
20
2319.450
30
0.0
11
5747.490
21
2319.450
31
0.0
0
LINE
5
3e6b
8
0-1
6
CONTINUOUS
62
  7
10
5564.490
20
2351.450
30
0.0
11
5624.490
21
2351.450
31
0.0
0
LINE
5
3e6c
8
0-1
6
CONTINUOUS
62
  7
10
5564.490
20
2351.450
30
0.0
11
5564.490
21
2349.450
31
0.0
0
LINE
5
3e6d
8
0-1
6
CONTINUOUS
62
  7
10
5624.490
20
2351.450
30
0.0
11
5624.490
21
2349.450
31
0.0
0
LINE
5
3e6e
8
0-1
6
CONTINUOUS
62
  7
10
5747.490
20
2349.450
30
0.0
11
6053.490
21
2349.450
31
0.0
0
LINE
5
3e6f
8
0-1
6
CONTINUOUS
62
  7
10
5747.490
20
2319.450
30
0.0
11
6053.490
21
2319.450
31
0.0
0
LINE
5
3e70
8
0-1
6
CONTINUOUS
62
  7
10
5870.490
20
2351.450
30
0.0
11
5930.490
21
2351.450
31
0.0
0
LINE
5
3e71
8
0-1
6
CONTINUOUS
62
  7
10
5870.490
20
2351.450
30
0.0
11
5870.490
21
2349.450
31
0.0
0
LINE
5
3e72
8
0-1
6
CONTINUOUS
62
  7
10
5930.490
20
2351.450
30
0.0
11
5930.490
21
2349.450
31
0.0
0
LINE
5
3e73
8
0-1
6
CONTINUOUS
62
  7
10
6053.490
20
2349.450
30
0.0
11
6359.490
21
2349.450
31
0.0
0
LINE
5
3e74
8
0-1
6
CONTINUOUS
62
  7
10
6053.490
20
2319.450
30
0.0
11
6359.490
21
2319.450
31
0.0
0
LINE
5
3e75
8
0-1
6
CONTINUOUS
62
  7
10
6176.490
20
2351.450
30
0.0
11
6236.490
21
2351.450
31
0.0
0
LINE
5
3e76
8
0-1
6
CONTINUOUS
62
  7
10
6176.490
20
2351.450
30
0.0
11
6176.490
21
2349.450
31
0.0
0
LINE
5
3e77
8
0-1
6
CONTINUOUS
62
  7
10
6236.490
20
2351.450
30
0.0
11
6236.490
21
2349.450
31
0.0
0
LINE
5
3e78
8
0-1
6
CONTINUOUS
62
  7
10
6359.490
20
2349.450
30
0.0
11
6665.490
21
2349.450
31
0.0
0
LINE
5
3e79
8
0-1
6
CONTINUOUS
62
  7
10
6359.490
20
2319.450
30
0.0
11
6665.490
21
2319.450
31
0.0
0
LINE
5
3e7a
8
0-1
6
CONTINUOUS
62
  7
10
6482.490
20
2351.450
30
0.0
11
6542.490
21
2351.450
31
0.0
0
LINE
5
3e7b
8
0-1
6
CONTINUOUS
62
  7
10
6482.490
20
2351.450
30
0.0
11
6482.490
21
2349.450
31
0.0
0
LINE
5
3e7c
8
0-1
6
CONTINUOUS
62
  7
10
6542.490
20
2351.450
30
0.0
11
6542.490
21
2349.450
31
0.0
0
LINE
5
3e7d
8
0-1
6
CONTINUOUS
62
  7
10
6665.490
20
2349.450
30
0.0
11
6971.490
21
2349.450
31
0.0
0
LINE
5
3e7e
8
0-1
6
CONTINUOUS
62
  7
10
6665.490
20
2319.450
30
0.0
11
6971.490
21
2319.450
31
0.0
0
LINE
5
3e7f
8
0-1
6
CONTINUOUS
62
  7
10
6788.490
20
2351.450
30
0.0
11
6848.490
21
2351.450
31
0.0
0
LINE
5
3e80
8
0-1
6
CONTINUOUS
62
  7
10
6788.490
20
2351.450
30
0.0
11
6788.490
21
2349.450
31
0.0
0
LINE
5
3e81
8
0-1
6
CONTINUOUS
62
  7
10
6848.490
20
2351.450
30
0.0
11
6848.490
21
2349.450
31
0.0
0
LINE
5
3e82
8
0-1
6
CONTINUOUS
62
  7
10
6971.490
20
2349.450
30
0.0
11
7277.490
21
2349.450
31
0.0
0
LINE
5
3e83
8
0-1
6
CONTINUOUS
62
  7
10
6971.490
20
2319.450
30
0.0
11
7277.490
21
2319.450
31
0.0
0
LINE
5
3e84
8
0-1
6
CONTINUOUS
62
  7
10
7094.490
20
2351.450
30
0.0
11
7154.490
21
2351.450
31
0.0
0
LINE
5
3e85
8
0-1
6
CONTINUOUS
62
  7
10
7094.490
20
2351.450
30
0.0
11
7094.490
21
2349.450
31
0.0
0
LINE
5
3e86
8
0-1
6
CONTINUOUS
62
  7
10
7154.490
20
2351.450
30
0.0
11
7154.490
21
2349.450
31
0.0
0
LINE
5
3e87
8
0-1
6
CONTINUOUS
62
  7
10
7277.490
20
2349.450
30
0.0
11
7583.490
21
2349.450
31
0.0
0
LINE
5
3e88
8
0-1
6
CONTINUOUS
62
  7
10
7277.490
20
2319.450
30
0.0
11
7583.490
21
2319.450
31
0.0
0
LINE
5
3e89
8
0-1
6
CONTINUOUS
62
  7
10
7400.490
20
2351.450
30
0.0
11
7460.490
21
2351.450
31
0.0
0
LINE
5
3e8a
8
0-1
6
CONTINUOUS
62
  7
10
7400.490
20
2351.450
30
0.0
11
7400.490
21
2349.450
31
0.0
0
LINE
5
3e8b
8
0-1
6
CONTINUOUS
62
  7
10
7460.490
20
2351.450
30
0.0
11
7460.490
21
2349.450
31
0.0
0
LINE
5
3e8c
8
0-1
6
CONTINUOUS
62
  7
10
7583.490
20
2349.450
30
0.0
11
7889.490
21
2349.450
31
0.0
0
LINE
5
3e8d
8
0-1
6
CONTINUOUS
62
  7
10
7583.490
20
2319.450
30
0.0
11
7889.490
21
2319.450
31
0.0
0
LINE
5
3e8e
8
0-1
6
CONTINUOUS
62
  7
10
7706.490
20
2351.450
30
0.0
11
7766.490
21
2351.450
31
0.0
0
LINE
5
3e8f
8
0-1
6
CONTINUOUS
62
  7
10
7706.490
20
2351.450
30
0.0
11
7706.490
21
2349.450
31
0.0
0
LINE
5
3e90
8
0-1
6
CONTINUOUS
62
  7
10
7766.490
20
2351.450
30
0.0
11
7766.490
21
2349.450
31
0.0
0
LINE
5
3e91
8
0-1
6
CONTINUOUS
62
  7
10
8195.490
20
2349.450
30
0.0
11
8195.490
21
2319.450
31
0.0
0
LINE
5
3e92
8
0-1
6
CONTINUOUS
62
  7
10
7889.490
20
2349.450
30
0.0
11
8195.490
21
2349.450
31
0.0
0
LINE
5
3e93
8
0-1
6
CONTINUOUS
62
  7
10
7889.490
20
2319.450
30
0.0
11
8195.490
21
2319.450
31
0.0
0
LINE
5
3e94
8
0-1
6
CONTINUOUS
62
  7
10
8012.490
20
2351.450
30
0.0
11
8072.490
21
2351.450
31
0.0
0
LINE
5
3e95
8
0-1
6
CONTINUOUS
62
  7
10
8012.490
20
2351.450
30
0.0
11
8012.490
21
2349.450
31
0.0
0
LINE
5
3e96
8
0-1
6
CONTINUOUS
62
  7
10
8072.490
20
2351.450
30
0.0
11
8072.490
21
2349.450
31
0.0
0
LINE
5
3e97
8
0-1
6
CONTINUOUS
62
  7
10
8195.490
20
2348.450
30
0.0
11
8195.490
21
2319.450
31
0.0
0
LINE
5
3e98
8
0-1
6
CONTINUOUS
62
  7
10
8195.490
20
2349.450
30
0.0
11
8195.490
21
2319.450
31
0.0
0
LINE
5
3e99
8
0-1
6
CONTINUOUS
62
  7
10
8072.490
20
2351.450
30
0.0
11
8012.490
21
2351.450
31
0.0
0
LINE
5
3e9a
8
0-1
6
CONTINUOUS
62
  7
10
8072.490
20
2351.450
30
0.0
11
8072.490
21
2349.450
31
0.0
0
LINE
5
3e9b
8
0-1
6
CONTINUOUS
62
  7
10
8012.490
20
2351.450
30
0.0
11
8012.490
21
2349.450
31
0.0
0
LINE
5
3e9c
8
0-1
6
CONTINUOUS
62
  7
10
4217.490
20
2579.420
30
0.0
11
4217.490
21
2550.420
31
0.0
0
LINE
5
3e9d
8
0-1
6
CONTINUOUS
62
  7
10
4217.490
20
2580.420
30
0.0
11
4523.490
21
2580.420
31
0.0
0
LINE
5
3e9e
8
0-1
6
CONTINUOUS
62
  7
10
4217.490
20
2550.420
30
0.0
11
4523.490
21
2550.420
31
0.0
0
LINE
5
3e9f
8
0-1
6
CONTINUOUS
62
  7
10
4217.490
20
2580.420
30
0.0
11
4217.490
21
2550.420
31
0.0
0
LINE
5
3ea0
8
0-1
6
CONTINUOUS
62
  7
10
4340.490
20
2582.420
30
0.0
11
4400.490
21
2582.420
31
0.0
0
LINE
5
3ea1
8
0-1
6
CONTINUOUS
62
  7
10
4340.490
20
2582.420
30
0.0
11
4340.490
21
2580.420
31
0.0
0
LINE
5
3ea2
8
0-1
6
CONTINUOUS
62
  7
10
4400.490
20
2582.420
30
0.0
11
4400.490
21
2580.420
31
0.0
0
LINE
5
3ea3
8
0-1
6
CONTINUOUS
62
  7
10
4523.490
20
2580.420
30
0.0
11
4829.490
21
2580.420
31
0.0
0
LINE
5
3ea4
8
0-1
6
CONTINUOUS
62
  7
10
4523.490
20
2550.420
30
0.0
11
4829.490
21
2550.420
31
0.0
0
LINE
5
3ea5
8
0-1
6
CONTINUOUS
62
  7
10
4646.490
20
2582.420
30
0.0
11
4706.490
21
2582.420
31
0.0
0
LINE
5
3ea6
8
0-1
6
CONTINUOUS
62
  7
10
4646.490
20
2582.420
30
0.0
11
4646.490
21
2580.420
31
0.0
0
LINE
5
3ea7
8
0-1
6
CONTINUOUS
62
  7
10
4706.490
20
2582.420
30
0.0
11
4706.490
21
2580.420
31
0.0
0
LINE
5
3ea8
8
0-1
6
CONTINUOUS
62
  7
10
4829.490
20
2580.420
30
0.0
11
5135.490
21
2580.420
31
0.0
0
LINE
5
3ea9
8
0-1
6
CONTINUOUS
62
  7
10
4829.490
20
2550.420
30
0.0
11
5135.490
21
2550.420
31
0.0
0
LINE
5
3eaa
8
0-1
6
CONTINUOUS
62
  7
10
4952.490
20
2582.420
30
0.0
11
5012.490
21
2582.420
31
0.0
0
LINE
5
3eab
8
0-1
6
CONTINUOUS
62
  7
10
4952.490
20
2582.420
30
0.0
11
4952.490
21
2580.420
31
0.0
0
LINE
5
3eac
8
0-1
6
CONTINUOUS
62
  7
10
5012.490
20
2582.420
30
0.0
11
5012.490
21
2580.420
31
0.0
0
LINE
5
3ead
8
0-1
6
CONTINUOUS
62
  7
10
5135.490
20
2580.420
30
0.0
11
5441.490
21
2580.420
31
0.0
0
LINE
5
3eae
8
0-1
6
CONTINUOUS
62
  7
10
5135.490
20
2550.420
30
0.0
11
5441.490
21
2550.420
31
0.0
0
LINE
5
3eaf
8
0-1
6
CONTINUOUS
62
  7
10
5258.490
20
2582.420
30
0.0
11
5318.490
21
2582.420
31
0.0
0
LINE
5
3eb0
8
0-1
6
CONTINUOUS
62
  7
10
5258.490
20
2582.420
30
0.0
11
5258.490
21
2580.420
31
0.0
0
LINE
5
3eb1
8
0-1
6
CONTINUOUS
62
  7
10
5318.490
20
2582.420
30
0.0
11
5318.490
21
2580.420
31
0.0
0
LINE
5
3eb2
8
0-1
6
CONTINUOUS
62
  7
10
5441.490
20
2580.420
30
0.0
11
5747.490
21
2580.420
31
0.0
0
LINE
5
3eb3
8
0-1
6
CONTINUOUS
62
  7
10
5441.490
20
2550.420
30
0.0
11
5747.490
21
2550.420
31
0.0
0
LINE
5
3eb4
8
0-1
6
CONTINUOUS
62
  7
10
5564.490
20
2582.420
30
0.0
11
5624.490
21
2582.420
31
0.0
0
LINE
5
3eb5
8
0-1
6
CONTINUOUS
62
  7
10
5564.490
20
2582.420
30
0.0
11
5564.490
21
2580.420
31
0.0
0
LINE
5
3eb6
8
0-1
6
CONTINUOUS
62
  7
10
5624.490
20
2582.420
30
0.0
11
5624.490
21
2580.420
31
0.0
0
LINE
5
3eb7
8
0-1
6
CONTINUOUS
62
  7
10
5747.490
20
2580.420
30
0.0
11
6053.490
21
2580.420
31
0.0
0
LINE
5
3eb8
8
0-1
6
CONTINUOUS
62
  7
10
5747.490
20
2550.420
30
0.0
11
6053.490
21
2550.420
31
0.0
0
LINE
5
3eb9
8
0-1
6
CONTINUOUS
62
  7
10
5870.490
20
2582.420
30
0.0
11
5930.490
21
2582.420
31
0.0
0
LINE
5
3eba
8
0-1
6
CONTINUOUS
62
  7
10
5870.490
20
2582.420
30
0.0
11
5870.490
21
2580.420
31
0.0
0
LINE
5
3ebb
8
0-1
6
CONTINUOUS
62
  7
10
5930.490
20
2582.420
30
0.0
11
5930.490
21
2580.420
31
0.0
0
LINE
5
3ebc
8
0-1
6
CONTINUOUS
62
  7
10
6053.490
20
2580.420
30
0.0
11
6359.490
21
2580.420
31
0.0
0
LINE
5
3ebd
8
0-1
6
CONTINUOUS
62
  7
10
6053.490
20
2550.420
30
0.0
11
6359.490
21
2550.420
31
0.0
0
LINE
5
3ebe
8
0-1
6
CONTINUOUS
62
  7
10
6176.490
20
2582.420
30
0.0
11
6236.490
21
2582.420
31
0.0
0
LINE
5
3ebf
8
0-1
6
CONTINUOUS
62
  7
10
6176.490
20
2582.420
30
0.0
11
6176.490
21
2580.420
31
0.0
0
LINE
5
3ec0
8
0-1
6
CONTINUOUS
62
  7
10
6236.490
20
2582.420
30
0.0
11
6236.490
21
2580.420
31
0.0
0
LINE
5
3ec1
8
0-1
6
CONTINUOUS
62
  7
10
6359.490
20
2580.420
30
0.0
11
6665.490
21
2580.420
31
0.0
0
LINE
5
3ec2
8
0-1
6
CONTINUOUS
62
  7
10
6359.490
20
2550.420
30
0.0
11
6665.490
21
2550.420
31
0.0
0
LINE
5
3ec3
8
0-1
6
CONTINUOUS
62
  7
10
6482.490
20
2582.420
30
0.0
11
6542.490
21
2582.420
31
0.0
0
LINE
5
3ec4
8
0-1
6
CONTINUOUS
62
  7
10
6482.490
20
2582.420
30
0.0
11
6482.490
21
2580.420
31
0.0
0
LINE
5
3ec5
8
0-1
6
CONTINUOUS
62
  7
10
6542.490
20
2582.420
30
0.0
11
6542.490
21
2580.420
31
0.0
0
LINE
5
3ec6
8
0-1
6
CONTINUOUS
62
  7
10
6665.490
20
2580.420
30
0.0
11
6971.490
21
2580.420
31
0.0
0
LINE
5
3ec7
8
0-1
6
CONTINUOUS
62
  7
10
6665.490
20
2550.420
30
0.0
11
6971.490
21
2550.420
31
0.0
0
LINE
5
3ec8
8
0-1
6
CONTINUOUS
62
  7
10
6788.490
20
2582.420
30
0.0
11
6848.490
21
2582.420
31
0.0
0
LINE
5
3ec9
8
0-1
6
CONTINUOUS
62
  7
10
6788.490
20
2582.420
30
0.0
11
6788.490
21
2580.420
31
0.0
0
LINE
5
3eca
8
0-1
6
CONTINUOUS
62
  7
10
6848.490
20
2582.420
30
0.0
11
6848.490
21
2580.420
31
0.0
0
LINE
5
3ecb
8
0-1
6
CONTINUOUS
62
  7
10
6971.490
20
2580.420
30
0.0
11
7277.490
21
2580.420
31
0.0
0
LINE
5
3ecc
8
0-1
6
CONTINUOUS
62
  7
10
6971.490
20
2550.420
30
0.0
11
7277.490
21
2550.420
31
0.0
0
LINE
5
3ecd
8
0-1
6
CONTINUOUS
62
  7
10
7094.490
20
2582.420
30
0.0
11
7154.490
21
2582.420
31
0.0
0
LINE
5
3ece
8
0-1
6
CONTINUOUS
62
  7
10
7094.490
20
2582.420
30
0.0
11
7094.490
21
2580.420
31
0.0
0
LINE
5
3ecf
8
0-1
6
CONTINUOUS
62
  7
10
7154.490
20
2582.420
30
0.0
11
7154.490
21
2580.420
31
0.0
0
LINE
5
3ed0
8
0-1
6
CONTINUOUS
62
  7
10
7277.490
20
2580.420
30
0.0
11
7583.490
21
2580.420
31
0.0
0
LINE
5
3ed1
8
0-1
6
CONTINUOUS
62
  7
10
7277.490
20
2550.420
30
0.0
11
7583.490
21
2550.420
31
0.0
0
LINE
5
3ed2
8
0-1
6
CONTINUOUS
62
  7
10
7400.490
20
2582.420
30
0.0
11
7460.490
21
2582.420
31
0.0
0
LINE
5
3ed3
8
0-1
6
CONTINUOUS
62
  7
10
7400.490
20
2582.420
30
0.0
11
7400.490
21
2580.420
31
0.0
0
LINE
5
3ed4
8
0-1
6
CONTINUOUS
62
  7
10
7460.490
20
2582.420
30
0.0
11
7460.490
21
2580.420
31
0.0
0
LINE
5
3ed5
8
0-1
6
CONTINUOUS
62
  7
10
7583.490
20
2580.420
30
0.0
11
7889.490
21
2580.420
31
0.0
0
LINE
5
3ed6
8
0-1
6
CONTINUOUS
62
  7
10
7583.490
20
2550.420
30
0.0
11
7889.490
21
2550.420
31
0.0
0
LINE
5
3ed7
8
0-1
6
CONTINUOUS
62
  7
10
7706.490
20
2582.420
30
0.0
11
7766.490
21
2582.420
31
0.0
0
LINE
5
3ed8
8
0-1
6
CONTINUOUS
62
  7
10
7706.490
20
2582.420
30
0.0
11
7706.490
21
2580.420
31
0.0
0
LINE
5
3ed9
8
0-1
6
CONTINUOUS
62
  7
10
7766.490
20
2582.420
30
0.0
11
7766.490
21
2580.420
31
0.0
0
LINE
5
3eda
8
0-1
6
CONTINUOUS
62
  7
10
8195.490
20
2580.420
30
0.0
11
8195.490
21
2550.420
31
0.0
0
LINE
5
3edb
8
0-1
6
CONTINUOUS
62
  7
10
7889.490
20
2580.420
30
0.0
11
8195.490
21
2580.420
31
0.0
0
LINE
5
3edc
8
0-1
6
CONTINUOUS
62
  7
10
7889.490
20
2550.420
30
0.0
11
8195.490
21
2550.420
31
0.0
0
LINE
5
3edd
8
0-1
6
CONTINUOUS
62
  7
10
8012.490
20
2582.420
30
0.0
11
8072.490
21
2582.420
31
0.0
0
LINE
5
3ede
8
0-1
6
CONTINUOUS
62
  7
10
8012.490
20
2582.420
30
0.0
11
8012.490
21
2580.420
31
0.0
0
LINE
5
3edf
8
0-1
6
CONTINUOUS
62
  7
10
8072.490
20
2582.420
30
0.0
11
8072.490
21
2580.420
31
0.0
0
LINE
5
3ee0
8
0-1
6
CONTINUOUS
62
  7
10
8195.490
20
2579.420
30
0.0
11
8195.490
21
2550.420
31
0.0
0
LINE
5
3ee1
8
0-1
6
CONTINUOUS
62
  7
10
8195.490
20
2580.420
30
0.0
11
8195.490
21
2550.420
31
0.0
0
LINE
5
3ee2
8
0-1
6
CONTINUOUS
62
  7
10
8072.490
20
2582.420
30
0.0
11
8012.490
21
2582.420
31
0.0
0
LINE
5
3ee3
8
0-1
6
CONTINUOUS
62
  7
10
8072.490
20
2582.420
30
0.0
11
8072.490
21
2580.420
31
0.0
0
LINE
5
3ee4
8
0-1
6
CONTINUOUS
62
  7
10
8012.490
20
2582.420
30
0.0
11
8012.490
21
2580.420
31
0.0
0
LINE
5
3ee5
8
0-1
6
CONTINUOUS
62
  7
10
4217.490
20
2810.380
30
0.0
11
4217.490
21
2781.380
31
0.0
0
LINE
5
3ee6
8
0-1
6
CONTINUOUS
62
  7
10
4217.490
20
2811.380
30
0.0
11
4523.490
21
2811.380
31
0.0
0
LINE
5
3ee7
8
0-1
6
CONTINUOUS
62
  7
10
4217.490
20
2781.380
30
0.0
11
4523.490
21
2781.380
31
0.0
0
LINE
5
3ee8
8
0-1
6
CONTINUOUS
62
  7
10
4217.490
20
2811.380
30
0.0
11
4217.490
21
2781.380
31
0.0
0
LINE
5
3ee9
8
0-1
6
CONTINUOUS
62
  7
10
4340.490
20
2813.380
30
0.0
11
4400.490
21
2813.380
31
0.0
0
LINE
5
3eea
8
0-1
6
CONTINUOUS
62
  7
10
4340.490
20
2813.380
30
0.0
11
4340.490
21
2811.380
31
0.0
0
LINE
5
3eeb
8
0-1
6
CONTINUOUS
62
  7
10
4400.490
20
2813.380
30
0.0
11
4400.490
21
2811.380
31
0.0
0
LINE
5
3eec
8
0-1
6
CONTINUOUS
62
  7
10
4523.490
20
2811.380
30
0.0
11
4829.490
21
2811.380
31
0.0
0
LINE
5
3eed
8
0-1
6
CONTINUOUS
62
  7
10
4523.490
20
2781.380
30
0.0
11
4829.490
21
2781.380
31
0.0
0
LINE
5
3eee
8
0-1
6
CONTINUOUS
62
  7
10
4646.490
20
2813.380
30
0.0
11
4706.490
21
2813.380
31
0.0
0
LINE
5
3eef
8
0-1
6
CONTINUOUS
62
  7
10
4646.490
20
2813.380
30
0.0
11
4646.490
21
2811.380
31
0.0
0
LINE
5
3ef0
8
0-1
6
CONTINUOUS
62
  7
10
4706.490
20
2813.380
30
0.0
11
4706.490
21
2811.380
31
0.0
0
LINE
5
3ef1
8
0-1
6
CONTINUOUS
62
  7
10
4829.490
20
2811.380
30
0.0
11
5135.490
21
2811.380
31
0.0
0
LINE
5
3ef2
8
0-1
6
CONTINUOUS
62
  7
10
4829.490
20
2781.380
30
0.0
11
5135.490
21
2781.380
31
0.0
0
LINE
5
3ef3
8
0-1
6
CONTINUOUS
62
  7
10
4952.490
20
2813.380
30
0.0
11
5012.490
21
2813.380
31
0.0
0
LINE
5
3ef4
8
0-1
6
CONTINUOUS
62
  7
10
4952.490
20
2813.380
30
0.0
11
4952.490
21
2811.380
31
0.0
0
LINE
5
3ef5
8
0-1
6
CONTINUOUS
62
  7
10
5012.490
20
2813.380
30
0.0
11
5012.490
21
2811.380
31
0.0
0
LINE
5
3ef6
8
0-1
6
CONTINUOUS
62
  7
10
5135.490
20
2811.380
30
0.0
11
5441.490
21
2811.380
31
0.0
0
LINE
5
3ef7
8
0-1
6
CONTINUOUS
62
  7
10
5135.490
20
2781.380
30
0.0
11
5441.490
21
2781.380
31
0.0
0
LINE
5
3ef8
8
0-1
6
CONTINUOUS
62
  7
10
5258.490
20
2813.380
30
0.0
11
5318.490
21
2813.380
31
0.0
0
LINE
5
3ef9
8
0-1
6
CONTINUOUS
62
  7
10
5258.490
20
2813.380
30
0.0
11
5258.490
21
2811.380
31
0.0
0
LINE
5
3efa
8
0-1
6
CONTINUOUS
62
  7
10
5318.490
20
2813.380
30
0.0
11
5318.490
21
2811.380
31
0.0
0
LINE
5
3efb
8
0-1
6
CONTINUOUS
62
  7
10
5441.490
20
2811.380
30
0.0
11
5747.490
21
2811.380
31
0.0
0
LINE
5
3efc
8
0-1
6
CONTINUOUS
62
  7
10
5441.490
20
2781.380
30
0.0
11
5747.490
21
2781.380
31
0.0
0
LINE
5
3efd
8
0-1
6
CONTINUOUS
62
  7
10
5564.490
20
2813.380
30
0.0
11
5624.490
21
2813.380
31
0.0
0
LINE
5
3efe
8
0-1
6
CONTINUOUS
62
  7
10
5564.490
20
2813.380
30
0.0
11
5564.490
21
2811.380
31
0.0
0
LINE
5
3eff
8
0-1
6
CONTINUOUS
62
  7
10
5624.490
20
2813.380
30
0.0
11
5624.490
21
2811.380
31
0.0
0
LINE
5
3f00
8
0-1
6
CONTINUOUS
62
  7
10
5747.490
20
2811.380
30
0.0
11
6053.490
21
2811.380
31
0.0
0
LINE
5
3f01
8
0-1
6
CONTINUOUS
62
  7
10
5747.490
20
2781.380
30
0.0
11
6053.490
21
2781.380
31
0.0
0
LINE
5
3f02
8
0-1
6
CONTINUOUS
62
  7
10
5870.490
20
2813.380
30
0.0
11
5930.490
21
2813.380
31
0.0
0
LINE
5
3f03
8
0-1
6
CONTINUOUS
62
  7
10
5870.490
20
2813.380
30
0.0
11
5870.490
21
2811.380
31
0.0
0
LINE
5
3f04
8
0-1
6
CONTINUOUS
62
  7
10
5930.490
20
2813.380
30
0.0
11
5930.490
21
2811.380
31
0.0
0
LINE
5
3f05
8
0-1
6
CONTINUOUS
62
  7
10
6053.490
20
2811.380
30
0.0
11
6359.490
21
2811.380
31
0.0
0
LINE
5
3f06
8
0-1
6
CONTINUOUS
62
  7
10
6053.490
20
2781.380
30
0.0
11
6359.490
21
2781.380
31
0.0
0
LINE
5
3f07
8
0-1
6
CONTINUOUS
62
  7
10
6176.490
20
2813.380
30
0.0
11
6236.490
21
2813.380
31
0.0
0
LINE
5
3f08
8
0-1
6
CONTINUOUS
62
  7
10
6176.490
20
2813.380
30
0.0
11
6176.490
21
2811.380
31
0.0
0
LINE
5
3f09
8
0-1
6
CONTINUOUS
62
  7
10
6236.490
20
2813.380
30
0.0
11
6236.490
21
2811.380
31
0.0
0
LINE
5
3f0a
8
0-1
6
CONTINUOUS
62
  7
10
6359.490
20
2811.380
30
0.0
11
6665.490
21
2811.380
31
0.0
0
LINE
5
3f0b
8
0-1
6
CONTINUOUS
62
  7
10
6359.490
20
2781.380
30
0.0
11
6665.490
21
2781.380
31
0.0
0
LINE
5
3f0c
8
0-1
6
CONTINUOUS
62
  7
10
6482.490
20
2813.380
30
0.0
11
6542.490
21
2813.380
31
0.0
0
LINE
5
3f0d
8
0-1
6
CONTINUOUS
62
  7
10
6482.490
20
2813.380
30
0.0
11
6482.490
21
2811.380
31
0.0
0
LINE
5
3f0e
8
0-1
6
CONTINUOUS
62
  7
10
6542.490
20
2813.380
30
0.0
11
6542.490
21
2811.380
31
0.0
0
LINE
5
3f0f
8
0-1
6
CONTINUOUS
62
  7
10
6665.490
20
2811.380
30
0.0
11
6971.490
21
2811.380
31
0.0
0
LINE
5
3f10
8
0-1
6
CONTINUOUS
62
  7
10
6665.490
20
2781.380
30
0.0
11
6971.490
21
2781.380
31
0.0
0
LINE
5
3f11
8
0-1
6
CONTINUOUS
62
  7
10
6788.490
20
2813.380
30
0.0
11
6848.490
21
2813.380
31
0.0
0
LINE
5
3f12
8
0-1
6
CONTINUOUS
62
  7
10
6788.490
20
2813.380
30
0.0
11
6788.490
21
2811.380
31
0.0
0
LINE
5
3f13
8
0-1
6
CONTINUOUS
62
  7
10
6848.490
20
2813.380
30
0.0
11
6848.490
21
2811.380
31
0.0
0
LINE
5
3f14
8
0-1
6
CONTINUOUS
62
  7
10
6971.490
20
2811.380
30
0.0
11
7277.490
21
2811.380
31
0.0
0
LINE
5
3f15
8
0-1
6
CONTINUOUS
62
  7
10
6971.490
20
2781.380
30
0.0
11
7277.490
21
2781.380
31
0.0
0
LINE
5
3f16
8
0-1
6
CONTINUOUS
62
  7
10
7094.490
20
2813.380
30
0.0
11
7154.490
21
2813.380
31
0.0
0
LINE
5
3f17
8
0-1
6
CONTINUOUS
62
  7
10
7094.490
20
2813.380
30
0.0
11
7094.490
21
2811.380
31
0.0
0
LINE
5
3f18
8
0-1
6
CONTINUOUS
62
  7
10
7154.490
20
2813.380
30
0.0
11
7154.490
21
2811.380
31
0.0
0
LINE
5
3f19
8
0-1
6
CONTINUOUS
62
  7
10
7277.490
20
2811.380
30
0.0
11
7583.490
21
2811.380
31
0.0
0
LINE
5
3f1a
8
0-1
6
CONTINUOUS
62
  7
10
7277.490
20
2781.380
30
0.0
11
7583.490
21
2781.380
31
0.0
0
LINE
5
3f1b
8
0-1
6
CONTINUOUS
62
  7
10
7400.490
20
2813.380
30
0.0
11
7460.490
21
2813.380
31
0.0
0
LINE
5
3f1c
8
0-1
6
CONTINUOUS
62
  7
10
7400.490
20
2813.380
30
0.0
11
7400.490
21
2811.380
31
0.0
0
LINE
5
3f1d
8
0-1
6
CONTINUOUS
62
  7
10
7460.490
20
2813.380
30
0.0
11
7460.490
21
2811.380
31
0.0
0
LINE
5
3f1e
8
0-1
6
CONTINUOUS
62
  7
10
7583.490
20
2811.380
30
0.0
11
7889.490
21
2811.380
31
0.0
0
LINE
5
3f1f
8
0-1
6
CONTINUOUS
62
  7
10
7583.490
20
2781.380
30
0.0
11
7889.490
21
2781.380
31
0.0
0
LINE
5
3f20
8
0-1
6
CONTINUOUS
62
  7
10
7706.490
20
2813.380
30
0.0
11
7766.490
21
2813.380
31
0.0
0
LINE
5
3f21
8
0-1
6
CONTINUOUS
62
  7
10
7706.490
20
2813.380
30
0.0
11
7706.490
21
2811.380
31
0.0
0
LINE
5
3f22
8
0-1
6
CONTINUOUS
62
  7
10
7766.490
20
2813.380
30
0.0
11
7766.490
21
2811.380
31
0.0
0
LINE
5
3f23
8
0-1
6
CONTINUOUS
62
  7
10
8195.490
20
2811.380
30
0.0
11
8195.490
21
2781.380
31
0.0
0
LINE
5
3f24
8
0-1
6
CONTINUOUS
62
  7
10
7889.490
20
2811.380
30
0.0
11
8195.490
21
2811.380
31
0.0
0
LINE
5
3f25
8
0-1
6
CONTINUOUS
62
  7
10
7889.490
20
2781.380
30
0.0
11
8195.490
21
2781.380
31
0.0
0
LINE
5
3f26
8
0-1
6
CONTINUOUS
62
  7
10
8012.490
20
2813.380
30
0.0
11
8072.490
21
2813.380
31
0.0
0
LINE
5
3f27
8
0-1
6
CONTINUOUS
62
  7
10
8012.490
20
2813.380
30
0.0
11
8012.490
21
2811.380
31
0.0
0
LINE
5
3f28
8
0-1
6
CONTINUOUS
62
  7
10
8072.490
20
2813.380
30
0.0
11
8072.490
21
2811.380
31
0.0
0
LINE
5
3f29
8
0-1
6
CONTINUOUS
62
  7
10
8195.490
20
2810.380
30
0.0
11
8195.490
21
2781.380
31
0.0
0
LINE
5
3f2a
8
0-1
6
CONTINUOUS
62
  7
10
8195.490
20
2811.380
30
0.0
11
8195.490
21
2781.380
31
0.0
0
LINE
5
3f2b
8
0-1
6
CONTINUOUS
62
  7
10
8072.490
20
2813.380
30
0.0
11
8012.490
21
2813.380
31
0.0
0
LINE
5
3f2c
8
0-1
6
CONTINUOUS
62
  7
10
8072.490
20
2813.380
30
0.0
11
8072.490
21
2811.380
31
0.0
0
LINE
5
3f2d
8
0-1
6
CONTINUOUS
62
  7
10
8012.490
20
2813.380
30
0.0
11
8012.490
21
2811.380
31
0.0
0
LINE
5
3f2e
8
0-1
6
CONTINUOUS
62
  7
10
4217.490
20
3041.350
30
0.0
11
4217.490
21
3012.350
31
0.0
0
LINE
5
3f2f
8
0-1
6
CONTINUOUS
62
  7
10
4217.490
20
3042.350
30
0.0
11
4523.490
21
3042.350
31
0.0
0
LINE
5
3f30
8
0-1
6
CONTINUOUS
62
  7
10
4217.490
20
3012.350
30
0.0
11
4523.490
21
3012.350
31
0.0
0
LINE
5
3f31
8
0-1
6
CONTINUOUS
62
  7
10
4217.490
20
3042.350
30
0.0
11
4217.490
21
3012.350
31
0.0
0
LINE
5
3f32
8
0-1
6
CONTINUOUS
62
  7
10
4340.490
20
3044.350
30
0.0
11
4400.490
21
3044.350
31
0.0
0
LINE
5
3f33
8
0-1
6
CONTINUOUS
62
  7
10
4340.490
20
3044.350
30
0.0
11
4340.490
21
3042.350
31
0.0
0
LINE
5
3f34
8
0-1
6
CONTINUOUS
62
  7
10
4400.490
20
3044.350
30
0.0
11
4400.490
21
3042.350
31
0.0
0
LINE
5
3f35
8
0-1
6
CONTINUOUS
62
  7
10
4523.490
20
3042.350
30
0.0
11
4829.490
21
3042.350
31
0.0
0
LINE
5
3f36
8
0-1
6
CONTINUOUS
62
  7
10
4523.490
20
3012.350
30
0.0
11
4829.490
21
3012.350
31
0.0
0
LINE
5
3f37
8
0-1
6
CONTINUOUS
62
  7
10
4646.490
20
3044.350
30
0.0
11
4706.490
21
3044.350
31
0.0
0
LINE
5
3f38
8
0-1
6
CONTINUOUS
62
  7
10
4646.490
20
3044.350
30
0.0
11
4646.490
21
3042.350
31
0.0
0
LINE
5
3f39
8
0-1
6
CONTINUOUS
62
  7
10
4706.490
20
3044.350
30
0.0
11
4706.490
21
3042.350
31
0.0
0
LINE
5
3f3a
8
0-1
6
CONTINUOUS
62
  7
10
4829.490
20
3042.350
30
0.0
11
5135.490
21
3042.350
31
0.0
0
LINE
5
3f3b
8
0-1
6
CONTINUOUS
62
  7
10
4829.490
20
3012.350
30
0.0
11
5135.490
21
3012.350
31
0.0
0
LINE
5
3f3c
8
0-1
6
CONTINUOUS
62
  7
10
4952.490
20
3044.350
30
0.0
11
5012.490
21
3044.350
31
0.0
0
LINE
5
3f3d
8
0-1
6
CONTINUOUS
62
  7
10
4952.490
20
3044.350
30
0.0
11
4952.490
21
3042.350
31
0.0
0
LINE
5
3f3e
8
0-1
6
CONTINUOUS
62
  7
10
5012.490
20
3044.350
30
0.0
11
5012.490
21
3042.350
31
0.0
0
LINE
5
3f3f
8
0-1
6
CONTINUOUS
62
  7
10
5135.490
20
3042.350
30
0.0
11
5441.490
21
3042.350
31
0.0
0
LINE
5
3f40
8
0-1
6
CONTINUOUS
62
  7
10
5135.490
20
3012.350
30
0.0
11
5441.490
21
3012.350
31
0.0
0
LINE
5
3f41
8
0-1
6
CONTINUOUS
62
  7
10
5258.490
20
3044.350
30
0.0
11
5318.490
21
3044.350
31
0.0
0
LINE
5
3f42
8
0-1
6
CONTINUOUS
62
  7
10
5258.490
20
3044.350
30
0.0
11
5258.490
21
3042.350
31
0.0
0
LINE
5
3f43
8
0-1
6
CONTINUOUS
62
  7
10
5318.490
20
3044.350
30
0.0
11
5318.490
21
3042.350
31
0.0
0
LINE
5
3f44
8
0-1
6
CONTINUOUS
62
  7
10
5441.490
20
3042.350
30
0.0
11
5747.490
21
3042.350
31
0.0
0
LINE
5
3f45
8
0-1
6
CONTINUOUS
62
  7
10
5441.490
20
3012.350
30
0.0
11
5747.490
21
3012.350
31
0.0
0
LINE
5
3f46
8
0-1
6
CONTINUOUS
62
  7
10
5564.490
20
3044.350
30
0.0
11
5624.490
21
3044.350
31
0.0
0
LINE
5
3f47
8
0-1
6
CONTINUOUS
62
  7
10
5564.490
20
3044.350
30
0.0
11
5564.490
21
3042.350
31
0.0
0
LINE
5
3f48
8
0-1
6
CONTINUOUS
62
  7
10
5624.490
20
3044.350
30
0.0
11
5624.490
21
3042.350
31
0.0
0
LINE
5
3f49
8
0-1
6
CONTINUOUS
62
  7
10
5747.490
20
3042.350
30
0.0
11
6053.490
21
3042.350
31
0.0
0
LINE
5
3f4a
8
0-1
6
CONTINUOUS
62
  7
10
5747.490
20
3012.350
30
0.0
11
6053.490
21
3012.350
31
0.0
0
LINE
5
3f4b
8
0-1
6
CONTINUOUS
62
  7
10
5870.490
20
3044.350
30
0.0
11
5930.490
21
3044.350
31
0.0
0
LINE
5
3f4c
8
0-1
6
CONTINUOUS
62
  7
10
5870.490
20
3044.350
30
0.0
11
5870.490
21
3042.350
31
0.0
0
LINE
5
3f4d
8
0-1
6
CONTINUOUS
62
  7
10
5930.490
20
3044.350
30
0.0
11
5930.490
21
3042.350
31
0.0
0
LINE
5
3f4e
8
0-1
6
CONTINUOUS
62
  7
10
6053.490
20
3042.350
30
0.0
11
6359.490
21
3042.350
31
0.0
0
LINE
5
3f4f
8
0-1
6
CONTINUOUS
62
  7
10
6053.490
20
3012.350
30
0.0
11
6359.490
21
3012.350
31
0.0
0
LINE
5
3f50
8
0-1
6
CONTINUOUS
62
  7
10
6176.490
20
3044.350
30
0.0
11
6236.490
21
3044.350
31
0.0
0
LINE
5
3f51
8
0-1
6
CONTINUOUS
62
  7
10
6176.490
20
3044.350
30
0.0
11
6176.490
21
3042.350
31
0.0
0
LINE
5
3f52
8
0-1
6
CONTINUOUS
62
  7
10
6236.490
20
3044.350
30
0.0
11
6236.490
21
3042.350
31
0.0
0
LINE
5
3f53
8
0-1
6
CONTINUOUS
62
  7
10
6359.490
20
3042.350
30
0.0
11
6665.490
21
3042.350
31
0.0
0
LINE
5
3f54
8
0-1
6
CONTINUOUS
62
  7
10
6359.490
20
3012.350
30
0.0
11
6665.490
21
3012.350
31
0.0
0
LINE
5
3f55
8
0-1
6
CONTINUOUS
62
  7
10
6482.490
20
3044.350
30
0.0
11
6542.490
21
3044.350
31
0.0
0
LINE
5
3f56
8
0-1
6
CONTINUOUS
62
  7
10
6482.490
20
3044.350
30
0.0
11
6482.490
21
3042.350
31
0.0
0
LINE
5
3f57
8
0-1
6
CONTINUOUS
62
  7
10
6542.490
20
3044.350
30
0.0
11
6542.490
21
3042.350
31
0.0
0
LINE
5
3f58
8
0-1
6
CONTINUOUS
62
  7
10
6665.490
20
3042.350
30
0.0
11
6971.490
21
3042.350
31
0.0
0
LINE
5
3f59
8
0-1
6
CONTINUOUS
62
  7
10
6665.490
20
3012.350
30
0.0
11
6971.490
21
3012.350
31
0.0
0
LINE
5
3f5a
8
0-1
6
CONTINUOUS
62
  7
10
6788.490
20
3044.350
30
0.0
11
6848.490
21
3044.350
31
0.0
0
LINE
5
3f5b
8
0-1
6
CONTINUOUS
62
  7
10
6788.490
20
3044.350
30
0.0
11
6788.490
21
3042.350
31
0.0
0
LINE
5
3f5c
8
0-1
6
CONTINUOUS
62
  7
10
6848.490
20
3044.350
30
0.0
11
6848.490
21
3042.350
31
0.0
0
LINE
5
3f5d
8
0-1
6
CONTINUOUS
62
  7
10
6971.490
20
3042.350
30
0.0
11
7277.490
21
3042.350
31
0.0
0
LINE
5
3f5e
8
0-1
6
CONTINUOUS
62
  7
10
6971.490
20
3012.350
30
0.0
11
7277.490
21
3012.350
31
0.0
0
LINE
5
3f5f
8
0-1
6
CONTINUOUS
62
  7
10
7094.490
20
3044.350
30
0.0
11
7154.490
21
3044.350
31
0.0
0
LINE
5
3f60
8
0-1
6
CONTINUOUS
62
  7
10
7094.490
20
3044.350
30
0.0
11
7094.490
21
3042.350
31
0.0
0
LINE
5
3f61
8
0-1
6
CONTINUOUS
62
  7
10
7154.490
20
3044.350
30
0.0
11
7154.490
21
3042.350
31
0.0
0
LINE
5
3f62
8
0-1
6
CONTINUOUS
62
  7
10
7277.490
20
3042.350
30
0.0
11
7583.490
21
3042.350
31
0.0
0
LINE
5
3f63
8
0-1
6
CONTINUOUS
62
  7
10
7277.490
20
3012.350
30
0.0
11
7583.490
21
3012.350
31
0.0
0
LINE
5
3f64
8
0-1
6
CONTINUOUS
62
  7
10
7400.490
20
3044.350
30
0.0
11
7460.490
21
3044.350
31
0.0
0
LINE
5
3f65
8
0-1
6
CONTINUOUS
62
  7
10
7400.490
20
3044.350
30
0.0
11
7400.490
21
3042.350
31
0.0
0
LINE
5
3f66
8
0-1
6
CONTINUOUS
62
  7
10
7460.490
20
3044.350
30
0.0
11
7460.490
21
3042.350
31
0.0
0
LINE
5
3f67
8
0-1
6
CONTINUOUS
62
  7
10
7583.490
20
3042.350
30
0.0
11
7889.490
21
3042.350
31
0.0
0
LINE
5
3f68
8
0-1
6
CONTINUOUS
62
  7
10
7583.490
20
3012.350
30
0.0
11
7889.490
21
3012.350
31
0.0
0
LINE
5
3f69
8
0-1
6
CONTINUOUS
62
  7
10
7706.490
20
3044.350
30
0.0
11
7766.490
21
3044.350
31
0.0
0
LINE
5
3f6a
8
0-1
6
CONTINUOUS
62
  7
10
7706.490
20
3044.350
30
0.0
11
7706.490
21
3042.350
31
0.0
0
LINE
5
3f6b
8
0-1
6
CONTINUOUS
62
  7
10
7766.490
20
3044.350
30
0.0
11
7766.490
21
3042.350
31
0.0
0
LINE
5
3f6c
8
0-1
6
CONTINUOUS
62
  7
10
8195.490
20
3042.350
30
0.0
11
8195.490
21
3012.350
31
0.0
0
LINE
5
3f6d
8
0-1
6
CONTINUOUS
62
  7
10
7889.490
20
3042.350
30
0.0
11
8195.490
21
3042.350
31
0.0
0
LINE
5
3f6e
8
0-1
6
CONTINUOUS
62
  7
10
7889.490
20
3012.350
30
0.0
11
8195.490
21
3012.350
31
0.0
0
LINE
5
3f6f
8
0-1
6
CONTINUOUS
62
  7
10
8012.490
20
3044.350
30
0.0
11
8072.490
21
3044.350
31
0.0
0
LINE
5
3f70
8
0-1
6
CONTINUOUS
62
  7
10
8012.490
20
3044.350
30
0.0
11
8012.490
21
3042.350
31
0.0
0
LINE
5
3f71
8
0-1
6
CONTINUOUS
62
  7
10
8072.490
20
3044.350
30
0.0
11
8072.490
21
3042.350
31
0.0
0
LINE
5
3f72
8
0-1
6
CONTINUOUS
62
  7
10
8195.490
20
3041.350
30
0.0
11
8195.490
21
3012.350
31
0.0
0
LINE
5
3f73
8
0-1
6
CONTINUOUS
62
  7
10
8195.490
20
3042.350
30
0.0
11
8195.490
21
3012.350
31
0.0
0
LINE
5
3f74
8
0-1
6
CONTINUOUS
62
  7
10
8072.490
20
3044.350
30
0.0
11
8012.490
21
3044.350
31
0.0
0
LINE
5
3f75
8
0-1
6
CONTINUOUS
62
  7
10
8072.490
20
3044.350
30
0.0
11
8072.490
21
3042.350
31
0.0
0
LINE
5
3f76
8
0-1
6
CONTINUOUS
62
  7
10
8012.490
20
3044.350
30
0.0
11
8012.490
21
3042.350
31
0.0
0
LINE
5
3f77
8
0-1
6
CONTINUOUS
62
  7
10
4217.490
20
3272.320
30
0.0
11
4217.490
21
3243.320
31
0.0
0
LINE
5
3f78
8
0-1
6
CONTINUOUS
62
  7
10
4217.490
20
3273.320
30
0.0
11
4523.490
21
3273.320
31
0.0
0
LINE
5
3f79
8
0-1
6
CONTINUOUS
62
  7
10
4217.490
20
3243.320
30
0.0
11
4523.490
21
3243.320
31
0.0
0
LINE
5
3f7a
8
0-1
6
CONTINUOUS
62
  7
10
4217.490
20
3273.320
30
0.0
11
4217.490
21
3243.320
31
0.0
0
LINE
5
3f7b
8
0-1
6
CONTINUOUS
62
  7
10
4340.490
20
3275.320
30
0.0
11
4400.490
21
3275.320
31
0.0
0
LINE
5
3f7c
8
0-1
6
CONTINUOUS
62
  7
10
4340.490
20
3275.320
30
0.0
11
4340.490
21
3273.320
31
0.0
0
LINE
5
3f7d
8
0-1
6
CONTINUOUS
62
  7
10
4400.490
20
3275.320
30
0.0
11
4400.490
21
3273.320
31
0.0
0
LINE
5
3f7e
8
0-1
6
CONTINUOUS
62
  7
10
4523.490
20
3273.320
30
0.0
11
4829.490
21
3273.320
31
0.0
0
LINE
5
3f7f
8
0-1
6
CONTINUOUS
62
  7
10
4523.490
20
3243.320
30
0.0
11
4829.490
21
3243.320
31
0.0
0
LINE
5
3f80
8
0-1
6
CONTINUOUS
62
  7
10
4646.490
20
3275.320
30
0.0
11
4706.490
21
3275.320
31
0.0
0
LINE
5
3f81
8
0-1
6
CONTINUOUS
62
  7
10
4646.490
20
3275.320
30
0.0
11
4646.490
21
3273.320
31
0.0
0
LINE
5
3f82
8
0-1
6
CONTINUOUS
62
  7
10
4706.490
20
3275.320
30
0.0
11
4706.490
21
3273.320
31
0.0
0
LINE
5
3f83
8
0-1
6
CONTINUOUS
62
  7
10
4829.490
20
3273.320
30
0.0
11
5135.490
21
3273.320
31
0.0
0
LINE
5
3f84
8
0-1
6
CONTINUOUS
62
  7
10
4829.490
20
3243.320
30
0.0
11
5135.490
21
3243.320
31
0.0
0
LINE
5
3f85
8
0-1
6
CONTINUOUS
62
  7
10
4952.490
20
3275.320
30
0.0
11
5012.490
21
3275.320
31
0.0
0
LINE
5
3f86
8
0-1
6
CONTINUOUS
62
  7
10
4952.490
20
3275.320
30
0.0
11
4952.490
21
3273.320
31
0.0
0
LINE
5
3f87
8
0-1
6
CONTINUOUS
62
  7
10
5012.490
20
3275.320
30
0.0
11
5012.490
21
3273.320
31
0.0
0
LINE
5
3f88
8
0-1
6
CONTINUOUS
62
  7
10
5135.490
20
3273.320
30
0.0
11
5441.490
21
3273.320
31
0.0
0
LINE
5
3f89
8
0-1
6
CONTINUOUS
62
  7
10
5135.490
20
3243.320
30
0.0
11
5441.490
21
3243.320
31
0.0
0
LINE
5
3f8a
8
0-1
6
CONTINUOUS
62
  7
10
5258.490
20
3275.320
30
0.0
11
5318.490
21
3275.320
31
0.0
0
LINE
5
3f8b
8
0-1
6
CONTINUOUS
62
  7
10
5258.490
20
3275.320
30
0.0
11
5258.490
21
3273.320
31
0.0
0
LINE
5
3f8c
8
0-1
6
CONTINUOUS
62
  7
10
5318.490
20
3275.320
30
0.0
11
5318.490
21
3273.320
31
0.0
0
LINE
5
3f8d
8
0-1
6
CONTINUOUS
62
  7
10
5441.490
20
3273.320
30
0.0
11
5747.490
21
3273.320
31
0.0
0
LINE
5
3f8e
8
0-1
6
CONTINUOUS
62
  7
10
5441.490
20
3243.320
30
0.0
11
5747.490
21
3243.320
31
0.0
0
LINE
5
3f8f
8
0-1
6
CONTINUOUS
62
  7
10
5564.490
20
3275.320
30
0.0
11
5624.490
21
3275.320
31
0.0
0
LINE
5
3f90
8
0-1
6
CONTINUOUS
62
  7
10
5564.490
20
3275.320
30
0.0
11
5564.490
21
3273.320
31
0.0
0
LINE
5
3f91
8
0-1
6
CONTINUOUS
62
  7
10
5624.490
20
3275.320
30
0.0
11
5624.490
21
3273.320
31
0.0
0
LINE
5
3f92
8
0-1
6
CONTINUOUS
62
  7
10
5747.490
20
3273.320
30
0.0
11
6053.490
21
3273.320
31
0.0
0
LINE
5
3f93
8
0-1
6
CONTINUOUS
62
  7
10
5747.490
20
3243.320
30
0.0
11
6053.490
21
3243.320
31
0.0
0
LINE
5
3f94
8
0-1
6
CONTINUOUS
62
  7
10
5870.490
20
3275.320
30
0.0
11
5930.490
21
3275.320
31
0.0
0
LINE
5
3f95
8
0-1
6
CONTINUOUS
62
  7
10
5870.490
20
3275.320
30
0.0
11
5870.490
21
3273.320
31
0.0
0
LINE
5
3f96
8
0-1
6
CONTINUOUS
62
  7
10
5930.490
20
3275.320
30
0.0
11
5930.490
21
3273.320
31
0.0
0
LINE
5
3f97
8
0-1
6
CONTINUOUS
62
  7
10
6053.490
20
3273.320
30
0.0
11
6359.490
21
3273.320
31
0.0
0
LINE
5
3f98
8
0-1
6
CONTINUOUS
62
  7
10
6053.490
20
3243.320
30
0.0
11
6359.490
21
3243.320
31
0.0
0
LINE
5
3f99
8
0-1
6
CONTINUOUS
62
  7
10
6176.490
20
3275.320
30
0.0
11
6236.490
21
3275.320
31
0.0
0
LINE
5
3f9a
8
0-1
6
CONTINUOUS
62
  7
10
6176.490
20
3275.320
30
0.0
11
6176.490
21
3273.320
31
0.0
0
LINE
5
3f9b
8
0-1
6
CONTINUOUS
62
  7
10
6236.490
20
3275.320
30
0.0
11
6236.490
21
3273.320
31
0.0
0
LINE
5
3f9c
8
0-1
6
CONTINUOUS
62
  7
10
6359.490
20
3273.320
30
0.0
11
6665.490
21
3273.320
31
0.0
0
LINE
5
3f9d
8
0-1
6
CONTINUOUS
62
  7
10
6359.490
20
3243.320
30
0.0
11
6665.490
21
3243.320
31
0.0
0
LINE
5
3f9e
8
0-1
6
CONTINUOUS
62
  7
10
6482.490
20
3275.320
30
0.0
11
6542.490
21
3275.320
31
0.0
0
LINE
5
3f9f
8
0-1
6
CONTINUOUS
62
  7
10
6482.490
20
3275.320
30
0.0
11
6482.490
21
3273.320
31
0.0
0
LINE
5
3fa0
8
0-1
6
CONTINUOUS
62
  7
10
6542.490
20
3275.320
30
0.0
11
6542.490
21
3273.320
31
0.0
0
LINE
5
3fa1
8
0-1
6
CONTINUOUS
62
  7
10
6665.490
20
3273.320
30
0.0
11
6971.490
21
3273.320
31
0.0
0
LINE
5
3fa2
8
0-1
6
CONTINUOUS
62
  7
10
6665.490
20
3243.320
30
0.0
11
6971.490
21
3243.320
31
0.0
0
LINE
5
3fa3
8
0-1
6
CONTINUOUS
62
  7
10
6788.490
20
3275.320
30
0.0
11
6848.490
21
3275.320
31
0.0
0
LINE
5
3fa4
8
0-1
6
CONTINUOUS
62
  7
10
6788.490
20
3275.320
30
0.0
11
6788.490
21
3273.320
31
0.0
0
LINE
5
3fa5
8
0-1
6
CONTINUOUS
62
  7
10
6848.490
20
3275.320
30
0.0
11
6848.490
21
3273.320
31
0.0
0
LINE
5
3fa6
8
0-1
6
CONTINUOUS
62
  7
10
6971.490
20
3273.320
30
0.0
11
7277.490
21
3273.320
31
0.0
0
LINE
5
3fa7
8
0-1
6
CONTINUOUS
62
  7
10
6971.490
20
3243.320
30
0.0
11
7277.490
21
3243.320
31
0.0
0
LINE
5
3fa8
8
0-1
6
CONTINUOUS
62
  7
10
7094.490
20
3275.320
30
0.0
11
7154.490
21
3275.320
31
0.0
0
LINE
5
3fa9
8
0-1
6
CONTINUOUS
62
  7
10
7094.490
20
3275.320
30
0.0
11
7094.490
21
3273.320
31
0.0
0
LINE
5
3faa
8
0-1
6
CONTINUOUS
62
  7
10
7154.490
20
3275.320
30
0.0
11
7154.490
21
3273.320
31
0.0
0
LINE
5
3fab
8
0-1
6
CONTINUOUS
62
  7
10
7277.490
20
3273.320
30
0.0
11
7583.490
21
3273.320
31
0.0
0
LINE
5
3fac
8
0-1
6
CONTINUOUS
62
  7
10
7277.490
20
3243.320
30
0.0
11
7583.490
21
3243.320
31
0.0
0
LINE
5
3fad
8
0-1
6
CONTINUOUS
62
  7
10
7400.490
20
3275.320
30
0.0
11
7460.490
21
3275.320
31
0.0
0
LINE
5
3fae
8
0-1
6
CONTINUOUS
62
  7
10
7400.490
20
3275.320
30
0.0
11
7400.490
21
3273.320
31
0.0
0
LINE
5
3faf
8
0-1
6
CONTINUOUS
62
  7
10
7460.490
20
3275.320
30
0.0
11
7460.490
21
3273.320
31
0.0
0
LINE
5
3fb0
8
0-1
6
CONTINUOUS
62
  7
10
7583.490
20
3273.320
30
0.0
11
7889.490
21
3273.320
31
0.0
0
LINE
5
3fb1
8
0-1
6
CONTINUOUS
62
  7
10
7583.490
20
3243.320
30
0.0
11
7889.490
21
3243.320
31
0.0
0
LINE
5
3fb2
8
0-1
6
CONTINUOUS
62
  7
10
7706.490
20
3275.320
30
0.0
11
7766.490
21
3275.320
31
0.0
0
LINE
5
3fb3
8
0-1
6
CONTINUOUS
62
  7
10
7706.490
20
3275.320
30
0.0
11
7706.490
21
3273.320
31
0.0
0
LINE
5
3fb4
8
0-1
6
CONTINUOUS
62
  7
10
7766.490
20
3275.320
30
0.0
11
7766.490
21
3273.320
31
0.0
0
LINE
5
3fb5
8
0-1
6
CONTINUOUS
62
  7
10
8195.490
20
3273.320
30
0.0
11
8195.490
21
3243.320
31
0.0
0
LINE
5
3fb6
8
0-1
6
CONTINUOUS
62
  7
10
7889.490
20
3273.320
30
0.0
11
8195.490
21
3273.320
31
0.0
0
LINE
5
3fb7
8
0-1
6
CONTINUOUS
62
  7
10
7889.490
20
3243.320
30
0.0
11
8195.490
21
3243.320
31
0.0
0
LINE
5
3fb8
8
0-1
6
CONTINUOUS
62
  7
10
8012.490
20
3275.320
30
0.0
11
8072.490
21
3275.320
31
0.0
0
LINE
5
3fb9
8
0-1
6
CONTINUOUS
62
  7
10
8012.490
20
3275.320
30
0.0
11
8012.490
21
3273.320
31
0.0
0
LINE
5
3fba
8
0-1
6
CONTINUOUS
62
  7
10
8072.490
20
3275.320
30
0.0
11
8072.490
21
3273.320
31
0.0
0
LINE
5
3fbb
8
0-1
6
CONTINUOUS
62
  7
10
8195.490
20
3272.320
30
0.0
11
8195.490
21
3243.320
31
0.0
0
LINE
5
3fbc
8
0-1
6
CONTINUOUS
62
  7
10
8195.490
20
3273.320
30
0.0
11
8195.490
21
3243.320
31
0.0
0
LINE
5
3fbd
8
0-1
6
CONTINUOUS
62
  7
10
8072.490
20
3275.320
30
0.0
11
8012.490
21
3275.320
31
0.0
0
LINE
5
3fbe
8
0-1
6
CONTINUOUS
62
  7
10
8072.490
20
3275.320
30
0.0
11
8072.490
21
3273.320
31
0.0
0
LINE
5
3fbf
8
0-1
6
CONTINUOUS
62
  7
10
8012.490
20
3275.320
30
0.0
11
8012.490
21
3273.320
31
0.0
0
LINE
5
3fc0
8
ADD_LINE
6
HIDDEN
62
  3
10
4217.490
20
2464.930
30
0.0
11
4433.770
21
2464.930
31
0.0
0
LINE
5
3fc1
8
0-1
6
CONTINUOUS
62
  7
10
4370.490
20
2464.930
30
0.0
11
4676.490
21
2464.930
31
0.0
0
LINE
5
3fc2
8
0-1
6
CONTINUOUS
62
  7
10
4493.490
20
2466.930
30
0.0
11
4553.490
21
2466.930
31
0.0
0
LINE
5
3fc3
8
0-1
6
CONTINUOUS
62
  7
10
4493.490
20
2466.930
30
0.0
11
4493.490
21
2464.930
31
0.0
0
LINE
5
3fc4
8
0-1
6
CONTINUOUS
62
  7
10
4553.490
20
2466.930
30
0.0
11
4553.490
21
2464.930
31
0.0
0
LINE
5
3fc5
8
0-1
6
CONTINUOUS
62
  7
10
4676.490
20
2464.930
30
0.0
11
4982.490
21
2464.930
31
0.0
0
LINE
5
3fc6
8
0-1
6
CONTINUOUS
62
  7
10
4676.490
20
2434.930
30
0.0
11
4982.490
21
2434.930
31
0.0
0
LINE
5
3fc7
8
0-1
6
CONTINUOUS
62
  7
10
4799.490
20
2466.930
30
0.0
11
4859.490
21
2466.930
31
0.0
0
LINE
5
3fc8
8
0-1
6
CONTINUOUS
62
  7
10
4799.490
20
2466.930
30
0.0
11
4799.490
21
2464.930
31
0.0
0
LINE
5
3fc9
8
0-1
6
CONTINUOUS
62
  7
10
4859.490
20
2466.930
30
0.0
11
4859.490
21
2464.930
31
0.0
0
LINE
5
3fca
8
0-1
6
CONTINUOUS
62
  7
10
4676.490
20
2464.930
30
0.0
11
4676.490
21
2434.930
31
0.0
0
LINE
5
3fcb
8
0-1
6
CONTINUOUS
62
  7
10
4982.490
20
2464.930
30
0.0
11
5288.490
21
2464.930
31
0.0
0
LINE
5
3fcc
8
0-1
6
CONTINUOUS
62
  7
10
4982.490
20
2434.930
30
0.0
11
5288.490
21
2434.930
31
0.0
0
LINE
5
3fcd
8
0-1
6
CONTINUOUS
62
  7
10
5105.490
20
2466.930
30
0.0
11
5165.490
21
2466.930
31
0.0
0
LINE
5
3fce
8
0-1
6
CONTINUOUS
62
  7
10
5105.490
20
2466.930
30
0.0
11
5105.490
21
2464.930
31
0.0
0
LINE
5
3fcf
8
0-1
6
CONTINUOUS
62
  7
10
5165.490
20
2466.930
30
0.0
11
5165.490
21
2464.930
31
0.0
0
LINE
5
3fd0
8
0-1
6
CONTINUOUS
62
  7
10
4982.490
20
2464.930
30
0.0
11
4982.490
21
2434.930
31
0.0
0
LINE
5
3fd1
8
0-1
6
CONTINUOUS
62
  7
10
5288.490
20
2464.930
30
0.0
11
5594.490
21
2464.930
31
0.0
0
LINE
5
3fd2
8
0-1
6
CONTINUOUS
62
  7
10
5288.490
20
2434.930
30
0.0
11
5594.490
21
2434.930
31
0.0
0
LINE
5
3fd3
8
0-1
6
CONTINUOUS
62
  7
10
5411.490
20
2466.930
30
0.0
11
5471.490
21
2466.930
31
0.0
0
LINE
5
3fd4
8
0-1
6
CONTINUOUS
62
  7
10
5411.490
20
2466.930
30
0.0
11
5411.490
21
2464.930
31
0.0
0
LINE
5
3fd5
8
0-1
6
CONTINUOUS
62
  7
10
5471.490
20
2466.930
30
0.0
11
5471.490
21
2464.930
31
0.0
0
LINE
5
3fd6
8
0-1
6
CONTINUOUS
62
  7
10
5288.490
20
2464.930
30
0.0
11
5288.490
21
2434.930
31
0.0
0
LINE
5
3fd7
8
0-1
6
CONTINUOUS
62
  7
10
5594.490
20
2464.930
30
0.0
11
5900.490
21
2464.930
31
0.0
0
LINE
5
3fd8
8
0-1
6
CONTINUOUS
62
  7
10
5594.490
20
2434.930
30
0.0
11
5900.490
21
2434.930
31
0.0
0
LINE
5
3fd9
8
0-1
6
CONTINUOUS
62
  7
10
5717.490
20
2466.930
30
0.0
11
5777.490
21
2466.930
31
0.0
0
LINE
5
3fda
8
0-1
6
CONTINUOUS
62
  7
10
5717.490
20
2466.930
30
0.0
11
5717.490
21
2464.930
31
0.0
0
LINE
5
3fdb
8
0-1
6
CONTINUOUS
62
  7
10
5777.490
20
2466.930
30
0.0
11
5777.490
21
2464.930
31
0.0
0
LINE
5
3fdc
8
0-1
6
CONTINUOUS
62
  7
10
5594.490
20
2464.930
30
0.0
11
5594.490
21
2434.930
31
0.0
0
LINE
5
3fdd
8
0-1
6
CONTINUOUS
62
  7
10
5900.490
20
2464.930
30
0.0
11
6206.490
21
2464.930
31
0.0
0
LINE
5
3fde
8
0-1
6
CONTINUOUS
62
  7
10
5900.490
20
2434.930
30
0.0
11
6206.490
21
2434.930
31
0.0
0
LINE
5
3fdf
8
0-1
6
CONTINUOUS
62
  7
10
6023.490
20
2466.930
30
0.0
11
6083.490
21
2466.930
31
0.0
0
LINE
5
3fe0
8
0-1
6
CONTINUOUS
62
  7
10
6023.490
20
2466.930
30
0.0
11
6023.490
21
2464.930
31
0.0
0
LINE
5
3fe1
8
0-1
6
CONTINUOUS
62
  7
10
6083.490
20
2466.930
30
0.0
11
6083.490
21
2464.930
31
0.0
0
LINE
5
3fe2
8
0-1
6
CONTINUOUS
62
  7
10
5900.490
20
2464.930
30
0.0
11
5900.490
21
2434.930
31
0.0
0
LINE
5
3fe3
8
0-1
6
CONTINUOUS
62
  7
10
6206.490
20
2464.930
30
0.0
11
6512.490
21
2464.930
31
0.0
0
LINE
5
3fe4
8
0-1
6
CONTINUOUS
62
  7
10
6206.490
20
2434.930
30
0.0
11
6512.490
21
2434.930
31
0.0
0
LINE
5
3fe5
8
0-1
6
CONTINUOUS
62
  7
10
6329.490
20
2466.930
30
0.0
11
6389.490
21
2466.930
31
0.0
0
LINE
5
3fe6
8
0-1
6
CONTINUOUS
62
  7
10
6329.490
20
2466.930
30
0.0
11
6329.490
21
2464.930
31
0.0
0
LINE
5
3fe7
8
0-1
6
CONTINUOUS
62
  7
10
6389.490
20
2466.930
30
0.0
11
6389.490
21
2464.930
31
0.0
0
LINE
5
3fe8
8
0-1
6
CONTINUOUS
62
  7
10
6206.490
20
2464.930
30
0.0
11
6206.490
21
2434.930
31
0.0
0
LINE
5
3fe9
8
0-1
6
CONTINUOUS
62
  7
10
6512.490
20
2464.930
30
0.0
11
6818.490
21
2464.930
31
0.0
0
LINE
5
3fea
8
0-1
6
CONTINUOUS
62
  7
10
6512.490
20
2434.930
30
0.0
11
6818.490
21
2434.930
31
0.0
0
LINE
5
3feb
8
0-1
6
CONTINUOUS
62
  7
10
6635.490
20
2466.930
30
0.0
11
6695.490
21
2466.930
31
0.0
0
LINE
5
3fec
8
0-1
6
CONTINUOUS
62
  7
10
6635.490
20
2466.930
30
0.0
11
6635.490
21
2464.930
31
0.0
0
LINE
5
3fed
8
0-1
6
CONTINUOUS
62
  7
10
6695.490
20
2466.930
30
0.0
11
6695.490
21
2464.930
31
0.0
0
LINE
5
3fee
8
0-1
6
CONTINUOUS
62
  7
10
6512.490
20
2464.930
30
0.0
11
6512.490
21
2434.930
31
0.0
0
LINE
5
3fef
8
0-1
6
CONTINUOUS
62
  7
10
6818.490
20
2464.930
30
0.0
11
7124.490
21
2464.930
31
0.0
0
LINE
5
3ff0
8
0-1
6
CONTINUOUS
62
  7
10
6818.490
20
2434.930
30
0.0
11
7124.490
21
2434.930
31
0.0
0
LINE
5
3ff1
8
0-1
6
CONTINUOUS
62
  7
10
6941.490
20
2466.930
30
0.0
11
7001.490
21
2466.930
31
0.0
0
LINE
5
3ff2
8
0-1
6
CONTINUOUS
62
  7
10
6941.490
20
2466.930
30
0.0
11
6941.490
21
2464.930
31
0.0
0
LINE
5
3ff3
8
0-1
6
CONTINUOUS
62
  7
10
7001.490
20
2466.930
30
0.0
11
7001.490
21
2464.930
31
0.0
0
LINE
5
3ff4
8
0-1
6
CONTINUOUS
62
  7
10
6818.490
20
2464.930
30
0.0
11
6818.490
21
2434.930
31
0.0
0
LINE
5
3ff5
8
0-1
6
CONTINUOUS
62
  7
10
7124.490
20
2464.930
30
0.0
11
7430.490
21
2464.930
31
0.0
0
LINE
5
3ff6
8
0-1
6
CONTINUOUS
62
  7
10
7124.490
20
2434.930
30
0.0
11
7430.490
21
2434.930
31
0.0
0
LINE
5
3ff7
8
0-1
6
CONTINUOUS
62
  7
10
7247.490
20
2466.930
30
0.0
11
7307.490
21
2466.930
31
0.0
0
LINE
5
3ff8
8
0-1
6
CONTINUOUS
62
  7
10
7247.490
20
2466.930
30
0.0
11
7247.490
21
2464.930
31
0.0
0
LINE
5
3ff9
8
0-1
6
CONTINUOUS
62
  7
10
7307.490
20
2466.930
30
0.0
11
7307.490
21
2464.930
31
0.0
0
LINE
5
3ffa
8
0-1
6
CONTINUOUS
62
  7
10
7124.490
20
2464.930
30
0.0
11
7124.490
21
2434.930
31
0.0
0
LINE
5
3ffb
8
0-1
6
CONTINUOUS
62
  7
10
7430.490
20
2464.930
30
0.0
11
7736.490
21
2464.930
31
0.0
0
LINE
5
3ffc
8
0-1
6
CONTINUOUS
62
  7
10
7430.490
20
2434.930
30
0.0
11
7736.490
21
2434.930
31
0.0
0
LINE
5
3ffd
8
0-1
6
CONTINUOUS
62
  7
10
7553.490
20
2466.930
30
0.0
11
7613.490
21
2466.930
31
0.0
0
LINE
5
3ffe
8
0-1
6
CONTINUOUS
62
  7
10
7553.490
20
2466.930
30
0.0
11
7553.490
21
2464.930
31
0.0
0
LINE
5
3fff
8
0-1
6
CONTINUOUS
62
  7
10
7613.490
20
2466.930
30
0.0
11
7613.490
21
2464.930
31
0.0
0
LINE
5
4000
8
0-1
6
CONTINUOUS
62
  7
10
7430.490
20
2464.930
30
0.0
11
7430.490
21
2434.930
31
0.0
0
LINE
5
4001
8
0-1
6
CONTINUOUS
62
  7
10
7736.490
20
2464.930
30
0.0
11
8042.490
21
2464.930
31
0.0
0
LINE
5
4002
8
0-1
6
CONTINUOUS
62
  7
10
7736.490
20
2434.930
30
0.0
11
8042.490
21
2434.930
31
0.0
0
LINE
5
4003
8
0-1
6
CONTINUOUS
62
  7
10
7859.490
20
2466.930
30
0.0
11
7919.490
21
2466.930
31
0.0
0
LINE
5
4004
8
0-1
6
CONTINUOUS
62
  7
10
7859.490
20
2466.930
30
0.0
11
7859.490
21
2464.930
31
0.0
0
LINE
5
4005
8
0-1
6
CONTINUOUS
62
  7
10
7919.490
20
2466.930
30
0.0
11
7919.490
21
2464.930
31
0.0
0
LINE
5
4006
8
0-1
6
CONTINUOUS
62
  7
10
7736.490
20
2464.930
30
0.0
11
7736.490
21
2434.930
31
0.0
0
LINE
5
4007
8
0-1
6
CONTINUOUS
62
  7
10
8165.490
20
2466.930
30
0.0
11
8165.490
21
2464.930
31
0.0
0
LINE
5
4008
8
0-1
6
CONTINUOUS
62
  7
10
8042.490
20
2464.930
30
0.0
11
8042.490
21
2434.930
31
0.0
0
LINE
5
4009
8
0-1
6
CONTINUOUS
62
  7
10
8042.490
20
2434.930
30
0.0
11
8195.490
21
2434.930
31
0.0
0
LINE
5
400a
8
0-2
6
CONTINUOUS
62
  7
10
8042.490
20
2464.930
30
0.0
11
8195.490
21
2464.930
31
0.0
0
LINE
5
400b
8
0-1
6
CONTINUOUS
62
  7
10
8165.490
20
2466.930
30
0.0
11
8195.490
21
2466.930
31
0.0
0
LINE
5
400c
8
0-1
6
CONTINUOUS
62
  7
10
4370.490
20
2464.930
30
0.0
11
4370.490
21
2434.930
31
0.0
0
LINE
5
400d
8
0-1
6
CONTINUOUS
62
  7
10
4247.490
20
2466.930
30
0.0
11
4247.490
21
2464.930
31
0.0
0
LINE
5
400e
8
0-1
6
CONTINUOUS
62
  7
10
4370.490
20
2464.930
30
0.0
11
4370.490
21
2434.930
31
0.0
0
LINE
5
400f
8
0-1
6
CONTINUOUS
62
  7
10
4217.490
20
2464.930
30
0.0
11
4370.490
21
2464.930
31
0.0
0
LINE
5
4010
8
0-1
6
CONTINUOUS
62
  7
10
4217.490
20
2466.930
30
0.0
11
4247.490
21
2466.930
31
0.0
0
LINE
5
4011
8
0-1
6
CONTINUOUS
62
  7
10
4217.490
20
2434.930
30
0.0
11
4370.490
21
2434.930
31
0.0
0
LINE
5
4012
8
0-1
6
CONTINUOUS
62
  7
10
4370.490
20
2434.930
30
0.0
11
4676.490
21
2434.930
31
0.0
0
LINE
5
4013
8
ADD_LINE
6
HIDDEN
62
  3
10
4217.490
20
2695.900
30
0.0
11
4433.770
21
2695.900
31
0.0
0
LINE
5
4014
8
0-1
6
CONTINUOUS
62
  7
10
4370.490
20
2695.900
30
0.0
11
4676.490
21
2695.900
31
0.0
0
LINE
5
4015
8
0-1
6
CONTINUOUS
62
  7
10
4493.490
20
2697.900
30
0.0
11
4553.490
21
2697.900
31
0.0
0
LINE
5
4016
8
0-1
6
CONTINUOUS
62
  7
10
4493.490
20
2697.900
30
0.0
11
4493.490
21
2695.900
31
0.0
0
LINE
5
4017
8
0-1
6
CONTINUOUS
62
  7
10
4553.490
20
2697.900
30
0.0
11
4553.490
21
2695.900
31
0.0
0
LINE
5
4018
8
0-1
6
CONTINUOUS
62
  7
10
4676.490
20
2695.900
30
0.0
11
4982.490
21
2695.900
31
0.0
0
LINE
5
4019
8
0-1
6
CONTINUOUS
62
  7
10
4676.490
20
2665.900
30
0.0
11
4982.490
21
2665.900
31
0.0
0
LINE
5
401a
8
0-1
6
CONTINUOUS
62
  7
10
4799.490
20
2697.900
30
0.0
11
4859.490
21
2697.900
31
0.0
0
LINE
5
401b
8
0-1
6
CONTINUOUS
62
  7
10
4799.490
20
2697.900
30
0.0
11
4799.490
21
2695.900
31
0.0
0
LINE
5
401c
8
0-1
6
CONTINUOUS
62
  7
10
4859.490
20
2697.900
30
0.0
11
4859.490
21
2695.900
31
0.0
0
LINE
5
401d
8
0-1
6
CONTINUOUS
62
  7
10
4676.490
20
2695.900
30
0.0
11
4676.490
21
2665.900
31
0.0
0
LINE
5
401e
8
0-1
6
CONTINUOUS
62
  7
10
4982.490
20
2695.900
30
0.0
11
5288.490
21
2695.900
31
0.0
0
LINE
5
401f
8
0-1
6
CONTINUOUS
62
  7
10
4982.490
20
2665.900
30
0.0
11
5288.490
21
2665.900
31
0.0
0
LINE
5
4020
8
0-1
6
CONTINUOUS
62
  7
10
5105.490
20
2697.900
30
0.0
11
5165.490
21
2697.900
31
0.0
0
LINE
5
4021
8
0-1
6
CONTINUOUS
62
  7
10
5105.490
20
2697.900
30
0.0
11
5105.490
21
2695.900
31
0.0
0
LINE
5
4022
8
0-1
6
CONTINUOUS
62
  7
10
5165.490
20
2697.900
30
0.0
11
5165.490
21
2695.900
31
0.0
0
LINE
5
4023
8
0-1
6
CONTINUOUS
62
  7
10
4982.490
20
2695.900
30
0.0
11
4982.490
21
2665.900
31
0.0
0
LINE
5
4024
8
0-1
6
CONTINUOUS
62
  7
10
5288.490
20
2695.900
30
0.0
11
5594.490
21
2695.900
31
0.0
0
LINE
5
4025
8
0-1
6
CONTINUOUS
62
  7
10
5288.490
20
2665.900
30
0.0
11
5594.490
21
2665.900
31
0.0
0
LINE
5
4026
8
0-1
6
CONTINUOUS
62
  7
10
5411.490
20
2697.900
30
0.0
11
5471.490
21
2697.900
31
0.0
0
LINE
5
4027
8
0-1
6
CONTINUOUS
62
  7
10
5411.490
20
2697.900
30
0.0
11
5411.490
21
2695.900
31
0.0
0
LINE
5
4028
8
0-1
6
CONTINUOUS
62
  7
10
5471.490
20
2697.900
30
0.0
11
5471.490
21
2695.900
31
0.0
0
LINE
5
4029
8
0-1
6
CONTINUOUS
62
  7
10
5288.490
20
2695.900
30
0.0
11
5288.490
21
2665.900
31
0.0
0
LINE
5
402a
8
0-1
6
CONTINUOUS
62
  7
10
5594.490
20
2695.900
30
0.0
11
5900.490
21
2695.900
31
0.0
0
LINE
5
402b
8
0-1
6
CONTINUOUS
62
  7
10
5594.490
20
2665.900
30
0.0
11
5900.490
21
2665.900
31
0.0
0
LINE
5
402c
8
0-1
6
CONTINUOUS
62
  7
10
5717.490
20
2697.900
30
0.0
11
5777.490
21
2697.900
31
0.0
0
LINE
5
402d
8
0-1
6
CONTINUOUS
62
  7
10
5717.490
20
2697.900
30
0.0
11
5717.490
21
2695.900
31
0.0
0
LINE
5
402e
8
0-1
6
CONTINUOUS
62
  7
10
5777.490
20
2697.900
30
0.0
11
5777.490
21
2695.900
31
0.0
0
LINE
5
402f
8
0-1
6
CONTINUOUS
62
  7
10
5594.490
20
2695.900
30
0.0
11
5594.490
21
2665.900
31
0.0
0
LINE
5
4030
8
0-1
6
CONTINUOUS
62
  7
10
5900.490
20
2695.900
30
0.0
11
6206.490
21
2695.900
31
0.0
0
LINE
5
4031
8
0-1
6
CONTINUOUS
62
  7
10
5900.490
20
2665.900
30
0.0
11
6206.490
21
2665.900
31
0.0
0
LINE
5
4032
8
0-1
6
CONTINUOUS
62
  7
10
6023.490
20
2697.900
30
0.0
11
6083.490
21
2697.900
31
0.0
0
LINE
5
4033
8
0-1
6
CONTINUOUS
62
  7
10
6023.490
20
2697.900
30
0.0
11
6023.490
21
2695.900
31
0.0
0
LINE
5
4034
8
0-1
6
CONTINUOUS
62
  7
10
6083.490
20
2697.900
30
0.0
11
6083.490
21
2695.900
31
0.0
0
LINE
5
4035
8
0-1
6
CONTINUOUS
62
  7
10
5900.490
20
2695.900
30
0.0
11
5900.490
21
2665.900
31
0.0
0
LINE
5
4036
8
0-1
6
CONTINUOUS
62
  7
10
6206.490
20
2695.900
30
0.0
11
6512.490
21
2695.900
31
0.0
0
LINE
5
4037
8
0-1
6
CONTINUOUS
62
  7
10
6206.490
20
2665.900
30
0.0
11
6512.490
21
2665.900
31
0.0
0
LINE
5
4038
8
0-1
6
CONTINUOUS
62
  7
10
6329.490
20
2697.900
30
0.0
11
6389.490
21
2697.900
31
0.0
0
LINE
5
4039
8
0-1
6
CONTINUOUS
62
  7
10
6329.490
20
2697.900
30
0.0
11
6329.490
21
2695.900
31
0.0
0
LINE
5
403a
8
0-1
6
CONTINUOUS
62
  7
10
6389.490
20
2697.900
30
0.0
11
6389.490
21
2695.900
31
0.0
0
LINE
5
403b
8
0-1
6
CONTINUOUS
62
  7
10
6206.490
20
2695.900
30
0.0
11
6206.490
21
2665.900
31
0.0
0
LINE
5
403c
8
0-1
6
CONTINUOUS
62
  7
10
6512.490
20
2695.900
30
0.0
11
6818.490
21
2695.900
31
0.0
0
LINE
5
403d
8
0-1
6
CONTINUOUS
62
  7
10
6512.490
20
2665.900
30
0.0
11
6818.490
21
2665.900
31
0.0
0
LINE
5
403e
8
0-1
6
CONTINUOUS
62
  7
10
6635.490
20
2697.900
30
0.0
11
6695.490
21
2697.900
31
0.0
0
LINE
5
403f
8
0-1
6
CONTINUOUS
62
  7
10
6635.490
20
2697.900
30
0.0
11
6635.490
21
2695.900
31
0.0
0
LINE
5
4040
8
0-1
6
CONTINUOUS
62
  7
10
6695.490
20
2697.900
30
0.0
11
6695.490
21
2695.900
31
0.0
0
LINE
5
4041
8
0-1
6
CONTINUOUS
62
  7
10
6512.490
20
2695.900
30
0.0
11
6512.490
21
2665.900
31
0.0
0
LINE
5
4042
8
0-1
6
CONTINUOUS
62
  7
10
6818.490
20
2695.900
30
0.0
11
7124.490
21
2695.900
31
0.0
0
LINE
5
4043
8
0-1
6
CONTINUOUS
62
  7
10
6818.490
20
2665.900
30
0.0
11
7124.490
21
2665.900
31
0.0
0
LINE
5
4044
8
0-1
6
CONTINUOUS
62
  7
10
6941.490
20
2697.900
30
0.0
11
7001.490
21
2697.900
31
0.0
0
LINE
5
4045
8
0-1
6
CONTINUOUS
62
  7
10
6941.490
20
2697.900
30
0.0
11
6941.490
21
2695.900
31
0.0
0
LINE
5
4046
8
0-1
6
CONTINUOUS
62
  7
10
7001.490
20
2697.900
30
0.0
11
7001.490
21
2695.900
31
0.0
0
LINE
5
4047
8
0-1
6
CONTINUOUS
62
  7
10
6818.490
20
2695.900
30
0.0
11
6818.490
21
2665.900
31
0.0
0
LINE
5
4048
8
0-1
6
CONTINUOUS
62
  7
10
7124.490
20
2695.900
30
0.0
11
7430.490
21
2695.900
31
0.0
0
LINE
5
4049
8
0-1
6
CONTINUOUS
62
  7
10
7124.490
20
2665.900
30
0.0
11
7430.490
21
2665.900
31
0.0
0
LINE
5
404a
8
0-1
6
CONTINUOUS
62
  7
10
7247.490
20
2697.900
30
0.0
11
7307.490
21
2697.900
31
0.0
0
LINE
5
404b
8
0-1
6
CONTINUOUS
62
  7
10
7247.490
20
2697.900
30
0.0
11
7247.490
21
2695.900
31
0.0
0
LINE
5
404c
8
0-1
6
CONTINUOUS
62
  7
10
7307.490
20
2697.900
30
0.0
11
7307.490
21
2695.900
31
0.0
0
LINE
5
404d
8
0-1
6
CONTINUOUS
62
  7
10
7124.490
20
2695.900
30
0.0
11
7124.490
21
2665.900
31
0.0
0
LINE
5
404e
8
0-1
6
CONTINUOUS
62
  7
10
7430.490
20
2695.900
30
0.0
11
7736.490
21
2695.900
31
0.0
0
LINE
5
404f
8
0-1
6
CONTINUOUS
62
  7
10
7430.490
20
2665.900
30
0.0
11
7736.490
21
2665.900
31
0.0
0
LINE
5
4050
8
0-1
6
CONTINUOUS
62
  7
10
7553.490
20
2697.900
30
0.0
11
7613.490
21
2697.900
31
0.0
0
LINE
5
4051
8
0-1
6
CONTINUOUS
62
  7
10
7553.490
20
2697.900
30
0.0
11
7553.490
21
2695.900
31
0.0
0
LINE
5
4052
8
0-1
6
CONTINUOUS
62
  7
10
7613.490
20
2697.900
30
0.0
11
7613.490
21
2695.900
31
0.0
0
LINE
5
4053
8
0-1
6
CONTINUOUS
62
  7
10
7430.490
20
2695.900
30
0.0
11
7430.490
21
2665.900
31
0.0
0
LINE
5
4054
8
0-1
6
CONTINUOUS
62
  7
10
7736.490
20
2695.900
30
0.0
11
8042.490
21
2695.900
31
0.0
0
LINE
5
4055
8
0-1
6
CONTINUOUS
62
  7
10
7736.490
20
2665.900
30
0.0
11
8042.490
21
2665.900
31
0.0
0
LINE
5
4056
8
0-1
6
CONTINUOUS
62
  7
10
7859.490
20
2697.900
30
0.0
11
7919.490
21
2697.900
31
0.0
0
LINE
5
4057
8
0-1
6
CONTINUOUS
62
  7
10
7859.490
20
2697.900
30
0.0
11
7859.490
21
2695.900
31
0.0
0
LINE
5
4058
8
0-1
6
CONTINUOUS
62
  7
10
7919.490
20
2697.900
30
0.0
11
7919.490
21
2695.900
31
0.0
0
LINE
5
4059
8
0-1
6
CONTINUOUS
62
  7
10
7736.490
20
2695.900
30
0.0
11
7736.490
21
2665.900
31
0.0
0
LINE
5
405a
8
0-1
6
CONTINUOUS
62
  7
10
8165.490
20
2697.900
30
0.0
11
8165.490
21
2695.900
31
0.0
0
LINE
5
405b
8
0-1
6
CONTINUOUS
62
  7
10
8042.490
20
2695.900
30
0.0
11
8042.490
21
2665.900
31
0.0
0
LINE
5
405c
8
0-1
6
CONTINUOUS
62
  7
10
8042.490
20
2665.900
30
0.0
11
8195.490
21
2665.900
31
0.0
0
LINE
5
405d
8
0-2
6
CONTINUOUS
62
  7
10
8042.490
20
2695.900
30
0.0
11
8195.490
21
2695.900
31
0.0
0
LINE
5
405e
8
0-1
6
CONTINUOUS
62
  7
10
8165.490
20
2697.900
30
0.0
11
8195.490
21
2697.900
31
0.0
0
LINE
5
405f
8
0-1
6
CONTINUOUS
62
  7
10
4370.490
20
2695.900
30
0.0
11
4370.490
21
2665.900
31
0.0
0
LINE
5
4060
8
0-1
6
CONTINUOUS
62
  7
10
4247.490
20
2697.900
30
0.0
11
4247.490
21
2695.900
31
0.0
0
LINE
5
4061
8
0-1
6
CONTINUOUS
62
  7
10
4370.490
20
2695.900
30
0.0
11
4370.490
21
2665.900
31
0.0
0
LINE
5
4062
8
0-1
6
CONTINUOUS
62
  7
10
4217.490
20
2695.900
30
0.0
11
4370.490
21
2695.900
31
0.0
0
LINE
5
4063
8
0-1
6
CONTINUOUS
62
  7
10
4217.490
20
2697.900
30
0.0
11
4247.490
21
2697.900
31
0.0
0
LINE
5
4064
8
0-1
6
CONTINUOUS
62
  7
10
4217.490
20
2665.900
30
0.0
11
4370.490
21
2665.900
31
0.0
0
LINE
5
4065
8
0-1
6
CONTINUOUS
62
  7
10
4370.490
20
2665.900
30
0.0
11
4676.490
21
2665.900
31
0.0
0
LINE
5
4066
8
ADD_LINE
6
HIDDEN
62
  3
10
4217.490
20
2926.870
30
0.0
11
4433.770
21
2926.870
31
0.0
0
LINE
5
4067
8
0-1
6
CONTINUOUS
62
  7
10
4370.490
20
2926.870
30
0.0
11
4676.490
21
2926.870
31
0.0
0
LINE
5
4068
8
0-1
6
CONTINUOUS
62
  7
10
4493.490
20
2928.870
30
0.0
11
4553.490
21
2928.870
31
0.0
0
LINE
5
4069
8
0-1
6
CONTINUOUS
62
  7
10
4493.490
20
2928.870
30
0.0
11
4493.490
21
2926.870
31
0.0
0
LINE
5
406a
8
0-1
6
CONTINUOUS
62
  7
10
4553.490
20
2928.870
30
0.0
11
4553.490
21
2926.870
31
0.0
0
LINE
5
406b
8
0-1
6
CONTINUOUS
62
  7
10
4676.490
20
2926.870
30
0.0
11
4982.490
21
2926.870
31
0.0
0
LINE
5
406c
8
0-1
6
CONTINUOUS
62
  7
10
4676.490
20
2896.870
30
0.0
11
4982.490
21
2896.870
31
0.0
0
LINE
5
406d
8
0-1
6
CONTINUOUS
62
  7
10
4799.490
20
2928.870
30
0.0
11
4859.490
21
2928.870
31
0.0
0
LINE
5
406e
8
0-1
6
CONTINUOUS
62
  7
10
4799.490
20
2928.870
30
0.0
11
4799.490
21
2926.870
31
0.0
0
LINE
5
406f
8
0-1
6
CONTINUOUS
62
  7
10
4859.490
20
2928.870
30
0.0
11
4859.490
21
2926.870
31
0.0
0
LINE
5
4070
8
0-1
6
CONTINUOUS
62
  7
10
4676.490
20
2926.870
30
0.0
11
4676.490
21
2896.870
31
0.0
0
LINE
5
4071
8
0-1
6
CONTINUOUS
62
  7
10
4982.490
20
2926.870
30
0.0
11
5288.490
21
2926.870
31
0.0
0
LINE
5
4072
8
0-1
6
CONTINUOUS
62
  7
10
4982.490
20
2896.870
30
0.0
11
5288.490
21
2896.870
31
0.0
0
LINE
5
4073
8
0-1
6
CONTINUOUS
62
  7
10
5105.490
20
2928.870
30
0.0
11
5165.490
21
2928.870
31
0.0
0
LINE
5
4074
8
0-1
6
CONTINUOUS
62
  7
10
5105.490
20
2928.870
30
0.0
11
5105.490
21
2926.870
31
0.0
0
LINE
5
4075
8
0-1
6
CONTINUOUS
62
  7
10
5165.490
20
2928.870
30
0.0
11
5165.490
21
2926.870
31
0.0
0
LINE
5
4076
8
0-1
6
CONTINUOUS
62
  7
10
4982.490
20
2926.870
30
0.0
11
4982.490
21
2896.870
31
0.0
0
LINE
5
4077
8
0-1
6
CONTINUOUS
62
  7
10
5288.490
20
2926.870
30
0.0
11
5594.490
21
2926.870
31
0.0
0
LINE
5
4078
8
0-1
6
CONTINUOUS
62
  7
10
5288.490
20
2896.870
30
0.0
11
5594.490
21
2896.870
31
0.0
0
LINE
5
4079
8
0-1
6
CONTINUOUS
62
  7
10
5411.490
20
2928.870
30
0.0
11
5471.490
21
2928.870
31
0.0
0
LINE
5
407a
8
0-1
6
CONTINUOUS
62
  7
10
5411.490
20
2928.870
30
0.0
11
5411.490
21
2926.870
31
0.0
0
LINE
5
407b
8
0-1
6
CONTINUOUS
62
  7
10
5471.490
20
2928.870
30
0.0
11
5471.490
21
2926.870
31
0.0
0
LINE
5
407c
8
0-1
6
CONTINUOUS
62
  7
10
5288.490
20
2926.870
30
0.0
11
5288.490
21
2896.870
31
0.0
0
LINE
5
407d
8
0-1
6
CONTINUOUS
62
  7
10
5594.490
20
2926.870
30
0.0
11
5900.490
21
2926.870
31
0.0
0
LINE
5
407e
8
0-1
6
CONTINUOUS
62
  7
10
5594.490
20
2896.870
30
0.0
11
5900.490
21
2896.870
31
0.0
0
LINE
5
407f
8
0-1
6
CONTINUOUS
62
  7
10
5717.490
20
2928.870
30
0.0
11
5777.490
21
2928.870
31
0.0
0
LINE
5
4080
8
0-1
6
CONTINUOUS
62
  7
10
5717.490
20
2928.870
30
0.0
11
5717.490
21
2926.870
31
0.0
0
LINE
5
4081
8
0-1
6
CONTINUOUS
62
  7
10
5777.490
20
2928.870
30
0.0
11
5777.490
21
2926.870
31
0.0
0
LINE
5
4082
8
0-1
6
CONTINUOUS
62
  7
10
5594.490
20
2926.870
30
0.0
11
5594.490
21
2896.870
31
0.0
0
LINE
5
4083
8
0-1
6
CONTINUOUS
62
  7
10
5900.490
20
2926.870
30
0.0
11
6206.490
21
2926.870
31
0.0
0
LINE
5
4084
8
0-1
6
CONTINUOUS
62
  7
10
5900.490
20
2896.870
30
0.0
11
6206.490
21
2896.870
31
0.0
0
LINE
5
4085
8
0-1
6
CONTINUOUS
62
  7
10
6023.490
20
2928.870
30
0.0
11
6083.490
21
2928.870
31
0.0
0
LINE
5
4086
8
0-1
6
CONTINUOUS
62
  7
10
6023.490
20
2928.870
30
0.0
11
6023.490
21
2926.870
31
0.0
0
LINE
5
4087
8
0-1
6
CONTINUOUS
62
  7
10
6083.490
20
2928.870
30
0.0
11
6083.490
21
2926.870
31
0.0
0
LINE
5
4088
8
0-1
6
CONTINUOUS
62
  7
10
5900.490
20
2926.870
30
0.0
11
5900.490
21
2896.870
31
0.0
0
LINE
5
4089
8
0-1
6
CONTINUOUS
62
  7
10
6206.490
20
2926.870
30
0.0
11
6512.490
21
2926.870
31
0.0
0
LINE
5
408a
8
0-1
6
CONTINUOUS
62
  7
10
6206.490
20
2896.870
30
0.0
11
6512.490
21
2896.870
31
0.0
0
LINE
5
408b
8
0-1
6
CONTINUOUS
62
  7
10
6329.490
20
2928.870
30
0.0
11
6389.490
21
2928.870
31
0.0
0
LINE
5
408c
8
0-1
6
CONTINUOUS
62
  7
10
6329.490
20
2928.870
30
0.0
11
6329.490
21
2926.870
31
0.0
0
LINE
5
408d
8
0-1
6
CONTINUOUS
62
  7
10
6389.490
20
2928.870
30
0.0
11
6389.490
21
2926.870
31
0.0
0
LINE
5
408e
8
0-1
6
CONTINUOUS
62
  7
10
6206.490
20
2926.870
30
0.0
11
6206.490
21
2896.870
31
0.0
0
LINE
5
408f
8
0-1
6
CONTINUOUS
62
  7
10
6512.490
20
2926.870
30
0.0
11
6818.490
21
2926.870
31
0.0
0
LINE
5
4090
8
0-1
6
CONTINUOUS
62
  7
10
6512.490
20
2896.870
30
0.0
11
6818.490
21
2896.870
31
0.0
0
LINE
5
4091
8
0-1
6
CONTINUOUS
62
  7
10
6635.490
20
2928.870
30
0.0
11
6695.490
21
2928.870
31
0.0
0
LINE
5
4092
8
0-1
6
CONTINUOUS
62
  7
10
6635.490
20
2928.870
30
0.0
11
6635.490
21
2926.870
31
0.0
0
LINE
5
4093
8
0-1
6
CONTINUOUS
62
  7
10
6695.490
20
2928.870
30
0.0
11
6695.490
21
2926.870
31
0.0
0
LINE
5
4094
8
0-1
6
CONTINUOUS
62
  7
10
6512.490
20
2926.870
30
0.0
11
6512.490
21
2896.870
31
0.0
0
LINE
5
4095
8
0-1
6
CONTINUOUS
62
  7
10
6818.490
20
2926.870
30
0.0
11
7124.490
21
2926.870
31
0.0
0
LINE
5
4096
8
0-1
6
CONTINUOUS
62
  7
10
6818.490
20
2896.870
30
0.0
11
7124.490
21
2896.870
31
0.0
0
LINE
5
4097
8
0-1
6
CONTINUOUS
62
  7
10
6941.490
20
2928.870
30
0.0
11
7001.490
21
2928.870
31
0.0
0
LINE
5
4098
8
0-1
6
CONTINUOUS
62
  7
10
6941.490
20
2928.870
30
0.0
11
6941.490
21
2926.870
31
0.0
0
LINE
5
4099
8
0-1
6
CONTINUOUS
62
  7
10
7001.490
20
2928.870
30
0.0
11
7001.490
21
2926.870
31
0.0
0
LINE
5
409a
8
0-1
6
CONTINUOUS
62
  7
10
6818.490
20
2926.870
30
0.0
11
6818.490
21
2896.870
31
0.0
0
LINE
5
409b
8
0-1
6
CONTINUOUS
62
  7
10
7124.490
20
2926.870
30
0.0
11
7430.490
21
2926.870
31
0.0
0
LINE
5
409c
8
0-1
6
CONTINUOUS
62
  7
10
7124.490
20
2896.870
30
0.0
11
7430.490
21
2896.870
31
0.0
0
LINE
5
409d
8
0-1
6
CONTINUOUS
62
  7
10
7247.490
20
2928.870
30
0.0
11
7307.490
21
2928.870
31
0.0
0
LINE
5
409e
8
0-1
6
CONTINUOUS
62
  7
10
7247.490
20
2928.870
30
0.0
11
7247.490
21
2926.870
31
0.0
0
LINE
5
409f
8
0-1
6
CONTINUOUS
62
  7
10
7307.490
20
2928.870
30
0.0
11
7307.490
21
2926.870
31
0.0
0
LINE
5
40a0
8
0-1
6
CONTINUOUS
62
  7
10
7124.490
20
2926.870
30
0.0
11
7124.490
21
2896.870
31
0.0
0
LINE
5
40a1
8
0-1
6
CONTINUOUS
62
  7
10
7430.490
20
2926.870
30
0.0
11
7736.490
21
2926.870
31
0.0
0
LINE
5
40a2
8
0-1
6
CONTINUOUS
62
  7
10
7430.490
20
2896.870
30
0.0
11
7736.490
21
2896.870
31
0.0
0
LINE
5
40a3
8
0-1
6
CONTINUOUS
62
  7
10
7553.490
20
2928.870
30
0.0
11
7613.490
21
2928.870
31
0.0
0
LINE
5
40a4
8
0-1
6
CONTINUOUS
62
  7
10
7553.490
20
2928.870
30
0.0
11
7553.490
21
2926.870
31
0.0
0
LINE
5
40a5
8
0-1
6
CONTINUOUS
62
  7
10
7613.490
20
2928.870
30
0.0
11
7613.490
21
2926.870
31
0.0
0
LINE
5
40a6
8
0-1
6
CONTINUOUS
62
  7
10
7430.490
20
2926.870
30
0.0
11
7430.490
21
2896.870
31
0.0
0
LINE
5
40a7
8
0-1
6
CONTINUOUS
62
  7
10
7736.490
20
2926.870
30
0.0
11
8042.490
21
2926.870
31
0.0
0
LINE
5
40a8
8
0-1
6
CONTINUOUS
62
  7
10
7736.490
20
2896.870
30
0.0
11
8042.490
21
2896.870
31
0.0
0
LINE
5
40a9
8
0-1
6
CONTINUOUS
62
  7
10
7859.490
20
2928.870
30
0.0
11
7919.490
21
2928.870
31
0.0
0
LINE
5
40aa
8
0-1
6
CONTINUOUS
62
  7
10
7859.490
20
2928.870
30
0.0
11
7859.490
21
2926.870
31
0.0
0
LINE
5
40ab
8
0-1
6
CONTINUOUS
62
  7
10
7919.490
20
2928.870
30
0.0
11
7919.490
21
2926.870
31
0.0
0
LINE
5
40ac
8
0-1
6
CONTINUOUS
62
  7
10
7736.490
20
2926.870
30
0.0
11
7736.490
21
2896.870
31
0.0
0
LINE
5
40ad
8
0-1
6
CONTINUOUS
62
  7
10
8165.490
20
2928.870
30
0.0
11
8165.490
21
2926.870
31
0.0
0
LINE
5
40ae
8
0-1
6
CONTINUOUS
62
  7
10
8042.490
20
2926.870
30
0.0
11
8042.490
21
2896.870
31
0.0
0
LINE
5
40af
8
0-1
6
CONTINUOUS
62
  7
10
8042.490
20
2896.870
30
0.0
11
8195.490
21
2896.870
31
0.0
0
LINE
5
40b0
8
0-2
6
CONTINUOUS
62
  7
10
8042.490
20
2926.870
30
0.0
11
8195.490
21
2926.870
31
0.0
0
LINE
5
40b1
8
0-1
6
CONTINUOUS
62
  7
10
8165.490
20
2928.870
30
0.0
11
8195.490
21
2928.870
31
0.0
0
LINE
5
40b2
8
0-1
6
CONTINUOUS
62
  7
10
4370.490
20
2926.870
30
0.0
11
4370.490
21
2896.870
31
0.0
0
LINE
5
40b3
8
0-1
6
CONTINUOUS
62
  7
10
4247.490
20
2928.870
30
0.0
11
4247.490
21
2926.870
31
0.0
0
LINE
5
40b4
8
0-1
6
CONTINUOUS
62
  7
10
4370.490
20
2926.870
30
0.0
11
4370.490
21
2896.870
31
0.0
0
LINE
5
40b5
8
0-1
6
CONTINUOUS
62
  7
10
4217.490
20
2926.870
30
0.0
11
4370.490
21
2926.870
31
0.0
0
LINE
5
40b6
8
0-1
6
CONTINUOUS
62
  7
10
4217.490
20
2928.870
30
0.0
11
4247.490
21
2928.870
31
0.0
0
LINE
5
40b7
8
0-1
6
CONTINUOUS
62
  7
10
4217.490
20
2896.870
30
0.0
11
4370.490
21
2896.870
31
0.0
0
LINE
5
40b8
8
0-1
6
CONTINUOUS
62
  7
10
4370.490
20
2896.870
30
0.0
11
4676.490
21
2896.870
31
0.0
0
LINE
5
40b9
8
ADD_LINE
6
HIDDEN
62
  3
10
4217.490
20
3157.830
30
0.0
11
4433.770
21
3157.830
31
0.0
0
LINE
5
40ba
8
0-1
6
CONTINUOUS
62
  7
10
4370.490
20
3157.830
30
0.0
11
4676.490
21
3157.830
31
0.0
0
LINE
5
40bb
8
0-1
6
CONTINUOUS
62
  7
10
4493.490
20
3159.830
30
0.0
11
4553.490
21
3159.830
31
0.0
0
LINE
5
40bc
8
0-1
6
CONTINUOUS
62
  7
10
4493.490
20
3159.830
30
0.0
11
4493.490
21
3157.830
31
0.0
0
LINE
5
40bd
8
0-1
6
CONTINUOUS
62
  7
10
4553.490
20
3159.830
30
0.0
11
4553.490
21
3157.830
31
0.0
0
LINE
5
40be
8
0-1
6
CONTINUOUS
62
  7
10
4676.490
20
3157.830
30
0.0
11
4982.490
21
3157.830
31
0.0
0
LINE
5
40bf
8
0-1
6
CONTINUOUS
62
  7
10
4676.490
20
3127.830
30
0.0
11
4982.490
21
3127.830
31
0.0
0
LINE
5
40c0
8
0-1
6
CONTINUOUS
62
  7
10
4799.490
20
3159.830
30
0.0
11
4859.490
21
3159.830
31
0.0
0
LINE
5
40c1
8
0-1
6
CONTINUOUS
62
  7
10
4799.490
20
3159.830
30
0.0
11
4799.490
21
3157.830
31
0.0
0
LINE
5
40c2
8
0-1
6
CONTINUOUS
62
  7
10
4859.490
20
3159.830
30
0.0
11
4859.490
21
3157.830
31
0.0
0
LINE
5
40c3
8
0-1
6
CONTINUOUS
62
  7
10
4676.490
20
3157.830
30
0.0
11
4676.490
21
3127.830
31
0.0
0
LINE
5
40c4
8
0-1
6
CONTINUOUS
62
  7
10
4982.490
20
3157.830
30
0.0
11
5288.490
21
3157.830
31
0.0
0
LINE
5
40c5
8
0-1
6
CONTINUOUS
62
  7
10
4982.490
20
3127.830
30
0.0
11
5288.490
21
3127.830
31
0.0
0
LINE
5
40c6
8
0-1
6
CONTINUOUS
62
  7
10
5105.490
20
3159.830
30
0.0
11
5165.490
21
3159.830
31
0.0
0
LINE
5
40c7
8
0-1
6
CONTINUOUS
62
  7
10
5105.490
20
3159.830
30
0.0
11
5105.490
21
3157.830
31
0.0
0
LINE
5
40c8
8
0-1
6
CONTINUOUS
62
  7
10
5165.490
20
3159.830
30
0.0
11
5165.490
21
3157.830
31
0.0
0
LINE
5
40c9
8
0-1
6
CONTINUOUS
62
  7
10
4982.490
20
3157.830
30
0.0
11
4982.490
21
3127.830
31
0.0
0
LINE
5
40ca
8
0-1
6
CONTINUOUS
62
  7
10
5288.490
20
3157.830
30
0.0
11
5594.490
21
3157.830
31
0.0
0
LINE
5
40cb
8
0-1
6
CONTINUOUS
62
  7
10
5288.490
20
3127.830
30
0.0
11
5594.490
21
3127.830
31
0.0
0
LINE
5
40cc
8
0-1
6
CONTINUOUS
62
  7
10
5411.490
20
3159.830
30
0.0
11
5471.490
21
3159.830
31
0.0
0
LINE
5
40cd
8
0-1
6
CONTINUOUS
62
  7
10
5411.490
20
3159.830
30
0.0
11
5411.490
21
3157.830
31
0.0
0
LINE
5
40ce
8
0-1
6
CONTINUOUS
62
  7
10
5471.490
20
3159.830
30
0.0
11
5471.490
21
3157.830
31
0.0
0
LINE
5
40cf
8
0-1
6
CONTINUOUS
62
  7
10
5288.490
20
3157.830
30
0.0
11
5288.490
21
3127.830
31
0.0
0
LINE
5
40d0
8
0-1
6
CONTINUOUS
62
  7
10
5594.490
20
3157.830
30
0.0
11
5900.490
21
3157.830
31
0.0
0
LINE
5
40d1
8
0-1
6
CONTINUOUS
62
  7
10
5594.490
20
3127.830
30
0.0
11
5900.490
21
3127.830
31
0.0
0
LINE
5
40d2
8
0-1
6
CONTINUOUS
62
  7
10
5717.490
20
3159.830
30
0.0
11
5777.490
21
3159.830
31
0.0
0
LINE
5
40d3
8
0-1
6
CONTINUOUS
62
  7
10
5717.490
20
3159.830
30
0.0
11
5717.490
21
3157.830
31
0.0
0
LINE
5
40d4
8
0-1
6
CONTINUOUS
62
  7
10
5777.490
20
3159.830
30
0.0
11
5777.490
21
3157.830
31
0.0
0
LINE
5
40d5
8
0-1
6
CONTINUOUS
62
  7
10
5594.490
20
3157.830
30
0.0
11
5594.490
21
3127.830
31
0.0
0
LINE
5
40d6
8
0-1
6
CONTINUOUS
62
  7
10
5900.490
20
3157.830
30
0.0
11
6206.490
21
3157.830
31
0.0
0
LINE
5
40d7
8
0-1
6
CONTINUOUS
62
  7
10
5900.490
20
3127.830
30
0.0
11
6206.490
21
3127.830
31
0.0
0
LINE
5
40d8
8
0-1
6
CONTINUOUS
62
  7
10
6023.490
20
3159.830
30
0.0
11
6083.490
21
3159.830
31
0.0
0
LINE
5
40d9
8
0-1
6
CONTINUOUS
62
  7
10
6023.490
20
3159.830
30
0.0
11
6023.490
21
3157.830
31
0.0
0
LINE
5
40da
8
0-1
6
CONTINUOUS
62
  7
10
6083.490
20
3159.830
30
0.0
11
6083.490
21
3157.830
31
0.0
0
LINE
5
40db
8
0-1
6
CONTINUOUS
62
  7
10
5900.490
20
3157.830
30
0.0
11
5900.490
21
3127.830
31
0.0
0
LINE
5
40dc
8
0-1
6
CONTINUOUS
62
  7
10
6206.490
20
3157.830
30
0.0
11
6512.490
21
3157.830
31
0.0
0
LINE
5
40dd
8
0-1
6
CONTINUOUS
62
  7
10
6206.490
20
3127.830
30
0.0
11
6512.490
21
3127.830
31
0.0
0
LINE
5
40de
8
0-1
6
CONTINUOUS
62
  7
10
6329.490
20
3159.830
30
0.0
11
6389.490
21
3159.830
31
0.0
0
LINE
5
40df
8
0-1
6
CONTINUOUS
62
  7
10
6329.490
20
3159.830
30
0.0
11
6329.490
21
3157.830
31
0.0
0
LINE
5
40e0
8
0-1
6
CONTINUOUS
62
  7
10
6389.490
20
3159.830
30
0.0
11
6389.490
21
3157.830
31
0.0
0
LINE
5
40e1
8
0-1
6
CONTINUOUS
62
  7
10
6206.490
20
3157.830
30
0.0
11
6206.490
21
3127.830
31
0.0
0
LINE
5
40e2
8
0-1
6
CONTINUOUS
62
  7
10
6512.490
20
3157.830
30
0.0
11
6818.490
21
3157.830
31
0.0
0
LINE
5
40e3
8
0-1
6
CONTINUOUS
62
  7
10
6512.490
20
3127.830
30
0.0
11
6818.490
21
3127.830
31
0.0
0
LINE
5
40e4
8
0-1
6
CONTINUOUS
62
  7
10
6635.490
20
3159.830
30
0.0
11
6695.490
21
3159.830
31
0.0
0
LINE
5
40e5
8
0-1
6
CONTINUOUS
62
  7
10
6635.490
20
3159.830
30
0.0
11
6635.490
21
3157.830
31
0.0
0
LINE
5
40e6
8
0-1
6
CONTINUOUS
62
  7
10
6695.490
20
3159.830
30
0.0
11
6695.490
21
3157.830
31
0.0
0
LINE
5
40e7
8
0-1
6
CONTINUOUS
62
  7
10
6512.490
20
3157.830
30
0.0
11
6512.490
21
3127.830
31
0.0
0
LINE
5
40e8
8
0-1
6
CONTINUOUS
62
  7
10
6818.490
20
3157.830
30
0.0
11
7124.490
21
3157.830
31
0.0
0
LINE
5
40e9
8
0-1
6
CONTINUOUS
62
  7
10
6818.490
20
3127.830
30
0.0
11
7124.490
21
3127.830
31
0.0
0
LINE
5
40ea
8
0-1
6
CONTINUOUS
62
  7
10
6941.490
20
3159.830
30
0.0
11
7001.490
21
3159.830
31
0.0
0
LINE
5
40eb
8
0-1
6
CONTINUOUS
62
  7
10
6941.490
20
3159.830
30
0.0
11
6941.490
21
3157.830
31
0.0
0
LINE
5
40ec
8
0-1
6
CONTINUOUS
62
  7
10
7001.490
20
3159.830
30
0.0
11
7001.490
21
3157.830
31
0.0
0
LINE
5
40ed
8
0-1
6
CONTINUOUS
62
  7
10
6818.490
20
3157.830
30
0.0
11
6818.490
21
3127.830
31
0.0
0
LINE
5
40ee
8
0-1
6
CONTINUOUS
62
  7
10
7124.490
20
3157.830
30
0.0
11
7430.490
21
3157.830
31
0.0
0
LINE
5
40ef
8
0-1
6
CONTINUOUS
62
  7
10
7124.490
20
3127.830
30
0.0
11
7430.490
21
3127.830
31
0.0
0
LINE
5
40f0
8
0-1
6
CONTINUOUS
62
  7
10
7247.490
20
3159.830
30
0.0
11
7307.490
21
3159.830
31
0.0
0
LINE
5
40f1
8
0-1
6
CONTINUOUS
62
  7
10
7247.490
20
3159.830
30
0.0
11
7247.490
21
3157.830
31
0.0
0
LINE
5
40f2
8
0-1
6
CONTINUOUS
62
  7
10
7307.490
20
3159.830
30
0.0
11
7307.490
21
3157.830
31
0.0
0
LINE
5
40f3
8
0-1
6
CONTINUOUS
62
  7
10
7124.490
20
3157.830
30
0.0
11
7124.490
21
3127.830
31
0.0
0
LINE
5
40f4
8
0-1
6
CONTINUOUS
62
  7
10
7430.490
20
3157.830
30
0.0
11
7736.490
21
3157.830
31
0.0
0
LINE
5
40f5
8
0-1
6
CONTINUOUS
62
  7
10
7430.490
20
3127.830
30
0.0
11
7736.490
21
3127.830
31
0.0
0
LINE
5
40f6
8
0-1
6
CONTINUOUS
62
  7
10
7553.490
20
3159.830
30
0.0
11
7613.490
21
3159.830
31
0.0
0
LINE
5
40f7
8
0-1
6
CONTINUOUS
62
  7
10
7553.490
20
3159.830
30
0.0
11
7553.490
21
3157.830
31
0.0
0
LINE
5
40f8
8
0-1
6
CONTINUOUS
62
  7
10
7613.490
20
3159.830
30
0.0
11
7613.490
21
3157.830
31
0.0
0
LINE
5
40f9
8
0-1
6
CONTINUOUS
62
  7
10
7430.490
20
3157.830
30
0.0
11
7430.490
21
3127.830
31
0.0
0
LINE
5
40fa
8
0-1
6
CONTINUOUS
62
  7
10
7736.490
20
3157.830
30
0.0
11
8042.490
21
3157.830
31
0.0
0
LINE
5
40fb
8
0-1
6
CONTINUOUS
62
  7
10
7736.490
20
3127.830
30
0.0
11
8042.490
21
3127.830
31
0.0
0
LINE
5
40fc
8
0-1
6
CONTINUOUS
62
  7
10
7859.490
20
3159.830
30
0.0
11
7919.490
21
3159.830
31
0.0
0
LINE
5
40fd
8
0-1
6
CONTINUOUS
62
  7
10
7859.490
20
3159.830
30
0.0
11
7859.490
21
3157.830
31
0.0
0
LINE
5
40fe
8
0-1
6
CONTINUOUS
62
  7
10
7919.490
20
3159.830
30
0.0
11
7919.490
21
3157.830
31
0.0
0
LINE
5
40ff
8
0-1
6
CONTINUOUS
62
  7
10
8165.490
20
3159.830
30
0.0
11
8165.490
21
3157.830
31
0.0
0
LINE
5
4100
8
0-1
6
CONTINUOUS
62
  7
10
8042.490
20
3157.830
30
0.0
11
8042.490
21
3127.830
31
0.0
0
LINE
5
4101
8
0-1
6
CONTINUOUS
62
  7
10
8042.490
20
3127.830
30
0.0
11
8195.490
21
3127.830
31
0.0
0
LINE
5
4102
8
0-2
6
CONTINUOUS
62
  7
10
8042.490
20
3157.830
30
0.0
11
8195.490
21
3157.830
31
0.0
0
LINE
5
4103
8
0-1
6
CONTINUOUS
62
  7
10
8165.490
20
3159.830
30
0.0
11
8195.490
21
3159.830
31
0.0
0
LINE
5
4104
8
0-1
6
CONTINUOUS
62
  7
10
4370.490
20
3157.830
30
0.0
11
4370.490
21
3127.830
31
0.0
0
LINE
5
4105
8
0-1
6
CONTINUOUS
62
  7
10
4247.490
20
3159.830
30
0.0
11
4247.490
21
3157.830
31
0.0
0
LINE
5
4106
8
0-1
6
CONTINUOUS
62
  7
10
4370.490
20
3157.830
30
0.0
11
4370.490
21
3127.830
31
0.0
0
LINE
5
4107
8
0-1
6
CONTINUOUS
62
  7
10
4217.490
20
3157.830
30
0.0
11
4370.490
21
3157.830
31
0.0
0
LINE
5
4108
8
0-1
6
CONTINUOUS
62
  7
10
4217.490
20
3159.830
30
0.0
11
4247.490
21
3159.830
31
0.0
0
LINE
5
4109
8
0-1
6
CONTINUOUS
62
  7
10
4217.490
20
3127.830
30
0.0
11
4370.490
21
3127.830
31
0.0
0
LINE
5
410a
8
0-1
6
CONTINUOUS
62
  7
10
4370.490
20
3127.830
30
0.0
11
4676.490
21
3127.830
31
0.0
0
LINE
5
410b
8
ADD_LINE
6
HIDDEN
62
  3
10
4217.490
20
3388.800
30
0.0
11
4433.770
21
3388.800
31
0.0
0
LINE
5
410c
8
0-1
6
CONTINUOUS
62
  7
10
4370.490
20
3388.800
30
0.0
11
4676.490
21
3388.800
31
0.0
0
LINE
5
410d
8
0-1
6
CONTINUOUS
62
  7
10
4493.490
20
3390.800
30
0.0
11
4553.490
21
3390.800
31
0.0
0
LINE
5
410e
8
0-1
6
CONTINUOUS
62
  7
10
4493.490
20
3390.800
30
0.0
11
4493.490
21
3388.800
31
0.0
0
LINE
5
410f
8
0-1
6
CONTINUOUS
62
  7
10
4553.490
20
3390.800
30
0.0
11
4553.490
21
3388.800
31
0.0
0
LINE
5
4110
8
0-1
6
CONTINUOUS
62
  7
10
4676.490
20
3388.800
30
0.0
11
4982.490
21
3388.800
31
0.0
0
LINE
5
4111
8
0-1
6
CONTINUOUS
62
  7
10
4676.490
20
3358.800
30
0.0
11
4982.490
21
3358.800
31
0.0
0
LINE
5
4112
8
0-1
6
CONTINUOUS
62
  7
10
4799.490
20
3390.800
30
0.0
11
4859.490
21
3390.800
31
0.0
0
LINE
5
4113
8
0-1
6
CONTINUOUS
62
  7
10
4799.490
20
3390.800
30
0.0
11
4799.490
21
3388.800
31
0.0
0
LINE
5
4114
8
0-1
6
CONTINUOUS
62
  7
10
4859.490
20
3390.800
30
0.0
11
4859.490
21
3388.800
31
0.0
0
LINE
5
4115
8
0-1
6
CONTINUOUS
62
  7
10
4676.490
20
3388.800
30
0.0
11
4676.490
21
3358.800
31
0.0
0
LINE
5
4116
8
0-1
6
CONTINUOUS
62
  7
10
4982.490
20
3388.800
30
0.0
11
5288.490
21
3388.800
31
0.0
0
LINE
5
4117
8
0-1
6
CONTINUOUS
62
  7
10
4982.490
20
3358.800
30
0.0
11
5288.490
21
3358.800
31
0.0
0
LINE
5
4118
8
0-1
6
CONTINUOUS
62
  7
10
5105.490
20
3390.800
30
0.0
11
5165.490
21
3390.800
31
0.0
0
LINE
5
4119
8
0-1
6
CONTINUOUS
62
  7
10
5105.490
20
3390.800
30
0.0
11
5105.490
21
3388.800
31
0.0
0
LINE
5
411a
8
0-1
6
CONTINUOUS
62
  7
10
5165.490
20
3390.800
30
0.0
11
5165.490
21
3388.800
31
0.0
0
LINE
5
411b
8
0-1
6
CONTINUOUS
62
  7
10
4982.490
20
3388.800
30
0.0
11
4982.490
21
3358.800
31
0.0
0
LINE
5
411c
8
0-1
6
CONTINUOUS
62
  7
10
5288.490
20
3388.800
30
0.0
11
5594.490
21
3388.800
31
0.0
0
LINE
5
411d
8
0-1
6
CONTINUOUS
62
  7
10
5288.490
20
3358.800
30
0.0
11
5594.490
21
3358.800
31
0.0
0
LINE
5
411e
8
0-1
6
CONTINUOUS
62
  7
10
5411.490
20
3390.800
30
0.0
11
5471.490
21
3390.800
31
0.0
0
LINE
5
411f
8
0-1
6
CONTINUOUS
62
  7
10
5411.490
20
3390.800
30
0.0
11
5411.490
21
3388.800
31
0.0
0
LINE
5
4120
8
0-1
6
CONTINUOUS
62
  7
10
5471.490
20
3390.800
30
0.0
11
5471.490
21
3388.800
31
0.0
0
LINE
5
4121
8
0-1
6
CONTINUOUS
62
  7
10
5288.490
20
3388.800
30
0.0
11
5288.490
21
3358.800
31
0.0
0
LINE
5
4122
8
0-1
6
CONTINUOUS
62
  7
10
5594.490
20
3388.800
30
0.0
11
5900.490
21
3388.800
31
0.0
0
LINE
5
4123
8
0-1
6
CONTINUOUS
62
  7
10
5594.490
20
3358.800
30
0.0
11
5900.490
21
3358.800
31
0.0
0
LINE
5
4124
8
0-1
6
CONTINUOUS
62
  7
10
5717.490
20
3390.800
30
0.0
11
5777.490
21
3390.800
31
0.0
0
LINE
5
4125
8
0-1
6
CONTINUOUS
62
  7
10
5717.490
20
3390.800
30
0.0
11
5717.490
21
3388.800
31
0.0
0
LINE
5
4126
8
0-1
6
CONTINUOUS
62
  7
10
5777.490
20
3390.800
30
0.0
11
5777.490
21
3388.800
31
0.0
0
LINE
5
4127
8
0-1
6
CONTINUOUS
62
  7
10
5594.490
20
3388.800
30
0.0
11
5594.490
21
3358.800
31
0.0
0
LINE
5
4128
8
0-1
6
CONTINUOUS
62
  7
10
5900.490
20
3388.800
30
0.0
11
6206.490
21
3388.800
31
0.0
0
LINE
5
4129
8
0-1
6
CONTINUOUS
62
  7
10
5900.490
20
3358.800
30
0.0
11
6206.490
21
3358.800
31
0.0
0
LINE
5
412a
8
0-1
6
CONTINUOUS
62
  7
10
6023.490
20
3390.800
30
0.0
11
6083.490
21
3390.800
31
0.0
0
LINE
5
412b
8
0-1
6
CONTINUOUS
62
  7
10
6023.490
20
3390.800
30
0.0
11
6023.490
21
3388.800
31
0.0
0
LINE
5
412c
8
0-1
6
CONTINUOUS
62
  7
10
6083.490
20
3390.800
30
0.0
11
6083.490
21
3388.800
31
0.0
0
LINE
5
412d
8
0-1
6
CONTINUOUS
62
  7
10
5900.490
20
3388.800
30
0.0
11
5900.490
21
3358.800
31
0.0
0
LINE
5
412e
8
0-1
6
CONTINUOUS
62
  7
10
6206.490
20
3388.800
30
0.0
11
6512.490
21
3388.800
31
0.0
0
LINE
5
412f
8
0-1
6
CONTINUOUS
62
  7
10
6206.490
20
3358.800
30
0.0
11
6512.490
21
3358.800
31
0.0
0
LINE
5
4130
8
0-1
6
CONTINUOUS
62
  7
10
6329.490
20
3390.800
30
0.0
11
6389.490
21
3390.800
31
0.0
0
LINE
5
4131
8
0-1
6
CONTINUOUS
62
  7
10
6329.490
20
3390.800
30
0.0
11
6329.490
21
3388.800
31
0.0
0
LINE
5
4132
8
0-1
6
CONTINUOUS
62
  7
10
6389.490
20
3390.800
30
0.0
11
6389.490
21
3388.800
31
0.0
0
LINE
5
4133
8
0-1
6
CONTINUOUS
62
  7
10
6512.490
20
3388.800
30
0.0
11
6818.490
21
3388.800
31
0.0
0
LINE
5
4134
8
0-1
6
CONTINUOUS
62
  7
10
6512.490
20
3358.800
30
0.0
11
6818.490
21
3358.800
31
0.0
0
LINE
5
4135
8
0-1
6
CONTINUOUS
62
  7
10
6635.490
20
3390.800
30
0.0
11
6695.490
21
3390.800
31
0.0
0
LINE
5
4136
8
0-1
6
CONTINUOUS
62
  7
10
6635.490
20
3390.800
30
0.0
11
6635.490
21
3388.800
31
0.0
0
LINE
5
4137
8
0-1
6
CONTINUOUS
62
  7
10
6695.490
20
3390.800
30
0.0
11
6695.490
21
3388.800
31
0.0
0
LINE
5
4138
8
0-1
6
CONTINUOUS
62
  7
10
6512.490
20
3388.800
30
0.0
11
6512.490
21
3358.800
31
0.0
0
LINE
5
4139
8
0-1
6
CONTINUOUS
62
  7
10
6818.490
20
3388.800
30
0.0
11
7124.490
21
3388.800
31
0.0
0
LINE
5
413a
8
0-1
6
CONTINUOUS
62
  7
10
6818.490
20
3358.800
30
0.0
11
7124.490
21
3358.800
31
0.0
0
LINE
5
413b
8
0-1
6
CONTINUOUS
62
  7
10
6941.490
20
3390.800
30
0.0
11
7001.490
21
3390.800
31
0.0
0
LINE
5
413c
8
0-1
6
CONTINUOUS
62
  7
10
6941.490
20
3390.800
30
0.0
11
6941.490
21
3388.800
31
0.0
0
LINE
5
413d
8
0-1
6
CONTINUOUS
62
  7
10
7001.490
20
3390.800
30
0.0
11
7001.490
21
3388.800
31
0.0
0
LINE
5
413e
8
0-1
6
CONTINUOUS
62
  7
10
6818.490
20
3388.800
30
0.0
11
6818.490
21
3358.800
31
0.0
0
LINE
5
413f
8
0-1
6
CONTINUOUS
62
  7
10
7124.490
20
3388.800
30
0.0
11
7430.490
21
3388.800
31
0.0
0
LINE
5
4140
8
0-1
6
CONTINUOUS
62
  7
10
7124.490
20
3358.800
30
0.0
11
7430.490
21
3358.800
31
0.0
0
LINE
5
4141
8
0-1
6
CONTINUOUS
62
  7
10
7247.490
20
3390.800
30
0.0
11
7307.490
21
3390.800
31
0.0
0
LINE
5
4142
8
0-1
6
CONTINUOUS
62
  7
10
7247.490
20
3390.800
30
0.0
11
7247.490
21
3388.800
31
0.0
0
LINE
5
4143
8
0-1
6
CONTINUOUS
62
  7
10
7307.490
20
3390.800
30
0.0
11
7307.490
21
3388.800
31
0.0
0
LINE
5
4144
8
0-1
6
CONTINUOUS
62
  7
10
7124.490
20
3388.800
30
0.0
11
7124.490
21
3358.800
31
0.0
0
LINE
5
4145
8
0-1
6
CONTINUOUS
62
  7
10
7430.490
20
3388.800
30
0.0
11
7736.490
21
3388.800
31
0.0
0
LINE
5
4146
8
0-1
6
CONTINUOUS
62
  7
10
7430.490
20
3358.800
30
0.0
11
7736.490
21
3358.800
31
0.0
0
LINE
5
4147
8
0-1
6
CONTINUOUS
62
  7
10
7553.490
20
3390.800
30
0.0
11
7613.490
21
3390.800
31
0.0
0
LINE
5
4148
8
0-1
6
CONTINUOUS
62
  7
10
7553.490
20
3390.800
30
0.0
11
7553.490
21
3388.800
31
0.0
0
LINE
5
4149
8
0-1
6
CONTINUOUS
62
  7
10
7613.490
20
3390.800
30
0.0
11
7613.490
21
3388.800
31
0.0
0
LINE
5
414a
8
0-1
6
CONTINUOUS
62
  7
10
7430.490
20
3388.800
30
0.0
11
7430.490
21
3358.800
31
0.0
0
LINE
5
414b
8
0-1
6
CONTINUOUS
62
  7
10
7736.490
20
3388.800
30
0.0
11
8042.490
21
3388.800
31
0.0
0
LINE
5
414c
8
0-1
6
CONTINUOUS
62
  7
10
7736.490
20
3358.800
30
0.0
11
8042.490
21
3358.800
31
0.0
0
LINE
5
414d
8
0-1
6
CONTINUOUS
62
  7
10
7859.490
20
3390.800
30
0.0
11
7919.490
21
3390.800
31
0.0
0
LINE
5
414e
8
0-1
6
CONTINUOUS
62
  7
10
7859.490
20
3390.800
30
0.0
11
7859.490
21
3388.800
31
0.0
0
LINE
5
414f
8
0-1
6
CONTINUOUS
62
  7
10
7919.490
20
3390.800
30
0.0
11
7919.490
21
3388.800
31
0.0
0
LINE
5
4150
8
0-1
6
CONTINUOUS
62
  7
10
7736.490
20
3388.800
30
0.0
11
7736.490
21
3358.800
31
0.0
0
LINE
5
4151
8
0-1
6
CONTINUOUS
62
  7
10
8165.490
20
3390.800
30
0.0
11
8165.490
21
3388.800
31
0.0
0
LINE
5
4152
8
0-1
6
CONTINUOUS
62
  7
10
8042.490
20
3388.800
30
0.0
11
8042.490
21
3358.800
31
0.0
0
LINE
5
4153
8
0-1
6
CONTINUOUS
62
  7
10
8042.490
20
3358.800
30
0.0
11
8195.490
21
3358.800
31
0.0
0
LINE
5
4154
8
0-2
6
CONTINUOUS
62
  7
10
8042.490
20
3388.800
30
0.0
11
8195.490
21
3388.800
31
0.0
0
LINE
5
4155
8
0-1
6
CONTINUOUS
62
  7
10
8165.490
20
3390.800
30
0.0
11
8195.490
21
3390.800
31
0.0
0
LINE
5
4156
8
0-1
6
CONTINUOUS
62
  7
10
4370.490
20
3388.800
30
0.0
11
4370.490
21
3358.800
31
0.0
0
LINE
5
4157
8
0-1
6
CONTINUOUS
62
  7
10
4247.490
20
3390.800
30
0.0
11
4247.490
21
3388.800
31
0.0
0
LINE
5
4158
8
0-1
6
CONTINUOUS
62
  7
10
4370.490
20
3388.800
30
0.0
11
4370.490
21
3358.800
31
0.0
0
LINE
5
4159
8
0-1
6
CONTINUOUS
62
  7
10
4217.490
20
3388.800
30
0.0
11
4370.490
21
3388.800
31
0.0
0
LINE
5
415a
8
0-1
6
CONTINUOUS
62
  7
10
4217.490
20
3390.800
30
0.0
11
4247.490
21
3390.800
31
0.0
0
LINE
5
415b
8
0-1
6
CONTINUOUS
62
  7
10
4217.490
20
3358.800
30
0.0
11
4370.490
21
3358.800
31
0.0
0
LINE
5
415c
8
0-1
6
CONTINUOUS
62
  7
10
4370.490
20
3358.800
30
0.0
11
4676.490
21
3358.800
31
0.0
0
LINE
5
415d
8
0-1
6
CONTINUOUS
62
  7
10
4523.490
20
2203.960
30
0.0
11
4523.490
21
2089.480
31
0.0
0
LINE
5
415e
8
0-1
6
CONTINUOUS
62
  7
10
4829.490
20
2203.960
30
0.0
11
4829.490
21
2089.480
31
0.0
0
LINE
5
415f
8
0-1
6
CONTINUOUS
62
  7
10
5135.490
20
2203.960
30
0.0
11
5135.490
21
2089.480
31
0.0
0
LINE
5
4160
8
0-1
6
CONTINUOUS
62
  7
10
5441.490
20
2203.960
30
0.0
11
5441.490
21
2089.480
31
0.0
0
LINE
5
4161
8
0-1
6
CONTINUOUS
62
  7
10
5747.490
20
2203.960
30
0.0
11
5747.490
21
2089.480
31
0.0
0
LINE
5
4162
8
0-1
6
CONTINUOUS
62
  7
10
6053.490
20
2203.960
30
0.0
11
6053.490
21
2089.480
31
0.0
0
LINE
5
4163
8
0-1
6
CONTINUOUS
62
  7
10
6359.490
20
2203.960
30
0.0
11
6359.490
21
2089.480
31
0.0
0
LINE
5
4164
8
0-1
6
CONTINUOUS
62
  7
10
6665.490
20
2203.960
30
0.0
11
6665.490
21
2089.480
31
0.0
0
LINE
5
4165
8
0-1
6
CONTINUOUS
62
  7
10
6971.490
20
2203.960
30
0.0
11
6971.490
21
2089.480
31
0.0
0
LINE
5
4166
8
0-1
6
CONTINUOUS
62
  7
10
7277.490
20
2203.960
30
0.0
11
7277.490
21
2089.480
31
0.0
0
LINE
5
4167
8
0-1
6
CONTINUOUS
62
  7
10
7889.490
20
2203.960
30
0.0
11
7889.490
21
2089.480
31
0.0
0
LINE
5
4168
8
0-1
6
CONTINUOUS
62
  7
10
7583.490
20
2203.960
30
0.0
11
7583.490
21
2089.480
31
0.0
0
LINE
5
4169
8
0-1
6
CONTINUOUS
62
  7
10
8042.490
20
2089.480
30
0.0
11
8042.490
21
1967.680
31
0.0
0
LINE
5
416a
8
0-1
6
CONTINUOUS
62
  7
10
7736.490
20
2089.480
30
0.0
11
7736.490
21
1967.680
31
0.0
0
LINE
5
416b
8
0-1
6
CONTINUOUS
62
  7
10
7430.490
20
2089.480
30
0.0
11
7430.490
21
1967.680
31
0.0
0
LINE
5
416c
8
0-1
6
CONTINUOUS
62
  7
10
7124.490
20
2089.480
30
0.0
11
7124.490
21
1967.680
31
0.0
0
LINE
5
416d
8
0-1
6
CONTINUOUS
62
  7
10
6818.490
20
2089.480
30
0.0
11
6818.490
21
1967.680
31
0.0
0
LINE
5
416e
8
0-1
6
CONTINUOUS
62
  7
10
6512.490
20
2089.480
30
0.0
11
6512.490
21
1967.680
31
0.0
0
LINE
5
416f
8
0-1
6
CONTINUOUS
62
  7
10
6206.490
20
2089.480
30
0.0
11
6206.490
21
1967.680
31
0.0
0
LINE
5
4170
8
0-1
6
CONTINUOUS
62
  7
10
5900.490
20
2089.480
30
0.0
11
5900.490
21
1967.680
31
0.0
0
LINE
5
4171
8
0-1
6
CONTINUOUS
62
  7
10
5594.490
20
2089.480
30
0.0
11
5594.490
21
1967.680
31
0.0
0
LINE
5
4172
8
0-1
6
CONTINUOUS
62
  7
10
5288.490
20
2089.480
30
0.0
11
5288.490
21
1967.680
31
0.0
0
LINE
5
4173
8
0-1
6
CONTINUOUS
62
  7
10
4982.490
20
2089.480
30
0.0
11
4982.490
21
1967.680
31
0.0
0
LINE
5
4174
8
0-1
6
CONTINUOUS
62
  7
10
4676.490
20
2089.480
30
0.0
11
4676.490
21
1967.680
31
0.0
0
LINE
5
4175
8
0-1
6
CONTINUOUS
62
  7
10
4370.490
20
2089.480
30
0.0
11
4370.490
21
1967.680
31
0.0
0
LINE
5
4176
8
0-1
6
CONTINUOUS
62
  7
10
4370.490
20
2319.450
30
0.0
11
4370.490
21
2203.960
31
0.0
0
LINE
5
4177
8
0-1
6
CONTINUOUS
62
  7
10
4676.490
20
2319.450
30
0.0
11
4676.490
21
2203.960
31
0.0
0
LINE
5
4178
8
0-1
6
CONTINUOUS
62
  7
10
4982.490
20
2319.450
30
0.0
11
4982.490
21
2203.960
31
0.0
0
LINE
5
4179
8
0-1
6
CONTINUOUS
62
  7
10
5288.490
20
2319.450
30
0.0
11
5288.490
21
2203.960
31
0.0
0
LINE
5
417a
8
0-1
6
CONTINUOUS
62
  7
10
5594.490
20
2319.450
30
0.0
11
5594.490
21
2203.960
31
0.0
0
LINE
5
417b
8
0-1
6
CONTINUOUS
62
  7
10
5900.490
20
2319.450
30
0.0
11
5900.490
21
2203.960
31
0.0
0
LINE
5
417c
8
0-1
6
CONTINUOUS
62
  7
10
6206.490
20
2319.450
30
0.0
11
6206.490
21
2203.960
31
0.0
0
LINE
5
417d
8
0-1
6
CONTINUOUS
62
  7
10
6512.490
20
2319.450
30
0.0
11
6512.490
21
2203.960
31
0.0
0
LINE
5
417e
8
0-1
6
CONTINUOUS
62
  7
10
6818.490
20
2319.450
30
0.0
11
6818.490
21
2203.960
31
0.0
0
LINE
5
417f
8
0-1
6
CONTINUOUS
62
  7
10
7124.490
20
2319.450
30
0.0
11
7124.490
21
2203.960
31
0.0
0
LINE
5
4180
8
0-1
6
CONTINUOUS
62
  7
10
7430.490
20
2319.450
30
0.0
11
7430.490
21
2203.960
31
0.0
0
LINE
5
4181
8
0-1
6
CONTINUOUS
62
  7
10
7736.490
20
2319.450
30
0.0
11
7736.490
21
2203.960
31
0.0
0
LINE
5
4182
8
0-1
6
CONTINUOUS
62
  7
10
8042.490
20
2319.450
30
0.0
11
8042.490
21
2203.960
31
0.0
0
LINE
5
4183
8
0-1
6
CONTINUOUS
62
  7
10
7889.490
20
2434.930
30
0.0
11
7889.490
21
2319.450
31
0.0
0
LINE
5
4184
8
0-1
6
CONTINUOUS
62
  7
10
7583.490
20
2434.930
30
0.0
11
7583.490
21
2319.450
31
0.0
0
LINE
5
4185
8
0-1
6
CONTINUOUS
62
  7
10
7277.490
20
2434.930
30
0.0
11
7277.490
21
2319.450
31
0.0
0
LINE
5
4186
8
0-1
6
CONTINUOUS
62
  7
10
6971.490
20
2434.930
30
0.0
11
6971.490
21
2319.450
31
0.0
0
LINE
5
4187
8
0-1
6
CONTINUOUS
62
  7
10
6665.490
20
2434.930
30
0.0
11
6665.490
21
2319.450
31
0.0
0
LINE
5
4188
8
0-1
6
CONTINUOUS
62
  7
10
6359.490
20
2434.930
30
0.0
11
6359.490
21
2319.450
31
0.0
0
LINE
5
4189
8
0-1
6
CONTINUOUS
62
  7
10
6053.490
20
2434.930
30
0.0
11
6053.490
21
2319.450
31
0.0
0
LINE
5
418a
8
0-1
6
CONTINUOUS
62
  7
10
5747.490
20
2434.930
30
0.0
11
5747.490
21
2319.450
31
0.0
0
LINE
5
418b
8
0-1
6
CONTINUOUS
62
  7
10
5441.490
20
2434.930
30
0.0
11
5441.490
21
2319.450
31
0.0
0
LINE
5
418c
8
0-1
6
CONTINUOUS
62
  7
10
5135.490
20
2434.930
30
0.0
11
5135.490
21
2319.450
31
0.0
0
LINE
5
418d
8
0-1
6
CONTINUOUS
62
  7
10
4829.490
20
2434.930
30
0.0
11
4829.490
21
2319.450
31
0.0
0
LINE
5
418e
8
0-1
6
CONTINUOUS
62
  7
10
4523.490
20
2434.930
30
0.0
11
4523.490
21
2319.450
31
0.0
0
LINE
5
418f
8
0-1
6
CONTINUOUS
62
  7
10
4370.490
20
2550.420
30
0.0
11
4370.490
21
2434.930
31
0.0
0
LINE
5
4190
8
0-1
6
CONTINUOUS
62
  7
10
4676.490
20
2550.420
30
0.0
11
4676.490
21
2434.930
31
0.0
0
LINE
5
4191
8
0-1
6
CONTINUOUS
62
  7
10
4982.490
20
2550.420
30
0.0
11
4982.490
21
2434.930
31
0.0
0
LINE
5
4192
8
0-1
6
CONTINUOUS
62
  7
10
5288.490
20
2550.420
30
0.0
11
5288.490
21
2434.930
31
0.0
0
LINE
5
4193
8
0-1
6
CONTINUOUS
62
  7
10
5594.490
20
2550.420
30
0.0
11
5594.490
21
2434.930
31
0.0
0
LINE
5
4194
8
0-1
6
CONTINUOUS
62
  7
10
5900.490
20
2550.420
30
0.0
11
5900.490
21
2434.930
31
0.0
0
LINE
5
4195
8
0-1
6
CONTINUOUS
62
  7
10
6206.490
20
2550.420
30
0.0
11
6206.490
21
2434.930
31
0.0
0
LINE
5
4196
8
0-1
6
CONTINUOUS
62
  7
10
6512.490
20
2550.420
30
0.0
11
6512.490
21
2434.930
31
0.0
0
LINE
5
4197
8
0-1
6
CONTINUOUS
62
  7
10
6818.490
20
2550.420
30
0.0
11
6818.490
21
2434.930
31
0.0
0
LINE
5
4198
8
0-1
6
CONTINUOUS
62
  7
10
7124.490
20
2550.420
30
0.0
11
7124.490
21
2434.930
31
0.0
0
LINE
5
4199
8
0-1
6
CONTINUOUS
62
  7
10
7430.490
20
2550.420
30
0.0
11
7430.490
21
2434.930
31
0.0
0
LINE
5
419a
8
0-1
6
CONTINUOUS
62
  7
10
7736.490
20
2550.420
30
0.0
11
7736.490
21
2434.930
31
0.0
0
LINE
5
419b
8
0-1
6
CONTINUOUS
62
  7
10
8042.490
20
2550.420
30
0.0
11
8042.490
21
2434.930
31
0.0
0
LINE
5
419c
8
0-1
6
CONTINUOUS
62
  7
10
7889.490
20
2665.900
30
0.0
11
7889.490
21
2550.420
31
0.0
0
LINE
5
419d
8
0-1
6
CONTINUOUS
62
  7
10
7583.490
20
2665.900
30
0.0
11
7583.490
21
2550.420
31
0.0
0
LINE
5
419e
8
0-1
6
CONTINUOUS
62
  7
10
7277.490
20
2665.900
30
0.0
11
7277.490
21
2550.420
31
0.0
0
LINE
5
419f
8
0-1
6
CONTINUOUS
62
  7
10
6971.490
20
2665.900
30
0.0
11
6971.490
21
2550.420
31
0.0
0
LINE
5
41a0
8
0-1
6
CONTINUOUS
62
  7
10
6665.490
20
2665.900
30
0.0
11
6665.490
21
2550.420
31
0.0
0
LINE
5
41a1
8
0-1
6
CONTINUOUS
62
  7
10
6359.490
20
2665.900
30
0.0
11
6359.490
21
2550.420
31
0.0
0
LINE
5
41a2
8
0-1
6
CONTINUOUS
62
  7
10
6053.490
20
2665.900
30
0.0
11
6053.490
21
2550.420
31
0.0
0
LINE
5
41a3
8
0-1
6
CONTINUOUS
62
  7
10
5747.490
20
2665.900
30
0.0
11
5747.490
21
2550.420
31
0.0
0
LINE
5
41a4
8
0-1
6
CONTINUOUS
62
  7
10
5441.490
20
2665.900
30
0.0
11
5441.490
21
2550.420
31
0.0
0
LINE
5
41a5
8
0-1
6
CONTINUOUS
62
  7
10
5135.490
20
2665.900
30
0.0
11
5135.490
21
2550.420
31
0.0
0
LINE
5
41a6
8
0-1
6
CONTINUOUS
62
  7
10
4829.490
20
2665.900
30
0.0
11
4829.490
21
2550.420
31
0.0
0
LINE
5
41a7
8
0-1
6
CONTINUOUS
62
  7
10
4523.490
20
2665.900
30
0.0
11
4523.490
21
2550.420
31
0.0
0
LINE
5
41a8
8
0-1
6
CONTINUOUS
62
  7
10
4370.490
20
2781.380
30
0.0
11
4370.490
21
2665.900
31
0.0
0
LINE
5
41a9
8
0-1
6
CONTINUOUS
62
  7
10
4676.490
20
2781.380
30
0.0
11
4676.490
21
2665.900
31
0.0
0
LINE
5
41aa
8
0-1
6
CONTINUOUS
62
  7
10
4982.490
20
2781.380
30
0.0
11
4982.490
21
2665.900
31
0.0
0
LINE
5
41ab
8
0-1
6
CONTINUOUS
62
  7
10
5288.490
20
2781.380
30
0.0
11
5288.490
21
2665.900
31
0.0
0
LINE
5
41ac
8
0-1
6
CONTINUOUS
62
  7
10
5594.490
20
2781.380
30
0.0
11
5594.490
21
2665.900
31
0.0
0
LINE
5
41ad
8
0-1
6
CONTINUOUS
62
  7
10
5900.490
20
2781.380
30
0.0
11
5900.490
21
2665.900
31
0.0
0
LINE
5
41ae
8
0-1
6
CONTINUOUS
62
  7
10
6206.490
20
2781.380
30
0.0
11
6206.490
21
2665.900
31
0.0
0
LINE
5
41af
8
0-1
6
CONTINUOUS
62
  7
10
6512.490
20
2781.380
30
0.0
11
6512.490
21
2665.900
31
0.0
0
LINE
5
41b0
8
0-1
6
CONTINUOUS
62
  7
10
6818.490
20
2781.380
30
0.0
11
6818.490
21
2665.900
31
0.0
0
LINE
5
41b1
8
0-1
6
CONTINUOUS
62
  7
10
7124.490
20
2781.380
30
0.0
11
7124.490
21
2665.900
31
0.0
0
LINE
5
41b2
8
0-1
6
CONTINUOUS
62
  7
10
7430.490
20
2781.380
30
0.0
11
7430.490
21
2665.900
31
0.0
0
LINE
5
41b3
8
0-1
6
CONTINUOUS
62
  7
10
7736.490
20
2781.380
30
0.0
11
7736.490
21
2665.900
31
0.0
0
LINE
5
41b4
8
0-1
6
CONTINUOUS
62
  7
10
8042.490
20
2781.380
30
0.0
11
8042.490
21
2665.900
31
0.0
0
LINE
5
41b5
8
0-1
6
CONTINUOUS
62
  7
10
7889.490
20
2896.870
30
0.0
11
7889.490
21
2781.380
31
0.0
0
LINE
5
41b6
8
0-1
6
CONTINUOUS
62
  7
10
7583.490
20
2896.870
30
0.0
11
7583.490
21
2781.380
31
0.0
0
LINE
5
41b7
8
0-1
6
CONTINUOUS
62
  7
10
7277.490
20
2896.870
30
0.0
11
7277.490
21
2781.380
31
0.0
0
LINE
5
41b8
8
0-1
6
CONTINUOUS
62
  7
10
6971.490
20
2896.870
30
0.0
11
6971.490
21
2781.380
31
0.0
0
LINE
5
41b9
8
0-1
6
CONTINUOUS
62
  7
10
6665.490
20
2896.870
30
0.0
11
6665.490
21
2781.380
31
0.0
0
LINE
5
41ba
8
0-1
6
CONTINUOUS
62
  7
10
6359.490
20
2896.870
30
0.0
11
6359.490
21
2781.380
31
0.0
0
LINE
5
41bb
8
0-1
6
CONTINUOUS
62
  7
10
6053.490
20
2896.870
30
0.0
11
6053.490
21
2781.380
31
0.0
0
LINE
5
41bc
8
0-1
6
CONTINUOUS
62
  7
10
5747.490
20
2896.870
30
0.0
11
5747.490
21
2781.380
31
0.0
0
LINE
5
41bd
8
0-1
6
CONTINUOUS
62
  7
10
5441.490
20
2896.870
30
0.0
11
5441.490
21
2781.380
31
0.0
0
LINE
5
41be
8
0-1
6
CONTINUOUS
62
  7
10
5135.490
20
2896.870
30
0.0
11
5135.490
21
2781.380
31
0.0
0
LINE
5
41bf
8
0-1
6
CONTINUOUS
62
  7
10
4829.490
20
2896.870
30
0.0
11
4829.490
21
2781.380
31
0.0
0
LINE
5
41c0
8
0-1
6
CONTINUOUS
62
  7
10
4523.490
20
2896.870
30
0.0
11
4523.490
21
2781.380
31
0.0
0
LINE
5
41c1
8
0-1
6
CONTINUOUS
62
  7
10
4370.490
20
3012.350
30
0.0
11
4370.490
21
2896.870
31
0.0
0
LINE
5
41c2
8
0-1
6
CONTINUOUS
62
  7
10
4676.490
20
3012.350
30
0.0
11
4676.490
21
2896.870
31
0.0
0
LINE
5
41c3
8
0-1
6
CONTINUOUS
62
  7
10
4982.490
20
3012.350
30
0.0
11
4982.490
21
2896.870
31
0.0
0
LINE
5
41c4
8
0-1
6
CONTINUOUS
62
  7
10
5288.490
20
3012.350
30
0.0
11
5288.490
21
2896.870
31
0.0
0
LINE
5
41c5
8
0-1
6
CONTINUOUS
62
  7
10
5594.490
20
3012.350
30
0.0
11
5594.490
21
2896.870
31
0.0
0
LINE
5
41c6
8
0-1
6
CONTINUOUS
62
  7
10
5900.490
20
3012.350
30
0.0
11
5900.490
21
2896.870
31
0.0
0
LINE
5
41c7
8
0-1
6
CONTINUOUS
62
  7
10
6206.490
20
3012.350
30
0.0
11
6206.490
21
2896.870
31
0.0
0
LINE
5
41c8
8
0-1
6
CONTINUOUS
62
  7
10
6512.490
20
3012.350
30
0.0
11
6512.490
21
2896.870
31
0.0
0
LINE
5
41c9
8
0-1
6
CONTINUOUS
62
  7
10
6818.490
20
3012.350
30
0.0
11
6818.490
21
2896.870
31
0.0
0
LINE
5
41ca
8
0-1
6
CONTINUOUS
62
  7
10
7124.490
20
3012.350
30
0.0
11
7124.490
21
2896.870
31
0.0
0
LINE
5
41cb
8
0-1
6
CONTINUOUS
62
  7
10
7430.490
20
3012.350
30
0.0
11
7430.490
21
2896.870
31
0.0
0
LINE
5
41cc
8
0-1
6
CONTINUOUS
62
  7
10
7736.490
20
3012.350
30
0.0
11
7736.490
21
2896.870
31
0.0
0
LINE
5
41cd
8
0-1
6
CONTINUOUS
62
  7
10
8042.490
20
3012.350
30
0.0
11
8042.490
21
2896.870
31
0.0
0
LINE
5
41ce
8
0-1
6
CONTINUOUS
62
  7
10
7889.490
20
3127.830
30
0.0
11
7889.490
21
3012.350
31
0.0
0
LINE
5
41cf
8
0-1
6
CONTINUOUS
62
  7
10
7583.490
20
3127.830
30
0.0
11
7583.490
21
3012.350
31
0.0
0
LINE
5
41d0
8
0-1
6
CONTINUOUS
62
  7
10
7277.490
20
3127.830
30
0.0
11
7277.490
21
3012.350
31
0.0
0
LINE
5
41d1
8
0-1
6
CONTINUOUS
62
  7
10
6971.490
20
3127.830
30
0.0
11
6971.490
21
3012.350
31
0.0
0
LINE
5
41d2
8
0-1
6
CONTINUOUS
62
  7
10
6665.490
20
3127.830
30
0.0
11
6665.490
21
3012.350
31
0.0
0
LINE
5
41d3
8
0-1
6
CONTINUOUS
62
  7
10
6359.490
20
3127.830
30
0.0
11
6359.490
21
3012.350
31
0.0
0
LINE
5
41d4
8
0-1
6
CONTINUOUS
62
  7
10
6053.490
20
3127.830
30
0.0
11
6053.490
21
3012.350
31
0.0
0
LINE
5
41d5
8
0-1
6
CONTINUOUS
62
  7
10
5747.490
20
3127.830
30
0.0
11
5747.490
21
3012.350
31
0.0
0
LINE
5
41d6
8
0-1
6
CONTINUOUS
62
  7
10
5441.490
20
3127.830
30
0.0
11
5441.490
21
3012.350
31
0.0
0
LINE
5
41d7
8
0-1
6
CONTINUOUS
62
  7
10
5135.490
20
3127.830
30
0.0
11
5135.490
21
3012.350
31
0.0
0
LINE
5
41d8
8
0-1
6
CONTINUOUS
62
  7
10
4829.490
20
3127.830
30
0.0
11
4829.490
21
3012.350
31
0.0
0
LINE
5
41d9
8
0-1
6
CONTINUOUS
62
  7
10
4523.490
20
3127.830
30
0.0
11
4523.490
21
3012.350
31
0.0
0
LINE
5
41da
8
0-1
6
CONTINUOUS
62
  7
10
4370.490
20
3243.320
30
0.0
11
4370.490
21
3127.830
31
0.0
0
LINE
5
41db
8
0-1
6
CONTINUOUS
62
  7
10
4676.490
20
3243.320
30
0.0
11
4676.490
21
3127.830
31
0.0
0
LINE
5
41dc
8
0-1
6
CONTINUOUS
62
  7
10
4982.490
20
3243.320
30
0.0
11
4982.490
21
3127.830
31
0.0
0
LINE
5
41dd
8
0-1
6
CONTINUOUS
62
  7
10
5288.490
20
3243.320
30
0.0
11
5288.490
21
3127.830
31
0.0
0
LINE
5
41de
8
0-1
6
CONTINUOUS
62
  7
10
5594.490
20
3243.320
30
0.0
11
5594.490
21
3127.830
31
0.0
0
LINE
5
41df
8
0-1
6
CONTINUOUS
62
  7
10
5900.490
20
3243.320
30
0.0
11
5900.490
21
3127.830
31
0.0
0
LINE
5
41e0
8
0-1
6
CONTINUOUS
62
  7
10
6206.490
20
3243.320
30
0.0
11
6206.490
21
3127.830
31
0.0
0
LINE
5
41e1
8
0-1
6
CONTINUOUS
62
  7
10
6512.490
20
3243.320
30
0.0
11
6512.490
21
3127.830
31
0.0
0
LINE
5
41e2
8
0-1
6
CONTINUOUS
62
  7
10
6818.490
20
3243.320
30
0.0
11
6818.490
21
3127.830
31
0.0
0
LINE
5
41e3
8
0-1
6
CONTINUOUS
62
  7
10
7124.490
20
3243.320
30
0.0
11
7124.490
21
3127.830
31
0.0
0
LINE
5
41e4
8
0-1
6
CONTINUOUS
62
  7
10
7430.490
20
3243.320
30
0.0
11
7430.490
21
3127.830
31
0.0
0
LINE
5
41e5
8
0-1
6
CONTINUOUS
62
  7
10
7736.490
20
3157.830
30
0.0
11
7736.490
21
3127.830
31
0.0
0
LINE
5
41e6
8
0-1
6
CONTINUOUS
62
  7
10
7736.490
20
3243.320
30
0.0
11
7736.490
21
3127.830
31
0.0
0
LINE
5
41e7
8
0-1
6
CONTINUOUS
62
  7
10
8042.490
20
3243.320
30
0.0
11
8042.490
21
3127.830
31
0.0
0
LINE
5
41e8
8
0-1
6
CONTINUOUS
62
  7
10
7889.490
20
3358.800
30
0.0
11
7889.490
21
3243.320
31
0.0
0
LINE
5
41e9
8
0-1
6
CONTINUOUS
62
  7
10
7583.490
20
3358.800
30
0.0
11
7583.490
21
3243.320
31
0.0
0
LINE
5
41ea
8
0-1
6
CONTINUOUS
62
  7
10
7277.490
20
3358.800
30
0.0
11
7277.490
21
3243.320
31
0.0
0
LINE
5
41eb
8
0-1
6
CONTINUOUS
62
  7
10
6971.490
20
3358.800
30
0.0
11
6971.490
21
3243.320
31
0.0
0
LINE
5
41ec
8
0-1
6
CONTINUOUS
62
  7
10
6665.490
20
3358.800
30
0.0
11
6665.490
21
3243.320
31
0.0
0
LINE
5
41ed
8
0-1
6
CONTINUOUS
62
  7
10
6359.490
20
3358.800
30
0.0
11
6359.490
21
3243.320
31
0.0
0
LINE
5
41ee
8
0-1
6
CONTINUOUS
62
  7
10
6053.490
20
3358.800
30
0.0
11
6053.490
21
3243.320
31
0.0
0
LINE
5
41ef
8
0-1
6
CONTINUOUS
62
  7
10
5747.490
20
3358.800
30
0.0
11
5747.490
21
3243.320
31
0.0
0
LINE
5
41f0
8
0-1
6
CONTINUOUS
62
  7
10
5441.490
20
3358.800
30
0.0
11
5441.490
21
3243.320
31
0.0
0
LINE
5
41f1
8
0-1
6
CONTINUOUS
62
  7
10
5135.490
20
3358.800
30
0.0
11
5135.490
21
3243.320
31
0.0
0
LINE
5
41f2
8
0-1
6
CONTINUOUS
62
  7
10
4829.490
20
3358.800
30
0.0
11
4829.490
21
3243.320
31
0.0
0
LINE
5
41f3
8
0-1
6
CONTINUOUS
62
  7
10
4523.490
20
3358.800
30
0.0
11
4523.490
21
3243.320
31
0.0
0
LINE
5
41f4
8
0-2
6
CONTINUOUS
62
  7
10
4086.490
20
3404.800
30
0.0
11
4086.490
21
3453.820
31
0.0
0
LINE
5
41f5
8
0-2
6
CONTINUOUS
62
  7
10
4086.490
20
3399.800
30
0.0
11
4098.770
21
3453.820
31
0.0
0
LINE
5
41f6
8
0-1
6
CONTINUOUS
62
  7
10
4217.490
20
1906.030
30
0.0
11
4217.490
21
3453.820
31
0.0
0
LINE
5
41f7
8
0-1
6
CONTINUOUS
62
  7
10
4370.490
20
3453.820
30
0.0
11
4370.490
21
3358.800
31
0.0
0
LINE
5
41f8
8
0-1
6
CONTINUOUS
62
  7
10
4676.490
20
3453.820
30
0.0
11
4676.490
21
3358.800
31
0.0
0
LINE
5
41f9
8
0-1
6
CONTINUOUS
62
  7
10
4982.490
20
3453.820
30
0.0
11
4982.490
21
3358.800
31
0.0
0
LINE
5
41fa
8
0-1
6
CONTINUOUS
62
  7
10
5288.490
20
3453.820
30
0.0
11
5288.490
21
3358.800
31
0.0
0
LINE
5
41fb
8
0-1
6
CONTINUOUS
62
  7
10
5594.490
20
3453.820
30
0.0
11
5594.490
21
3358.800
31
0.0
0
LINE
5
41fc
8
0-1
6
CONTINUOUS
62
  7
10
5900.490
20
3453.820
30
0.0
11
5900.490
21
3358.800
31
0.0
0
LINE
5
41fd
8
0-1
6
CONTINUOUS
62
  7
10
6206.490
20
3453.820
30
0.0
11
6206.490
21
3358.800
31
0.0
0
LINE
5
41fe
8
0-1
6
CONTINUOUS
62
  7
10
6512.490
20
3453.820
30
0.0
11
6512.490
21
3358.800
31
0.0
0
LINE
5
41ff
8
0-1
6
CONTINUOUS
62
  7
10
6818.490
20
3453.820
30
0.0
11
6818.490
21
3358.800
31
0.0
0
LINE
5
4200
8
0-1
6
CONTINUOUS
62
  7
10
7124.490
20
3453.820
30
0.0
11
7124.490
21
3358.800
31
0.0
0
LINE
5
4201
8
0-1
6
CONTINUOUS
62
  7
10
7430.490
20
3453.820
30
0.0
11
7430.490
21
3358.800
31
0.0
0
LINE
5
4202
8
0-1
6
CONTINUOUS
62
  7
10
7736.490
20
3453.820
30
0.0
11
7736.490
21
3358.800
31
0.0
0
LINE
5
4203
8
0-1
6
CONTINUOUS
62
  7
10
8042.490
20
3453.820
30
0.0
11
8042.490
21
3358.800
31
0.0
0
LINE
5
4204
8
0-2
6
CONTINUOUS
62
  7
10
8326.490
20
3399.800
30
0.0
11
8313.800
21
3453.820
31
0.0
0
LINE
5
4205
8
0-2
6
CONTINUOUS
62
  7
10
8326.490
20
3404.800
30
0.0
11
8326.490
21
3453.820
31
0.0
0
LINE
5
4206
8
0-1
6
CONTINUOUS
62
  7
10
8195.490
20
1906.030
30
0.0
11
8195.490
21
3453.820
31
0.0
0
LINE
5
4207
8
ADD_LINE
6
HIDDEN
62
  3
10
4086.490
20
1776.030
30
0.0
11
4075.320
21
1776.030
31
0.0
0
LINE
5
4208
8
ADD_LINE
6
HIDDEN
62
  3
10
4086.490
20
1762.060
30
0.0
11
4086.490
21
1777.270
31
0.0
0
LINE
5
4209
8
0-1
6
CONTINUOUS
62
  7
10
4091.490
20
2013.680
30
0.0
11
4112.490
21
2013.680
31
0.0
0
LINE
5
420a
8
0-1
6
CONTINUOUS
62
  7
10
4112.490
20
2013.680
30
0.0
11
4112.490
21
2118.480
31
0.0
0
LINE
5
420b
8
0-1
6
CONTINUOUS
62
  7
10
4122.490
20
2013.680
30
0.0
11
4122.490
21
2118.480
31
0.0
0
LINE
5
420c
8
0-1
6
CONTINUOUS
62
  7
10
4112.490
20
2131.870
30
0.0
11
4112.490
21
2233.960
31
0.0
0
LINE
5
420d
8
0-1
6
CONTINUOUS
62
  7
10
4122.490
20
2131.870
30
0.0
11
4122.490
21
2233.960
31
0.0
0
LINE
5
420e
8
0-1
6
CONTINUOUS
62
  7
10
4112.490
20
2247.350
30
0.0
11
4112.490
21
2349.450
31
0.0
0
LINE
5
420f
8
0-1
6
CONTINUOUS
62
  7
10
4122.490
20
2247.350
30
0.0
11
4122.490
21
2349.450
31
0.0
0
LINE
5
4210
8
0-1
6
CONTINUOUS
62
  7
10
4112.490
20
2362.830
30
0.0
11
4112.490
21
2464.930
31
0.0
0
LINE
5
4211
8
0-1
6
CONTINUOUS
62
  7
10
4122.490
20
2362.830
30
0.0
11
4122.490
21
2464.930
31
0.0
0
LINE
5
4212
8
0-1
6
CONTINUOUS
62
  7
10
4112.490
20
2478.320
30
0.0
11
4112.490
21
2580.420
31
0.0
0
LINE
5
4213
8
0-1
6
CONTINUOUS
62
  7
10
4122.490
20
2478.320
30
0.0
11
4122.490
21
2580.420
31
0.0
0
LINE
5
4214
8
0-1
6
CONTINUOUS
62
  7
10
4112.490
20
2593.800
30
0.0
11
4112.490
21
2695.900
31
0.0
0
LINE
5
4215
8
0-1
6
CONTINUOUS
62
  7
10
4122.490
20
2593.800
30
0.0
11
4122.490
21
2695.900
31
0.0
0
LINE
5
4216
8
0-1
6
CONTINUOUS
62
  7
10
4112.490
20
2709.290
30
0.0
11
4112.490
21
2811.380
31
0.0
0
LINE
5
4217
8
0-1
6
CONTINUOUS
62
  7
10
4122.490
20
2709.290
30
0.0
11
4122.490
21
2811.380
31
0.0
0
LINE
5
4218
8
0-1
6
CONTINUOUS
62
  7
10
4112.490
20
2824.770
30
0.0
11
4112.490
21
2926.870
31
0.0
0
LINE
5
4219
8
0-1
6
CONTINUOUS
62
  7
10
4122.490
20
2824.770
30
0.0
11
4122.490
21
2926.870
31
0.0
0
LINE
5
421a
8
0-1
6
CONTINUOUS
62
  7
10
4112.490
20
2940.250
30
0.0
11
4112.490
21
3042.350
31
0.0
0
LINE
5
421b
8
0-1
6
CONTINUOUS
62
  7
10
4122.490
20
2940.250
30
0.0
11
4122.490
21
3042.350
31
0.0
0
LINE
5
421c
8
0-1
6
CONTINUOUS
62
  7
10
4112.490
20
3055.740
30
0.0
11
4112.490
21
3157.830
31
0.0
0
LINE
5
421d
8
0-1
6
CONTINUOUS
62
  7
10
4122.490
20
3055.740
30
0.0
11
4122.490
21
3157.830
31
0.0
0
LINE
5
421e
8
0-1
6
CONTINUOUS
62
  7
10
4112.490
20
3171.220
30
0.0
11
4112.490
21
3273.320
31
0.0
0
LINE
5
421f
8
0-1
6
CONTINUOUS
62
  7
10
4122.490
20
3171.220
30
0.0
11
4122.490
21
3273.320
31
0.0
0
LINE
5
4220
8
0-1
6
CONTINUOUS
62
  7
10
4122.490
20
3286.700
30
0.0
11
4122.490
21
3388.800
31
0.0
0
LINE
5
4221
8
0-1
6
CONTINUOUS
62
  7
10
4112.490
20
3286.700
30
0.0
11
4112.490
21
3388.800
31
0.0
0
LINE
5
4222
8
0-1
6
CONTINUOUS
62
  7
10
4122.490
20
3402.190
30
0.0
11
4122.490
21
3453.820
31
0.0
0
LINE
5
4223
8
0-1
6
CONTINUOUS
62
  7
10
4112.490
20
3402.190
30
0.0
11
4112.490
21
3453.820
31
0.0
0
LINE
5
4224
8
0-1
6
CONTINUOUS
62
  7
10
8290.490
20
2013.680
30
0.0
11
8290.490
21
2118.480
31
0.0
0
LINE
5
4225
8
0-1
6
CONTINUOUS
62
  7
10
8300.490
20
2013.680
30
0.0
11
8300.490
21
2118.480
31
0.0
0
LINE
5
4226
8
0-1
6
CONTINUOUS
62
  7
10
8290.490
20
2131.870
30
0.0
11
8290.490
21
2233.960
31
0.0
0
LINE
5
4227
8
0-1
6
CONTINUOUS
62
  7
10
8300.490
20
2131.870
30
0.0
11
8300.490
21
2233.960
31
0.0
0
LINE
5
4228
8
0-1
6
CONTINUOUS
62
  7
10
8290.490
20
2247.350
30
0.0
11
8290.490
21
2349.450
31
0.0
0
LINE
5
4229
8
0-1
6
CONTINUOUS
62
  7
10
8300.490
20
2247.350
30
0.0
11
8300.490
21
2349.450
31
0.0
0
LINE
5
422a
8
0-1
6
CONTINUOUS
62
  7
10
8290.490
20
2362.830
30
0.0
11
8290.490
21
2464.930
31
0.0
0
LINE
5
422b
8
0-1
6
CONTINUOUS
62
  7
10
8300.490
20
2362.830
30
0.0
11
8300.490
21
2464.930
31
0.0
0
LINE
5
422c
8
0-1
6
CONTINUOUS
62
  7
10
8290.490
20
2478.320
30
0.0
11
8290.490
21
2580.420
31
0.0
0
LINE
5
422d
8
0-1
6
CONTINUOUS
62
  7
10
8300.490
20
2478.320
30
0.0
11
8300.490
21
2580.420
31
0.0
0
LINE
5
422e
8
0-1
6
CONTINUOUS
62
  7
10
8290.490
20
2593.800
30
0.0
11
8290.490
21
2695.900
31
0.0
0
LINE
5
422f
8
0-1
6
CONTINUOUS
62
  7
10
8300.490
20
2593.800
30
0.0
11
8300.490
21
2695.900
31
0.0
0
LINE
5
4230
8
0-1
6
CONTINUOUS
62
  7
10
8290.490
20
2709.290
30
0.0
11
8290.490
21
2811.380
31
0.0
0
LINE
5
4231
8
0-1
6
CONTINUOUS
62
  7
10
8300.490
20
2709.290
30
0.0
11
8300.490
21
2811.380
31
0.0
0
LINE
5
4232
8
0-1
6
CONTINUOUS
62
  7
10
8290.490
20
2824.770
30
0.0
11
8290.490
21
2926.870
31
0.0
0
LINE
5
4233
8
0-1
6
CONTINUOUS
62
  7
10
8300.490
20
2824.770
30
0.0
11
8300.490
21
2926.870
31
0.0
0
LINE
5
4234
8
0-1
6
CONTINUOUS
62
  7
10
8290.490
20
2940.250
30
0.0
11
8290.490
21
3042.350
31
0.0
0
LINE
5
4235
8
0-1
6
CONTINUOUS
62
  7
10
8300.490
20
2940.250
30
0.0
11
8300.490
21
3042.350
31
0.0
0
LINE
5
4236
8
0-1
6
CONTINUOUS
62
  7
10
8290.490
20
3055.740
30
0.0
11
8290.490
21
3157.830
31
0.0
0
LINE
5
4237
8
0-1
6
CONTINUOUS
62
  7
10
8300.490
20
3055.740
30
0.0
11
8300.490
21
3157.830
31
0.0
0
LINE
5
4238
8
0-1
6
CONTINUOUS
62
  7
10
8290.490
20
3171.220
30
0.0
11
8290.490
21
3273.320
31
0.0
0
LINE
5
4239
8
0-1
6
CONTINUOUS
62
  7
10
8300.490
20
3171.220
30
0.0
11
8300.490
21
3273.320
31
0.0
0
LINE
5
423a
8
0-1
6
CONTINUOUS
62
  7
10
8290.490
20
3286.700
30
0.0
11
8290.490
21
3388.800
31
0.0
0
LINE
5
423b
8
0-1
6
CONTINUOUS
62
  7
10
8300.490
20
3286.700
30
0.0
11
8300.490
21
3388.800
31
0.0
0
LINE
5
423c
8
0-1
6
CONTINUOUS
62
  7
10
8290.490
20
3402.190
30
0.0
11
8290.490
21
3453.820
31
0.0
0
LINE
5
423d
8
0-1
6
CONTINUOUS
62
  7
10
8300.490
20
3402.190
30
0.0
11
8300.490
21
3453.820
31
0.0
0
LINE
5
423e
8
0-0
6
CONTINUOUS
62
  7
10
1913.510
20
1670.270
30
0.0
11
8367.570
21
1670.270
31
0.0
0
CIRCLE
5
423f
8
0-1
6
CONTINUOUS
62
  7
10
3643.270
20
1932.440
30
0.0
40
3.000
0
CIRCLE
5
4240
8
0-1
6
CONTINUOUS
62
  7
10
3737.590
20
1899.230
30
0.0
40
3.000
0
ARC
5
4241
8
0-1
6
CONTINUOUS
62
  7
10
3610.380
20
2034.750
30
0.0
40
5.000
50
340.603577
51
416.566956
0
CIRCLE
5
4242
8
0-1
6
CONTINUOUS
62
  7
10
3385.010
20
2063.110
30
0.0
40
5.400
0
CIRCLE
5
4243
8
0-1
6
CONTINUOUS
62
  7
10
3479.330
20
2029.900
30
0.0
40
5.400
0
ARC
5
4244
8
0-1
6
CONTINUOUS
62
  7
10
3354.190
20
2150.240
30
0.0
40
5.000
50
340.603577
51
416.566956
0
CIRCLE
5
4245
8
0-1
6
CONTINUOUS
62
  7
10
3128.820
20
2178.600
30
0.0
40
5.400
0
CIRCLE
5
4246
8
0-1
6
CONTINUOUS
62
  7
10
3223.140
20
2145.390
30
0.0
40
5.400
0
ARC
5
4247
8
0-1
6
CONTINUOUS
62
  7
10
3098.010
20
2265.720
30
0.0
40
5.000
50
340.603577
51
416.566956
0
CIRCLE
5
4248
8
0-1
6
CONTINUOUS
62
  7
10
2872.630
20
2294.080
30
0.0
40
5.400
0
CIRCLE
5
4249
8
0-1
6
CONTINUOUS
62
  7
10
2966.960
20
2260.870
30
0.0
40
5.400
0
ARC
5
424a
8
0-1
6
CONTINUOUS
62
  7
10
2841.820
20
2381.210
30
0.0
40
5.000
50
340.603577
51
416.566956
0
CIRCLE
5
424b
8
0-1
6
CONTINUOUS
62
  7
10
2616.440
20
2409.570
30
0.0
40
5.400
0
CIRCLE
5
424c
8
0-1
6
CONTINUOUS
62
  7
10
2710.770
20
2376.350
30
0.0
40
5.400
0
ARC
5
424d
8
0-1
6
CONTINUOUS
62
  7
10
2585.630
20
2496.690
30
0.0
40
5.000
50
340.603577
51
416.566956
0
CIRCLE
5
424e
8
0-1
6
CONTINUOUS
62
  7
10
2360.260
20
2525.050
30
0.0
40
5.400
0
CIRCLE
5
424f
8
0-1
6
CONTINUOUS
62
  7
10
2454.580
20
2491.840
30
0.0
40
5.400
0
ARC
5
4250
8
0-1
6
CONTINUOUS
62
  7
10
2329.440
20
2612.170
30
0.0
40
5.000
50
340.603577
51
416.566956
0
CIRCLE
5
4251
8
0-1
6
CONTINUOUS
62
  7
10
2104.070
20
2640.530
30
0.0
40
5.400
0
CIRCLE
5
4252
8
0-1
6
CONTINUOUS
62
  7
10
2198.390
20
2607.320
30
0.0
40
5.400
0
ARC
5
4253
8
0-1
6
CONTINUOUS
62
  7
10
2073.250
20
2727.660
30
0.0
40
5.000
50
340.603577
51
416.566956
0
CIRCLE
5
4254
8
0-1
6
CONTINUOUS
62
  7
10
1847.880
20
2756.020
30
0.0
40
5.400
0
CIRCLE
5
4255
8
0-1
6
CONTINUOUS
62
  7
10
1942.210
20
2722.810
30
0.0
40
5.400
0
ARC
5
4256
8
0-1
6
CONTINUOUS
62
  7
10
1817.070
20
2843.140
30
0.0
40
5.000
50
340.603577
51
416.566956
0
CIRCLE
5
4257
8
0-1
6
CONTINUOUS
62
  7
10
1591.690
20
2871.500
30
0.0
40
5.400
0
CIRCLE
5
4258
8
0-1
6
CONTINUOUS
62
  7
10
1686.020
20
2838.290
30
0.0
40
5.400
0
ARC
5
4259
8
0-1
6
CONTINUOUS
62
  7
10
1560.880
20
2958.620
30
0.0
40
5.000
50
340.603577
51
416.566956
0
CIRCLE
5
425a
8
0-1
6
CONTINUOUS
62
  7
10
1335.500
20
2986.980
30
0.0
40
5.400
0
CIRCLE
5
425b
8
0-1
6
CONTINUOUS
62
  7
10
1429.830
20
2953.770
30
0.0
40
5.400
0
ARC
5
425c
8
0-1
6
CONTINUOUS
62
  7
10
1304.690
20
3074.110
30
0.0
40
5.000
50
340.603577
51
416.566956
0
CIRCLE
5
425d
8
0-1
6
CONTINUOUS
62
  7
10
1079.320
20
3102.470
30
0.0
40
5.400
0
CIRCLE
5
425e
8
0-1
6
CONTINUOUS
62
  7
10
1173.640
20
3069.260
30
0.0
40
5.400
0
ARC
5
425f
8
0-1
6
CONTINUOUS
62
  7
10
1048.500
20
3189.590
30
0.0
40
5.000
50
340.603577
51
416.566956
0
CIRCLE
5
4260
8
0-1
6
CONTINUOUS
62
  7
10
823.130
20
3217.950
30
0.0
40
5.400
0
CIRCLE
5
4261
8
0-1
6
CONTINUOUS
62
  7
10
917.450
20
3184.740
30
0.0
40
5.400
0
ARC
5
4262
8
0-1
6
CONTINUOUS
62
  7
10
792.310
20
3305.080
30
0.0
40
5.000
50
340.603577
51
416.566956
0
CIRCLE
5
4263
8
0-1
6
CONTINUOUS
62
  7
10
566.940
20
3333.440
30
0.0
40
5.400
0
CIRCLE
5
4264
8
0-1
6
CONTINUOUS
62
  7
10
661.270
20
3300.230
30
0.0
40
5.400
0
ARC
5
4265
8
0-1
6
CONTINUOUS
62
  7
10
536.130
20
3420.560
30
0.0
40
5.000
50
340.603577
51
416.566956
0
CIRCLE
5
4266
8
0-1
6
CONTINUOUS
62
  7
10
310.750
20
3448.920
30
0.0
40
5.400
0
CIRCLE
5
4267
8
0-1
6
CONTINUOUS
62
  7
10
405.080
20
3415.710
30
0.0
40
5.400
0
ARC
5
4268
8
0-1
6
CONTINUOUS
62
  7
10
4091.490
20
2008.680
30
0.0
40
5.000
50
450.000000
51
540.000000
0
ARC
5
4269
8
0-1
6
CONTINUOUS
62
  7
10
4091.490
20
2129.480
30
0.0
40
5.000
50
450.000000
51
540.000000
0
ARC
5
426a
8
0-1
6
CONTINUOUS
62
  7
10
4091.490
20
2244.960
30
0.0
40
5.000
50
450.000000
51
540.000000
0
ARC
5
426b
8
0-1
6
CONTINUOUS
62
  7
10
4091.490
20
2360.450
30
0.0
40
5.000
50
450.000000
51
540.000000
0
ARC
5
426c
8
0-1
6
CONTINUOUS
62
  7
10
4091.490
20
2475.930
30
0.0
40
5.000
50
450.000000
51
540.000000
0
ARC
5
426d
8
0-1
6
CONTINUOUS
62
  7
10
4091.490
20
2591.420
30
0.0
40
5.000
50
450.000000
51
540.000000
0
ARC
5
426e
8
0-1
6
CONTINUOUS
62
  7
10
4091.490
20
2706.900
30
0.0
40
5.000
50
450.000000
51
540.000000
0
ARC
5
426f
8
0-1
6
CONTINUOUS
62
  7
10
4091.490
20
2822.380
30
0.0
40
5.000
50
450.000000
51
540.000000
0
ARC
5
4270
8
0-1
6
CONTINUOUS
62
  7
10
4091.490
20
2937.870
30
0.0
40
5.000
50
450.000000
51
540.000000
0
ARC
5
4271
8
0-1
6
CONTINUOUS
62
  7
10
4091.490
20
3053.350
30
0.0
40
5.000
50
450.000000
51
540.000000
0
ARC
5
4272
8
0-1
6
CONTINUOUS
62
  7
10
4091.490
20
3168.830
30
0.0
40
5.000
50
450.000000
51
540.000000
0
ARC
5
4273
8
0-1
6
CONTINUOUS
62
  7
10
4091.490
20
3284.320
30
0.0
40
5.000
50
450.000000
51
540.000000
0
ARC
5
4274
8
0-1
6
CONTINUOUS
62
  7
10
4091.490
20
3399.800
30
0.0
40
5.000
50
450.000000
51
540.000000
0
ARC
5
4275
8
0-1
6
CONTINUOUS
62
  7
10
8321.490
20
2008.680
30
0.0
40
5.000
50
0.000000
51
90.000000
0
ARC
5
4276
8
0-1
6
CONTINUOUS
62
  7
10
8321.490
20
2129.480
30
0.0
40
5.000
50
0.000000
51
90.000000
0
ARC
5
4277
8
0-1
6
CONTINUOUS
62
  7
10
8321.490
20
2244.960
30
0.0
40
5.000
50
0.000000
51
90.000000
0
ARC
5
4278
8
0-1
6
CONTINUOUS
62
  7
10
8321.490
20
2360.450
30
0.0
40
5.000
50
0.000000
51
90.000000
0
ARC
5
4279
8
0-1
6
CONTINUOUS
62
  7
10
8321.490
20
2475.930
30
0.0
40
5.000
50
0.000000
51
90.000000
0
ARC
5
427a
8
0-1
6
CONTINUOUS
62
  7
10
8321.490
20
2591.420
30
0.0
40
5.000
50
0.000000
51
90.000000
0
ARC
5
427b
8
0-1
6
CONTINUOUS
62
  7
10
8321.490
20
2706.900
30
0.0
40
5.000
50
0.000000
51
90.000000
0
ARC
5
427c
8
0-1
6
CONTINUOUS
62
  7
10
8321.490
20
2822.380
30
0.0
40
5.000
50
0.000000
51
90.000000
0
ARC
5
427d
8
0-1
6
CONTINUOUS
62
  7
10
8321.490
20
2937.870
30
0.0
40
5.000
50
0.000000
51
90.000000
0
ARC
5
427e
8
0-1
6
CONTINUOUS
62
  7
10
8321.490
20
3053.350
30
0.0
40
5.000
50
0.000000
51
90.000000
0
ARC
5
427f
8
0-1
6
CONTINUOUS
62
  7
10
8321.490
20
3168.830
30
0.0
40
5.000
50
0.000000
51
90.000000
0
ARC
5
4280
8
0-1
6
CONTINUOUS
62
  7
10
8321.490
20
3284.320
30
0.0
40
5.000
50
0.000000
51
90.000000
0
ARC
5
4281
8
0-1
6
CONTINUOUS
62
  7
10
8321.490
20
3399.800
30
0.0
40
5.000
50
0.000000
51
90.000000
0
CIRCLE
5
4282
8
ADD_LINE
6
HIDDEN
62
  3
10
4086.490
20
1776.030
30
0.0
40
3.000
0
ENDSEC
0
EOF
