  0
SECTION
  2
HEADER
  9
$ACADVER
  1
AC1009
  9
$INSBASE
 10
0
 20
0
 30
0
  9
$EXTMIN
 10
0
 20
0
  9
$EXTMAX
 10
420
 20
297
  9
$LIMMIN
 10
0
 20
0
  9
$LIMMAX
 10
420
 20
297
  9
$LTSCALE
 40
1
  0
ENDSEC
  0
SECTION
  2
TABLES
  0
TABLE
  2
LTYPE
 70
     9
  0
LTYPE
  2
CONTINUOUS
 70
    64
  3
実線
 72
    65
 73
     0
 40
0.0
  0
LTYPE
  2
DASHED1
 70
    64
  3
--  --  --  --  --  --  --  --  
 72
    65
 73
     2
 40
2.5
 49
1.25
 49
-1.25
  0
LTYPE
  2
DASHED2
 70
    64
  3
----    ----    ----    ----    
 72
    65
 73
     2
 40
5.0
 49
2.5
 49
-2.5
  0
LTYPE
  2
DASHED3
 70
    64
  3
------  ------  ------  ------  
 72
    65
 73
     2
 40
5.0
 49
3.75
 49
-1.25
  0
LTYPE
  2
CENTER1
 70
    64
  3
----- - ----- - ----- - ----- - 
 72
    65
 73
     4
 40
10.0
 49
6.25
 49
-1.25
 49
1.25
 49
-1.25
  0
LTYPE
  2
CENTER2
 70
    64
  3
----------  --  ----------  --  
 72
    65
 73
     4
 40
20.0
 49
12.5
 49
-2.5
 49
2.5
 49
-2.5
  0
LTYPE
  2
PHANTOM1
 70
    64
  3
--- - - --- - - --- - - --- - - 
 72
    65
 73
     6
 40
10.0
 49
3.25
 49
-1.25
 49
1.25
 49
-1.25
 49
1.25
 49
-1.25
  0
LTYPE
  2
PHANTOM2
 70
    64
  3
--------  -  -  --------  -  -  
 72
    65
 73
     6
 40
20.0
 49
10.0
 49
-2.5
 49
1.25
 49
-2.5
 49
1.25
 49
-2.5
  0
LTYPE
  2
DOT
 70
    64
  3
-   -   -   -   -   -   -   -   
 72
    65
 73
     2
 40
2.5
 49
0.625
 49
-1.875
  0
LTYPE
  2
DUMMY
 70
    64
  3
ダミー
 72
    65
 73
     0
 40
0.0
  0
LTYPE
  2
RAND1
 70
    64
  3
ランダム線1
 72
    65
 73
     4
 40
10.0
 49
1.0
 49
-2.0
 49
3.0
 49
-4.0
  0
LTYPE
  2
RAND2
 70
    64
  3
ランダム線2
 72
    65
 73
     4
 40
14.0
 49
2.0
 49
-3.0
 49
4.0
 49
-5.0
  0
LTYPE
  2
RAND3
 70
    64
  3
ランダム線3
 72
    65
 73
     4
 40
18.0
 49
3.0
 49
-4.0
 49
5.0
 49
-6.0
  0
LTYPE
  2
RAND4
 70
    64
  3
ランダム線4
 72
    65
 73
     4
 40
22.0
 49
4.0
 49
-5.0
 49
6.0
 49
-7.0
  0
LTYPE
  2
RAND5
 70
    64
  3
ランダム線5
 72
    65
 73
     4
 40
26.0
 49
5.0
 49
-6.0
 49
7.0
 49
-8.0
  0
LTYPE
  2
LONG1
 70
    64
  3
----------  --  ----------  --  
 72
    65
 73
     4
 40
40.0
 49
32.5
 49
-2.5
 49
2.5
 49
-2.5
  0
LTYPE
  2
LONG2
 70
    64
  3
--------  -  -  --------  -  -  
 72
    65
 73
     6
 40
40.0
 49
30.0
 49
-2.5
 49
1.25
 49
-2.5
 49
1.25
 49
-2.5
  0
LTYPE
  2
LONG3
 70
    64
  3
+++++++++++++++..+++++++++++++++
 72
    65
 73
     2
 40
40.0
 49
37.5
 49
-2.5
  0
LTYPE
  2
LONG4
 70
    64
  3
+++++++++++++++..+++++++++++++++
 72
    65
 73
     2
 40
80.0
 49
75.0
 49
-5.0
  0
LTYPE
  2
LONG5
 70
    64
  3
----------  --  ----------  --  
 72
    65
 73
     4
 40
60.0
 49
37.5
 49
-7.5
 49
7.5
 49
-7.5
  0
LTYPE
  2
dashed
 70
   64
  3
-------   -------------   ------
 72
   65
 73
    2
 40
7.5
 49
6
 49
-1.5
  0
LTYPE
  2
dashed_spaced
 70
   64
  3
----        --------        ----
 72
   65
 73
    2
 40
12
 49
6
 49
-6
  0
LTYPE
  2
long_dashed_dotted
 70
   64
  3
------------- --- --------------
 72
   65
 73
    4
 40
15.25
 49
12
 49
-1.5
 49
0.25
 49
-1.5
  0
LTYPE
  2
long_dashed_double-dotted
 70
   64
  3
----------- --- --- ------------
 72
   65
 73
    6
 40
17
 49
12
 49
-1.5
 49
0.25
 49
-1.5
 49
0.25
 49
-1.5
  0
LTYPE
  2
long_dashed_triplicate-dotted
 70
   64
  3
--------- --- --- --- ----------
 72
   65
 73
    8
 40
18.75
 49
12
 49
-1.5
 49
0.25
 49
-1.5
 49
0.25
 49
-1.5
 49
0.25
 49
-1.5
  0
LTYPE
  2
dotted
 70
   64
  3
   -       -       -       -    
 72
   65
 73
    2
 40
1.75
 49
0.25
 49
-1.5
  0
LTYPE
  2
chain
 70
   64
  3
-------------- -- --------------
 72
   65
 73
    4
 40
18.5
 49
12
 49
-1.5
 49
3.5
 49
-1.5
  0
LTYPE
  2
chain_double_dash
 70
   64
  3
------------ -- -- -------------
 72
   65
 73
    6
 40
23.5
 49
12
 49
-1.5
 49
3.5
 49
-1.5
 49
3.5
 49
-1.5
  0
LTYPE
  2
dashed_dotted
 70
   64
  3
-----------     -     ----------
 72
   65
 73
    4
 40
9.25
 49
6
 49
-1.5
 49
0.25
 49
-1.5
  0
LTYPE
  2
double-dashed_dotted
 70
   64
  3
------   -----------   -   -----
 72
   65
 73
    6
 40
16.75
 49
6
 49
-1.5
 49
6
 49
-1.5
 49
0.25
 49
-1.5
  0
LTYPE
  2
dashed_double-dotted
 70
   64
  3
---------    -    -    ---------
 72
   65
 73
    6
 40
11
 49
6
 49
-1.5
 49
0.25
 49
-1.5
 49
0.25
 49
-1.5
  0
LTYPE
  2
double-dashed_double-dotted
 70
   64
  3
-----   ---------   -   -   ----
 72
   65
 73
    8
 40
18.5
 49
6
 49
-1.5
 49
6
 49
-1.5
 49
0.25
 49
-1.5
 49
0.25
 49
-1.5
  0
LTYPE
  2
dashed_triplicate-dotted
 70
   64
  3
-------    -    -    -    ------
 72
   65
 73
    8
 40
12.75
 49
6
 49
-1.5
 49
0.25
 49
-1.5
 49
0.25
 49
-1.5
 49
0.25
 49
-1.5
  0
LTYPE
  2
double-dashed_triplicate-dotted
 70
   64
  3
-----  ---------  -  -  -  -----
 72
   65
 73
   10
 40
20.25
 49
6
 49
-1.5
 49
6
 49
-1.5
 49
0.25
 49
-1.5
 49
0.25
 49
-1.5
 49
0.25
 49
-1.5
  0
LTYPE
  2
undefined
 70
   64
  3
--------------------------------
 72
   65
 73
    0
 40
0
  0
ENDTAB
  0
TABLE
  2
STYLE
  5
3
100
AcDbSymbolTable
 70
     1
  0
STYLE
  5
10
100
AcDbSymbolTableRecord
100
AcDbTextStyleTableRecord
  2
STANDARD
 70
     0
 40
0.0
 41
1.0
 50
0.0
 71
     0
 42
0.2
  3
txt
  4
bigfont.shx
  0
STYLE
  5
26
100
AcDbSymbolTableRecord
100
AcDbTextStyleTableRecord
  2
TATEGAKI
 70
    68
 40
0.0
 41
1.0
 50
0.0
 71
     0
 42
1.0
  3
txt
  4
bigfont.shx
  0
ENDTAB
  0
TABLE
  2
LAYER
 70
    9
  0
LAYER
  2
_0-0_
 70
   64
 62
    7
  6
CONTINUOUS
  0
LAYER
  2
_0-1_
 70
   64
 62
    7
  6
CONTINUOUS
  0
LAYER
  2
_1-0_
 70
   64
 62
    7
  6
CONTINUOUS
  0
LAYER
  2
_1-1_
 70
   64
 62
    7
  6
CONTINUOUS
  0
LAYER
  2
_1-2_
 70
   64
 62
    7
  6
CONTINUOUS
  0
LAYER
  2
_1-3_
 70
   64
 62
    7
  6
CONTINUOUS
  0
LAYER
  2
_1-4_
 70
   64
 62
    7
  6
CONTINUOUS
  0
LAYER
  2
_1-5_
 70
   64
 62
    7
  6
CONTINUOUS
  0
LAYER
  2
ADD_LINE
 70
   64
 62
    7
  6
CONTINUOUS
  0
ENDTAB
  0
ENDSEC
  0
SECTION
  2
BLOCKS
  0
ENDSEC
  0
SECTION
  2
ENTITIES
  0
LINE
  8
_1-1_
  6
CONTINUOUS
 62
    7
 10
39.020777521906666
 20
107.14443722286741
 11
37.789677800358959
 21
109.88020613386826
  0
LINE
  8
_1-1_
  6
CONTINUOUS
 62
    7
 10
37.789677800358959
 20
109.88020613386826
 11
42.166925378747891
 21
111.84996321394638
  0
LINE
  8
_1-1_
  6
CONTINUOUS
 62
    7
 10
42.166925378747891
 20
111.84996321394638
 11
43.398012728304479
 21
109.11419430294553
  0
LINE
  8
_1-1_
  6
CONTINUOUS
 62
    7
 10
43.398012728304479
 20
109.11419430294553
 11
39.020777521906666
 21
107.14443722286741
  0
LINE
  8
_1-1_
  6
CONTINUOUS
 62
    7
 10
90.088373132654141
 20
130.12485401050466
 11
88.857285783097552
 21
132.8606229215055
  0
LINE
  8
_1-1_
  6
CONTINUOUS
 62
    7
 10
88.857285783097552
 20
132.8606229215055
 11
93.234520989495365
 21
134.83038000158362
  0
LINE
  8
_1-1_
  6
CONTINUOUS
 62
    7
 10
94.465608339051954
 20
132.09461109058279
 11
90.088373132654141
 21
130.12485401050466
  0
LINE
  8
_1-1_
  6
CONTINUOUS
 62
    7
 10
90.088373132654141
 20
130.12485401050466
 11
93.234520989495365
 21
134.83038000158362
  0
LINE
  8
_1-1_
  6
CONTINUOUS
 62
    7
 10
141.15596874340162
 20
153.10529554212417
 11
139.92488139384503
 21
155.841064453125
  0
LINE
  8
_1-1_
  6
CONTINUOUS
 62
    7
 10
139.92488139384503
 20
155.841064453125
 11
144.30211660024284
 21
157.81080916121201
  0
LINE
  8
_1-1_
  6
CONTINUOUS
 62
    7
 10
144.30211660024284
 20
157.81080916121201
 11
145.53320394979943
 21
155.07504025021115
  0
LINE
  8
_1-1_
  6
CONTINUOUS
 62
    7
 10
145.53320394979943
 20
155.07504025021115
 11
141.15596874340162
 21
153.10529554212417
  0
LINE
  8
_1-1_
  6
CONTINUOUS
 62
    7
 10
141.15596874340162
 20
153.10529554212417
 11
144.30211660024284
 21
157.81080916121201
  0
LINE
  8
_1-1_
  6
CONTINUOUS
 62
    7
 10
192.22356435414909
 20
176.08572470175255
 11
190.9924770045925
 21
178.82149361275339
  0
LINE
  8
_1-1_
  6
CONTINUOUS
 62
    7
 10
190.9924770045925
 20
178.82149361275339
 11
195.36971221099029
 21
180.79123832084039
  0
LINE
  8
_1-1_
  6
CONTINUOUS
 62
    7
 10
195.36971221099029
 20
180.79123832084039
 11
196.60079956054687
 21
178.05546940983953
  0
LINE
  8
_1-1_
  6
CONTINUOUS
 62
    7
 10
196.60079956054687
 20
178.05546940983953
 11
192.22356435414909
 21
176.08572470175255
  0
LINE
  8
_1-1_
  6
CONTINUOUS
 62
    7
 10
192.22356435414909
 20
176.08572470175255
 11
195.36971221099029
 21
180.79123832084039
  0
LINE
  8
_1-2_
  6
CONTINUOUS
 62
    3
 10
41.222125903980157
 20
117.22652126002957
 11
42.550605567725938
 21
117.66827557538008
  0
LINE
  8
_1-2_
  6
CONTINUOUS
 62
    3
 10
39.893200848553647
 20
116.15231075802366
 11
41.104418780352603
 21
116.55506855732686
  0
LINE
  8
_1-2_
  6
CONTINUOUS
 62
    3
 10
41.222125903980157
 20
117.22652126002957
 11
41.104418780352603
 21
116.55506855732686
  0
LINE
  8
_1-2_
  6
CONTINUOUS
 62
    3
 10
39.893200848553647
 20
116.15231075802366
 11
39.512242497624584
 21
114.12874788851352
  0
LINE
  8
_1-2_
  6
CONTINUOUS
 62
    3
 10
42.802103403452293
 20
115.64421782622468
 11
43.181676091374584
 21
115.77043687975085
  0
LINE
  8
_1-2_
  6
CONTINUOUS
 62
    7
 10
42.550605567725938
 20
117.66827557538008
 11
43.181676091374584
 21
115.77043687975085
  0
LINE
  8
_1-2_
  6
CONTINUOUS
 62
    3
 10
42.802103403452293
 20
115.64421782622468
 11
43.874928242451432
 21
112.41792421083193
  0
LINE
  8
_1-2_
  6
CONTINUOUS
 62
    7
 10
43.493524499841641
 20
109.76189278267526
 11
45.011790507548568
 21
110.26675662478885
  0
LINE
  8
_1-2_
  6
CONTINUOUS
 62
    3
 10
42.550605567725938
 20
117.66827557538008
 11
43.181676091374584
 21
115.77043687975085
  0
LINE
  8
_1-2_
  6
CONTINUOUS
 62
    7
 10
43.181676091374584
 20
115.77043687975085
 11
45.011790507548568
 21
110.26675662478885
  0
LINE
  8
ADD_LINE
  6
DOT
 62
    4
 10
42.063050141205679
 20
118.13846072635135
 11
42.738808296822214
 21
118.36316082928633
  0
LINE
  8
ADD_LINE
  6
DOT
 62
    4
 10
42.361289359427786
 20
118.23762223527238
 11
93.234520989495365
 21
134.83038000158362
  0
LINE
  8
_1-2_
  6
CONTINUOUS
 62
    3
 10
92.320651492557019
 20
140.21228274783573
 11
93.651630298511407
 21
140.64639117266682
  0
LINE
  8
_1-2_
  6
CONTINUOUS
 62
    3
 10
90.985565185546875
 20
139.14570576435813
 11
92.199059563714115
 21
139.54149813265414
  0
LINE
  8
_1-2_
  6
CONTINUOUS
 62
    3
 10
92.320651492557019
 20
140.21228274783573
 11
92.199059563714115
 21
139.54149813265414
  0
LINE
  8
_1-2_
  6
CONTINUOUS
 62
    3
 10
90.985565185546875
 20
139.14570576435813
 11
90.593001906936237
 21
137.12436985325169
  0
LINE
  8
_1-2_
  6
CONTINUOUS
 62
    3
 10
93.891498462573907
 20
138.62093538851352
 11
94.27178872598185
 21
138.74496459960937
  0
LINE
  8
_1-2_
  6
CONTINUOUS
 62
    7
 10
93.651630298511407
 20
140.64639117266682
 11
94.27178872598185
 21
138.74496459960937
  0
LINE
  8
_1-2_
  6
CONTINUOUS
 62
    3
 10
93.891498462573907
 20
138.62093538851352
 11
94.94576531487543
 21
135.38851763751057
  0
LINE
  8
_1-2_
  6
CONTINUOUS
 62
    7
 10
93.234520989495365
 20
134.83038000158362
 11
94.549144023173568
 21
132.73472553974875
  0
LINE
  8
_1-2_
  6
CONTINUOUS
 62
    7
 10
94.549144023173568
 20
132.73472553974875
 11
96.070255588840794
 21
133.23085475612331
  0
LINE
  8
_1-2_
  6
CONTINUOUS
 62
    3
 10
29.706635346283775
 20
110.95465170370566
 11
28.734023635451848
 21
115.89666830526816
  0
LINE
  8
_1-2_
  6
CONTINUOUS
 62
    3
 10
31.648963722022813
 20
117.89924827781884
 11
90.593001906936237
 21
137.12436985325169
  0
LINE
  8
_1-2_
  6
CONTINUOUS
 62
    3
 10
29.706635346283775
 20
110.95465170370566
 11
31.179780702333204
 21
111.59792101061022
  0
LINE
  8
_1-2_
  6
CONTINUOUS
 62
    3
 10
32.05602697423987
 20
114.8764739165435
 11
94.94576531487543
 21
135.38851763751057
  0
LINE
  8
_1-2_
  6
CONTINUOUS
 62
    3
 10
31.369195886560391
 20
114.00423616976352
 11
31.179780702333204
 21
111.59792101061022
  0
LINE
  8
_1-2_
  6
CONTINUOUS
 62
    3
 10
93.651630298511407
 20
140.64639117266682
 11
94.27178872598185
 21
138.74496459960937
  0
LINE
  8
_1-2_
  6
CONTINUOUS
 62
    7
 10
94.27178872598185
 20
138.74496459960937
 11
96.070255588840794
 21
133.23085475612331
  0
LINE
  8
_1-2_
  6
CONTINUOUS
 62
    3
 10
143.38824710330448
 20
163.19269953547297
 11
144.71922590925888
 21
163.62683270428633
  0
LINE
  8
_1-2_
  6
CONTINUOUS
 62
    3
 10
142.05316079629435
 20
162.12613492398648
 11
143.26665517446159
 21
162.52193966427365
  0
LINE
  8
_1-2_
  6
CONTINUOUS
 62
    3
 10
143.38824710330448
 20
163.19269953547297
 11
143.26665517446159
 21
162.52193966427365
  0
LINE
  8
_1-2_
  6
CONTINUOUS
 62
    3
 10
142.05316079629435
 20
162.12613492398648
 11
141.6605975176837
 21
160.10479901288008
  0
LINE
  8
_1-2_
  6
CONTINUOUS
 62
    3
 10
144.95909407332138
 20
161.6013645481419
 11
145.33938433672932
 21
161.72540613122891
  0
LINE
  8
_1-2_
  6
CONTINUOUS
 62
    7
 10
144.71922590925888
 20
163.62683270428633
 11
145.33938433672932
 21
161.72540613122891
  0
LINE
  8
_1-2_
  6
CONTINUOUS
 62
    3
 10
144.95909407332138
 20
161.6013645481419
 11
146.01336092562289
 21
158.36895916913008
  0
LINE
  8
_1-2_
  6
CONTINUOUS
 62
    7
 10
144.30211660024284
 20
157.81080916121201
 11
145.61673963392104
 21
155.71516707136826
  0
LINE
  8
_1-2_
  6
CONTINUOUS
 62
    7
 10
145.61673963392104
 20
155.71516707136826
 11
147.13785119958825
 21
156.21128391575169
  0
LINE
  8
_1-2_
  6
CONTINUOUS
 62
    3
 10
80.774243329022397
 20
133.93508086333404
 11
79.801606874208204
 21
138.87709746489654
  0
LINE
  8
_1-2_
  6
CONTINUOUS
 62
    3
 10
82.716546960779141
 20
140.87967743744721
 11
141.6605975176837
 21
160.10479901288008
  0
LINE
  8
_1-2_
  6
CONTINUOUS
 62
    3
 10
80.774243329022397
 20
133.93508086333404
 11
82.247376313080665
 21
134.57835017023859
  0
LINE
  8
_1-2_
  6
CONTINUOUS
 62
    3
 10
83.123634956978464
 20
137.85690307617187
 11
146.01336092562289
 21
158.36895916913008
  0
LINE
  8
_1-2_
  6
CONTINUOUS
 62
    3
 10
82.436791497307865
 20
136.9846653293919
 11
82.247376313080665
 21
134.57835017023859
  0
LINE
  8
_1-2_
  6
CONTINUOUS
 62
    3
 10
144.71922590925888
 20
163.62683270428633
 11
145.33938433672932
 21
161.72540613122891
  0
LINE
  8
_1-2_
  6
CONTINUOUS
 62
    7
 10
145.33938433672932
 20
161.72540613122891
 11
147.13785119958825
 21
156.21128391575169
  0
LINE
  8
_1-2_
  6
CONTINUOUS
 62
    3
 10
193.12075640704182
 20
185.10656408361487
 11
194.33425078520904
 21
185.50236882390203
  0
LINE
  8
_1-2_
  6
CONTINUOUS
 62
    3
 10
194.45584271405195
 20
186.17312869510135
 11
194.33425078520904
 21
185.50236882390203
  0
LINE
  8
_1-2_
  6
CONTINUOUS
 62
    3
 10
193.12075640704182
 20
185.10656408361487
 11
192.72819312843117
 21
183.08522817250847
  0
LINE
  8
_1-2_
  6
CONTINUOUS
 62
    3
 10
196.02668968406886
 20
184.58179370777029
 11
196.40697994747677
 21
184.70583529085727
  0
LINE
  8
_1-2_
  6
CONTINUOUS
 62
    7
 10
195.78682152000636
 20
186.60726186391472
 11
196.40697994747677
 21
184.70583529085727
  0
LINE
  8
_1-2_
  6
CONTINUOUS
 62
    3
 10
196.02668968406886
 20
184.58179370777029
 11
197.08095653637037
 21
181.34938832875847
  0
LINE
  8
_1-2_
  6
CONTINUOUS
 62
    7
 10
195.36971221099029
 20
180.79123832084039
 11
196.68433524466852
 21
178.69559623099664
  0
LINE
  8
_1-2_
  6
CONTINUOUS
 62
    7
 10
196.68433524466852
 20
178.69559623099664
 11
198.20544681033573
 21
179.19171307538008
  0
LINE
  8
_1-2_
  6
CONTINUOUS
 62
    3
 10
131.84181419578761
 20
156.9154976509713
 11
130.86922722893792
 21
161.8575142525338
  0
LINE
  8
_1-2_
  6
CONTINUOUS
 62
    3
 10
133.78416731550888
 20
163.86011896906672
 11
192.72819312843117
 21
183.08522817250847
  0
LINE
  8
_1-2_
  6
CONTINUOUS
 62
    3
 10
131.84181419578761
 20
156.9154976509713
 11
133.31497192382812
 21
157.55879170185813
  0
LINE
  8
_1-2_
  6
CONTINUOUS
 62
    3
 10
134.19120582374367
 20
160.83731986380914
 11
197.08095653637037
 21
181.34938832875847
  0
LINE
  8
_1-2_
  6
CONTINUOUS
 62
    3
 10
133.50438710805534
 20
159.96509448902029
 11
133.31497192382812
 21
157.55879170185813
  0
LINE
  8
_1-2_
  6
CONTINUOUS
 62
    3
 10
195.78682152000636
 20
186.60726186391472
 11
196.40697994747677
 21
184.70583529085727
  0
LINE
  8
_0-0_
  6
CONTINUOUS
 62
    5
 10
12.432428308435391
 20
278.51351351351354
 11
412.43244892842063
 21
278.51351351351354
  0
LINE
  8
_0-0_
  6
CONTINUOUS
 62
    5
 10
412.43244892842063
 20
8.5135135135135158
 11
12.432428308435391
 21
8.5135135135135158
  0
LINE
  8
_0-0_
  6
CONTINUOUS
 62
    5
 10
412.43244892842063
 20
28.513511451515001
 11
12.432415936444272
 21
28.513511451515001
  0
LINE
  8
_0-0_
  6
CONTINUOUS
 62
    5
 10
377.43248192039698
 20
8.5135135135135158
 11
377.43248192039698
 21
28.513511451515001
  0
LINE
  8
_0-0_
  6
CONTINUOUS
 62
    5
 10
142.70271507469386
 20
28.513511451515001
 11
142.70271507469386
 21
8.5135135135135158
  0
LINE
  8
_0-0_
  6
CONTINUOUS
 62
    5
 10
220.54054054054055
 20
28.513511451515001
 11
220.54054054054055
 21
8.5135135135135158
  0
LINE
  8
_0-0_
  6
CONTINUOUS
 62
    5
 10
142.70271507469386
 20
18.513512482514244
 11
220.54054054054055
 21
18.513512482514244
  0
LINE
  8
_0-0_
  6
CONTINUOUS
 62
    5
 10
402.16218690614443
 20
24.324325870823216
 11
389.59456985061234
 21
11.756758303255651
  0
LINE
  8
ADD_LINE
  6
DOT
 62
    7
 10
281.78023879592484
 20
14.427900572080858
 11
281.78023879592484
 21
5.7594216836465364
  0
LINE
  8
ADD_LINE
  6
DOT
 62
    7
 10
279.77981154983109
 20
18.095329903267526
 11
369.79864172033365
 21
18.095329903267526
  0
LINE
  8
ADD_LINE
  6
DOT
 62
    7
 10
281.11343796188771
 20
11.427272074931381
 11
373.79944672455662
 21
11.427272074931381
  0
LINE
  8
ADD_LINE
  6
DOT
 62
    7
 10
14.254930857065574
 20
30.454713976061015
 11
14.254930857065574
 21
15.871074779613593
  0
LINE
  8
ADD_LINE
  6
DOT
 62
    7
 10
11.351351351351354
 20
22.702702702702709
 11
171.08106870908995
 21
22.702702702702709
  0
LINE
  8
ADD_LINE
  6
DOT
 62
    7
 10
140.27027027027029
 20
12.972972972972968
 11
175.13513513513516
 21
12.972972972972968
  0
LINE
  8
ADD_LINE
  6
DOT
 62
    7
 10
383.51353825749578
 20
21.081081081081081
 11
399.72975447371203
 21
21.081081081081081
  0
LINE
  8
ADD_LINE
  6
DOT
 62
    7
 10
20.27027027027026
 20
30.810810810810807
 11
20.27027027027026
 21
15.405405405405418
  0
LINE
  8
ADD_LINE
  6
DOT
 62
    7
 10
147.56756756756758
 20
30
 11
147.56756756756758
 21
8.1081081081080981
  0
LINE
  8
ADD_LINE
  6
DOT
 62
    7
 10
31.231869877995678
 20
28.50595216493349
 11
31.231869877995678
 21
3.2909863703959559
  0
LINE
  8
ADD_LINE
  6
DOT
 62
    7
 10
29.531986133472344
 20
18.589955922719582
 11
54.463632944467918
 21
18.589955922719582
  0
LINE
  8
ADD_LINE
  6
DOT
 62
    7
 10
45.397583214012343
 20
24.822866078969597
 11
45.397583214012343
 21
4.7075580906223706
  0
LINE
  8
ADD_LINE
  6
DOT
 62
    7
 10
43.414380872571797
 20
13.77361400707349
 11
120.75915774783573
 21
13.77361400707349
  0
LINE
  8
ADD_LINE
  6
DOT
 62
    7
 10
91.577793843037384
 20
23.972922660209036
 11
91.577793843037384
 21
5.5575015093829165
  0
LINE
  8
_0-1_
  6
CONTINUOUS
 62
    7
 10
109.06181129249367
 20
85.504302978515625
 11
125.3410256875528
 21
85.504302978515625
  0
LINE
  8
_0-1_
  6
CONTINUOUS
 62
    7
 10
111.60960017023861
 20
78.50430462811444
 11
125.3410256875528
 21
78.50430462811444
  0
LINE
  8
_0-1_
  6
CONTINUOUS
 62
    7
 10
114.15738904798354
 20
71.504306277713269
 11
125.3410256875528
 21
71.504306277713269
  0
LINE
  8
_0-1_
  6
CONTINUOUS
 62
    7
 10
116.70517792572846
 20
64.504307927312084
 11
125.3410256875528
 21
64.504307927312084
  0
LINE
  8
_0-1_
  6
CONTINUOUS
 62
    7
 10
65.12817795212203
 20
127.29729729729731
 11
57.641985094225078
 21
147.86547274202914
  0
LINE
  8
_1-2_
  6
CONTINUOUS
 62
    3
 10
22.155204979149062
 20
105.19560117979309
 11
43.874928242451432
 21
112.41792421083193
  0
LINE
  8
_1-2_
  6
CONTINUOUS
 62
    3
 10
22.155204979149062
 20
108.35711504961994
 11
39.512242497624584
 21
114.12874788851352
  0
LINE
  8
ADD_LINE
  6
DOT
 62
    4
 10
22.155217351140209
 20
105.19558880780195
 11
42.166925378747891
 21
111.84996321394638
  0
LINE
  8
_1-4_
  6
CONTINUOUS
 62
    7
 10
57.641985094225078
 20
147.86547274202914
 11
54.008492134712839
 21
147.86547274202914
  0
LINE
  8
_1-1_
  6
CONTINUOUS
 62
    7
 10
369.62788349873313
 20
107.14443722286741
 11
370.85897084828974
 21
109.88020613386826
  0
LINE
  8
_1-1_
  6
CONTINUOUS
 62
    7
 10
370.85897084828974
 20
109.88020613386826
 11
366.48173564189193
 21
111.84996321394638
  0
LINE
  8
_1-1_
  6
CONTINUOUS
 62
    7
 10
366.48173564189193
 20
111.84996321394638
 11
365.25062354835308
 21
109.11419430294553
  0
LINE
  8
_1-1_
  6
CONTINUOUS
 62
    7
 10
365.25062354835308
 20
109.11419430294553
 11
369.62788349873313
 21
107.14443722286741
  0
LINE
  8
_1-1_
  6
CONTINUOUS
 62
    7
 10
318.56026314400339
 20
130.12485401050466
 11
319.79137523754224
 21
132.8606229215055
  0
LINE
  8
_1-1_
  6
CONTINUOUS
 62
    7
 10
319.79137523754224
 20
132.8606229215055
 11
315.41411528716219
 21
134.83038000158362
  0
LINE
  8
_1-1_
  6
CONTINUOUS
 62
    7
 10
315.41411528716219
 20
134.83038000158362
 11
314.18305268158787
 21
132.09461109058279
  0
LINE
  8
_1-1_
  6
CONTINUOUS
 62
    7
 10
314.18305268158787
 20
132.09461109058279
 11
318.56026314400339
 21
130.12485401050466
  0
LINE
  8
_1-1_
  6
CONTINUOUS
 62
    7
 10
318.56026314400339
 20
130.12485401050466
 11
315.41411528716219
 21
134.83038000158362
  0
LINE
  8
_1-1_
  6
CONTINUOUS
 62
    7
 10
267.49269227723818
 20
153.10529554212417
 11
268.7237548828125
 21
155.841064453125
  0
LINE
  8
_1-1_
  6
CONTINUOUS
 62
    7
 10
268.7237548828125
 20
155.841064453125
 11
264.34654442039698
 21
157.81080916121201
  0
LINE
  8
_1-1_
  6
CONTINUOUS
 62
    7
 10
264.34654442039698
 20
157.81080916121201
 11
263.11543232685813
 21
155.07504025021115
  0
LINE
  8
_1-1_
  6
CONTINUOUS
 62
    7
 10
263.11543232685813
 20
155.07504025021115
 11
267.49269227723818
 21
153.10529554212417
  0
LINE
  8
_1-1_
  6
CONTINUOUS
 62
    7
 10
267.49269227723818
 20
153.10529554212417
 11
264.34654442039698
 21
157.81080916121201
  0
LINE
  8
_1-1_
  6
CONTINUOUS
 62
    7
 10
216.42507192250847
 20
176.08572470175255
 11
217.65618401604732
 21
178.82149361275339
  0
LINE
  8
_1-1_
  6
CONTINUOUS
 62
    7
 10
217.65618401604732
 20
178.82149361275339
 11
213.27892406566724
 21
180.79123832084039
  0
LINE
  8
_1-1_
  6
CONTINUOUS
 62
    7
 10
213.27892406566724
 20
180.79123832084039
 11
212.04786146009292
 21
178.05546940983953
  0
LINE
  8
_1-1_
  6
CONTINUOUS
 62
    7
 10
212.04786146009292
 20
178.05546940983953
 11
216.42507192250847
 21
176.08572470175255
  0
LINE
  8
_1-1_
  6
CONTINUOUS
 62
    7
 10
216.42507192250847
 20
176.08572470175255
 11
213.27892406566724
 21
180.79123832084039
  0
LINE
  8
_1-2_
  6
CONTINUOUS
 62
    3
 10
367.4265103726774
 20
117.22652126002957
 11
366.09805545291385
 21
117.66827557538008
  0
LINE
  8
_1-2_
  6
CONTINUOUS
 62
    3
 10
368.75546017208615
 20
116.15231075802366
 11
367.54424224028719
 21
116.55506855732686
  0
LINE
  8
_1-2_
  6
CONTINUOUS
 62
    3
 10
367.4265103726774
 20
117.22652126002957
 11
367.54424224028719
 21
116.55506855732686
  0
LINE
  8
_1-2_
  6
CONTINUOUS
 62
    3
 10
368.75546017208615
 20
116.15231075802366
 11
369.13641852301521
 21
114.12874788851352
  0
LINE
  8
_1-2_
  6
CONTINUOUS
 62
    3
 10
365.8465576171875
 20
115.64421782622468
 11
365.46698492926521
 21
115.77043687975085
  0
LINE
  8
_1-2_
  6
CONTINUOUS
 62
    7
 10
366.09805545291385
 20
117.66827557538008
 11
365.46698492926521
 21
115.77043687975085
  0
LINE
  8
_1-2_
  6
CONTINUOUS
 62
    3
 10
365.8465576171875
 20
115.64421782622468
 11
364.77370803420609
 21
112.41792421083193
  0
LINE
  8
_1-2_
  6
CONTINUOUS
 62
    7
 10
365.15511177681589
 20
109.76189278267526
 11
363.63687051309125
 21
110.26675662478885
  0
LINE
  8
_1-2_
  6
CONTINUOUS
 62
    3
 10
366.09805545291385
 20
117.66827557538008
 11
365.46698492926521
 21
115.77043687975085
  0
LINE
  8
_1-2_
  6
CONTINUOUS
 62
    7
 10
365.46698492926521
 20
115.77043687975085
 11
363.63687051309125
 21
110.26675662478885
  0
LINE
  8
ADD_LINE
  6
DOT
 62
    4
 10
366.58561087943411
 20
118.13846072635135
 11
365.90985272381761
 21
118.36316082928633
  0
LINE
  8
ADD_LINE
  6
DOT
 62
    4
 10
366.28734691722974
 20
118.23762223527238
 11
315.41411528716219
 21
134.83038000158362
  0
LINE
  8
_1-2_
  6
CONTINUOUS
 62
    3
 10
316.32800952808276
 20
140.21228274783573
 11
314.99703072212839
 21
140.64639117266682
  0
LINE
  8
_1-2_
  6
CONTINUOUS
 62
    3
 10
317.66309583509292
 20
139.14570576435813
 11
316.44960145692568
 21
139.54149813265414
  0
LINE
  8
_1-2_
  6
CONTINUOUS
 62
    3
 10
316.32800952808276
 20
140.21228274783573
 11
316.44960145692568
 21
139.54149813265414
  0
LINE
  8
_1-2_
  6
CONTINUOUS
 62
    3
 10
317.66309583509292
 20
139.14570576435813
 11
318.0556343697213
 21
137.12436985325169
  0
LINE
  8
_1-2_
  6
CONTINUOUS
 62
    3
 10
314.75716255806589
 20
138.62093538851352
 11
314.37684755067568
 21
138.74496459960937
  0
LINE
  8
_1-2_
  6
CONTINUOUS
 62
    7
 10
314.99703072212839
 20
140.64639117266682
 11
314.37684755067568
 21
138.74496459960937
  0
LINE
  8
_1-2_
  6
CONTINUOUS
 62
    3
 10
314.75716255806589
 20
138.62093538851352
 11
313.70287096178214
 21
135.38851763751057
  0
LINE
  8
_1-2_
  6
CONTINUOUS
 62
    7
 10
315.41411528716219
 20
134.83038000158362
 11
314.09951699746625
 21
132.73472553974875
  0
LINE
  8
_1-2_
  6
CONTINUOUS
 62
    7
 10
314.09951699746625
 20
132.73472553974875
 11
312.57840543179901
 21
133.23085475612331
  0
LINE
  8
_1-2_
  6
CONTINUOUS
 62
    3
 10
378.9420133023649
 20
110.95465170370566
 11
379.91462501319683
 21
115.89666830526816
  0
LINE
  8
_1-2_
  6
CONTINUOUS
 62
    3
 10
376.99968492662589
 20
117.89924827781884
 11
318.0556343697213
 21
137.12436985325169
  0
LINE
  8
_1-2_
  6
CONTINUOUS
 62
    3
 10
378.9420133023649
 20
110.95465170370566
 11
377.46885557432432
 21
111.59792101061022
  0
LINE
  8
_1-2_
  6
CONTINUOUS
 62
    3
 10
376.5926216744088
 20
114.8764739165435
 11
313.70287096178214
 21
135.38851763751057
  0
LINE
  8
_1-2_
  6
CONTINUOUS
 62
    3
 10
377.27946513407943
 20
114.00423616976352
 11
377.46885557432432
 21
111.59792101061022
  0
LINE
  8
_1-2_
  6
CONTINUOUS
 62
    3
 10
314.99703072212839
 20
140.64639117266682
 11
314.37684755067568
 21
138.74496459960937
  0
LINE
  8
_1-2_
  6
CONTINUOUS
 62
    7
 10
314.37684755067568
 20
138.74496459960937
 11
312.57840543179901
 21
133.23085475612331
  0
LINE
  8
_1-2_
  6
CONTINUOUS
 62
    3
 10
265.26038917335308
 20
163.19269953547297
 11
263.92941036739865
 21
163.62683270428633
  0
LINE
  8
_1-2_
  6
CONTINUOUS
 62
    3
 10
266.59547548036318
 20
162.12613492398648
 11
265.38198110219594
 21
162.52193966427365
  0
LINE
  8
_1-2_
  6
CONTINUOUS
 62
    3
 10
265.26038917335308
 20
163.19269953547297
 11
265.38198110219594
 21
162.52193966427365
  0
LINE
  8
_1-2_
  6
CONTINUOUS
 62
    3
 10
266.59547548036318
 20
162.12613492398648
 11
266.98806350295609
 21
160.10479901288008
  0
LINE
  8
_1-2_
  6
CONTINUOUS
 62
    3
 10
263.68954220333615
 20
161.6013645481419
 11
263.30927668391047
 21
161.72540613122891
  0
LINE
  8
_1-2_
  6
CONTINUOUS
 62
    7
 10
263.92941036739865
 20
163.62683270428633
 11
263.30927668391047
 21
161.72540613122891
  0
LINE
  8
_1-2_
  6
CONTINUOUS
 62
    3
 10
263.68954220333615
 20
161.6013645481419
 11
262.63530009501693
 21
158.36895916913008
  0
LINE
  8
_1-2_
  6
CONTINUOUS
 62
    7
 10
264.34654442039698
 20
157.81080916121201
 11
263.03189664273651
 21
155.71516707136826
  0
LINE
  8
_1-2_
  6
CONTINUOUS
 62
    7
 10
263.03189664273651
 20
155.71516707136826
 11
261.51078507706927
 21
156.21128391575169
  0
LINE
  8
_1-2_
  6
CONTINUOUS
 62
    3
 10
327.87439294763516
 20
133.93508086333404
 11
328.84702940244932
 21
138.87709746489654
  0
LINE
  8
_1-2_
  6
CONTINUOUS
 62
    3
 10
325.93208931587839
 20
140.87967743744721
 11
266.98806350295609
 21
160.10479901288008
  0
LINE
  8
_1-2_
  6
CONTINUOUS
 62
    3
 10
327.87439294763516
 20
133.93508086333404
 11
326.40128470755911
 21
134.57835017023859
  0
LINE
  8
_1-2_
  6
CONTINUOUS
 62
    3
 10
325.52500131967906
 20
137.85690307617187
 11
262.63530009501693
 21
158.36895916913008
  0
LINE
  8
_1-2_
  6
CONTINUOUS
 62
    3
 10
326.21184477934969
 20
136.9846653293919
 11
326.40128470755911
 21
134.57835017023859
  0
LINE
  8
_1-2_
  6
CONTINUOUS
 62
    3
 10
263.92941036739865
 20
163.62683270428633
 11
263.30927668391047
 21
161.72540613122891
  0
LINE
  8
_1-2_
  6
CONTINUOUS
 62
    7
 10
263.30927668391047
 20
161.72540613122891
 11
261.51078507706927
 21
156.21128391575169
  0
LINE
  8
_1-2_
  6
CONTINUOUS
 62
    3
 10
215.527904613598
 20
185.10656408361487
 11
214.31441023543076
 21
185.50236882390203
  0
LINE
  8
_1-2_
  6
CONTINUOUS
 62
    3
 10
214.19281830658784
 20
186.17312869510135
 11
214.31441023543076
 21
185.50236882390203
  0
LINE
  8
_1-2_
  6
CONTINUOUS
 62
    3
 10
215.527904613598
 20
185.10656408361487
 11
215.92044314822635
 21
183.08522817250847
  0
LINE
  8
_1-2_
  6
CONTINUOUS
 62
    3
 10
212.62197133657097
 20
184.58179370777029
 11
212.24165632918076
 21
184.70583529085727
  0
LINE
  8
_1-2_
  6
CONTINUOUS
 62
    7
 10
212.86183950063347
 20
186.60726186391472
 11
212.24165632918076
 21
184.70583529085727
  0
LINE
  8
_1-2_
  6
CONTINUOUS
 62
    3
 10
212.62197133657097
 20
184.58179370777029
 11
211.56767974028716
 21
181.34938832875847
  0
LINE
  8
_1-2_
  6
CONTINUOUS
 62
    7
 10
213.27892406566724
 20
180.79123832084039
 11
211.9643257759713
 21
178.69559623099664
  0
LINE
  8
_1-2_
  6
CONTINUOUS
 62
    7
 10
211.9643257759713
 20
178.69559623099664
 11
210.44321421030406
 21
179.19171307538008
  0
LINE
  8
_1-2_
  6
CONTINUOUS
 62
    3
 10
276.80682208086995
 20
156.9154976509713
 11
277.77940904771958
 21
161.8575142525338
  0
LINE
  8
_1-2_
  6
CONTINUOUS
 62
    3
 10
274.86446896114865
 20
163.86011896906672
 11
215.92044314822635
 21
183.08522817250847
  0
LINE
  8
_1-2_
  6
CONTINUOUS
 62
    3
 10
276.80682208086995
 20
156.9154976509713
 11
275.33366435282943
 21
157.55879170185813
  0
LINE
  8
_1-2_
  6
CONTINUOUS
 62
    3
 10
274.45743045291385
 20
160.83731986380914
 11
211.56767974028716
 21
181.34938832875847
  0
LINE
  8
_1-2_
  6
CONTINUOUS
 62
    3
 10
275.14427391258448
 20
159.96509448902029
 11
275.33366435282943
 21
157.55879170185813
  0
LINE
  8
_1-2_
  6
CONTINUOUS
 62
    3
 10
212.86183950063347
 20
186.60726186391472
 11
212.24165632918076
 21
184.70583529085727
  0
LINE
  8
_1-2_
  6
CONTINUOUS
 62
    7
 10
212.24165632918076
 20
184.70583529085727
 11
210.44321421030406
 21
179.19171307538008
  0
LINE
  8
_1-2_
  6
CONTINUOUS
 62
    3
 10
386.49343129750849
 20
105.19560117979309
 11
364.77370803420609
 21
112.41792421083193
  0
LINE
  8
_1-2_
  6
CONTINUOUS
 62
    3
 10
386.49343129750849
 20
108.35711504961994
 11
369.13641852301521
 21
114.12874788851352
  0
LINE
  8
ADD_LINE
  6
DOT
 62
    4
 10
386.49343129750849
 20
105.19558880780195
 11
366.48173564189193
 21
111.84996321394638
  0
LINE
  8
_1-0_
  6
CONTINUOUS
 62
    7
 10
22.155204979149062
 20
97.581073657886407
 11
204.32429958034209
 21
179.55718169341216
  0
LINE
  8
_1-0_
  6
CONTINUOUS
 62
    7
 10
386.49343129750849
 20
97.581073657886407
 11
204.32429958034209
 21
179.55718169341216
  0
LINE
  8
_1-1_
  6
CONTINUOUS
 62
    7
 10
217.65618401604732
 20
178.82149361275339
 11
213.27892406566724
 21
180.79123832084039
  0
LINE
  8
_1-1_
  6
CONTINUOUS
 62
    7
 10
213.27892406566724
 20
180.79123832084039
 11
212.04786146009292
 21
178.05546940983953
  0
LINE
  8
_1-2_
  6
CONTINUOUS
 62
    3
 10
215.527904613598
 20
185.10656408361487
 11
214.31441023543076
 21
185.50236882390203
  0
LINE
  8
_1-2_
  6
CONTINUOUS
 62
    3
 10
214.19281830658784
 20
186.17312869510135
 11
214.31441023543076
 21
185.50236882390203
  0
LINE
  8
_1-2_
  6
CONTINUOUS
 62
    3
 10
215.527904613598
 20
185.10656408361487
 11
215.92044314822635
 21
183.08522817250847
  0
LINE
  8
_1-2_
  6
CONTINUOUS
 62
    3
 10
212.62197133657097
 20
184.58179370777029
 11
212.24165632918076
 21
184.70583529085727
  0
LINE
  8
_1-2_
  6
CONTINUOUS
 62
    7
 10
212.86183950063347
 20
186.60726186391472
 11
212.24165632918076
 21
184.70583529085727
  0
LINE
  8
_1-2_
  6
CONTINUOUS
 62
    3
 10
212.62197133657097
 20
184.58179370777029
 11
211.56767974028716
 21
181.34938832875847
  0
LINE
  8
_1-2_
  6
CONTINUOUS
 62
    7
 10
213.27892406566724
 20
180.79123832084039
 11
211.9643257759713
 21
178.69559623099664
  0
LINE
  8
_1-2_
  6
CONTINUOUS
 62
    7
 10
211.9643257759713
 20
178.69559623099664
 11
210.44321421030406
 21
179.19171307538008
  0
LINE
  8
_1-2_
  6
CONTINUOUS
 62
    3
 10
212.86183950063347
 20
186.60726186391472
 11
212.24165632918076
 21
184.70583529085727
  0
LINE
  8
_1-2_
  6
CONTINUOUS
 62
    7
 10
212.24165632918076
 20
184.70583529085727
 11
210.44321421030406
 21
179.19171307538008
  0
LINE
  8
_1-0_
  6
CONTINUOUS
 62
    3
 10
227.32432597392315
 20
181.22050929713893
 11
226.52432828336151
 21
187.42050995697846
  0
LINE
  8
_1-0_
  6
CONTINUOUS
 62
    3
 10
182.12432036528716
 20
187.42050995697846
 11
181.32432267472552
 21
181.22050929713893
  0
LINE
  8
_1-0_
  6
CONTINUOUS
 62
    3
 10
223.72808507970862
 20
185.22225457268794
 11
204.32432432432432
 21
194.88601684570312
  0
LINE
  8
_1-0_
  6
CONTINUOUS
 62
    3
 10
225.62725995038008
 20
181.82050137906461
 11
223.72808507970862
 21
185.22225457268794
  0
LINE
  8
_1-0_
  6
CONTINUOUS
 62
    3
 10
227.32432597392315
 20
181.22050929713893
 11
225.62725995038008
 21
181.82050137906461
  0
LINE
  8
_1-0_
  6
CONTINUOUS
 62
    3
 10
181.32432267472552
 20
181.22050929713893
 11
182.12432036528716
 21
187.42050995697846
  0
LINE
  8
_1-0_
  6
CONTINUOUS
 62
    3
 10
181.32432267472552
 20
181.22050929713893
 11
183.02138869826859
 21
181.82050137906461
  0
LINE
  8
_1-0_
  6
CONTINUOUS
 62
    3
 10
183.02138869826859
 20
181.82050137906461
 11
184.92056356894005
 21
185.22230406065245
  0
LINE
  8
_1-0_
  6
CONTINUOUS
 62
    3
 10
204.32432432432432
 20
194.88601684570312
 11
184.92056356894005
 21
185.22230406065245
  0
LINE
  8
_1-0_
  6
CONTINUOUS
 62
    3
 10
205.19924679317992
 20
198.01900090398016
 11
226.52432828336151
 21
187.42050995697846
  0
LINE
  8
_1-0_
  6
CONTINUOUS
 62
    3
 10
203.44940185546875
 20
198.01900090398016
 11
182.12432036528716
 21
187.42050995697846
  0
LINE
  8
_1-1_
  6
CONTINUOUS
 62
    7
 10
201.32431442673143
 20
186.08173679661107
 11
201.32431442673143
 21
192.08173184781461
  0
LINE
  8
_1-1_
  6
CONTINUOUS
 62
    7
 10
201.32431442673143
 20
192.08173184781461
 11
207.32433422191724
 21
192.08173184781461
  0
LINE
  8
_1-1_
  6
CONTINUOUS
 62
    7
 10
207.32433422191724
 20
192.08173184781461
 11
207.32433422191724
 21
186.08173679661107
  0
LINE
  8
_1-1_
  6
CONTINUOUS
 62
    7
 10
207.32433422191724
 20
186.08173679661107
 11
201.32431442673143
 21
186.08173679661107
  0
LINE
  8
_1-1_
  6
CONTINUOUS
 62
    7
 10
201.32431442673143
 20
192.08173184781461
 11
207.32433422191724
 21
186.08173679661107
  0
LINE
  8
_1-1_
  6
CONTINUOUS
 62
    7
 10
207.32433422191724
 20
192.08173184781461
 11
201.32431442673143
 21
186.08173679661107
  0
LINE
  8
_1-1_
  6
CONTINUOUS
 62
    7
 10
207.72434543918919
 20
185.68173795133023
 11
200.9243155814506
 21
185.68173795133023
  0
LINE
  8
_1-1_
  6
CONTINUOUS
 62
    7
 10
200.9243155814506
 20
190.44850529851141
 11
200.9243155814506
 21
185.68173795133023
  0
LINE
  8
_1-1_
  6
CONTINUOUS
 62
    7
 10
207.72434543918919
 20
190.44850529851141
 11
207.72434543918919
 21
185.68173795133023
  0
LINE
  8
_1-1_
  6
CONTINUOUS
 62
    7
 10
200.9243155814506
 20
190.44850529851141
 11
201.32431442673143
 21
190.44850529851141
  0
LINE
  8
_1-1_
  6
CONTINUOUS
 62
    7
 10
207.32433422191724
 20
190.44850529851141
 11
207.72434543918919
 21
190.44850529851141
  0
LINE
  8
_1-0_
  6
CONTINUOUS
 62
    7
 10
386.49343129750849
 20
99.554938239020274
 11
218.32432102512669
 21
175.23104281038852
  0
LINE
  8
_1-0_
  6
CONTINUOUS
 62
    7
 10
386.49343129750849
 20
98.896971006651185
 11
218.32432102512669
 21
174.57306320602831
  0
LINE
  8
_1-0_
  6
CONTINUOUS
 62
    7
 10
204.32432432432432
 20
180.87306667018581
 11
204.3243119523332
 21
180.87306667018581
  0
LINE
  8
_1-1_
  6
CONTINUOUS
 62
    2
 10
218.32432102512669
 20
175.23104281038852
 11
204.3243119523332
 21
181.53104627454604
  0
LINE
  8
_1-1_
  6
CONTINUOUS
 62
    2
 10
218.32432102512669
 20
174.57306320602831
 11
204.3243119523332
 21
180.87306667018581
  0
LINE
  8
_1-1_
  6
CONTINUOUS
 62
    2
 10
218.32432102512669
 20
175.23104281038852
 11
218.32432102512669
 21
174.57306320602831
  0
LINE
  8
_1-0_
  6
CONTINUOUS
 62
    7
 10
22.155204979149062
 20
99.554932053024714
 11
190.32431525153083
 21
175.23104281038852
  0
LINE
  8
_1-0_
  6
CONTINUOUS
 62
    7
 10
22.155204979149062
 20
98.896977192646759
 11
190.32431525153083
 21
174.57307557801943
  0
LINE
  8
_1-0_
  6
CONTINUOUS
 62
    7
 10
204.32429958034209
 20
180.87306667018581
 11
204.3243119523332
 21
180.87306667018581
  0
LINE
  8
_1-1_
  6
CONTINUOUS
 62
    2
 10
204.32432432432432
 20
181.53104627454604
 11
190.32432762352198
 21
175.23104281038852
  0
LINE
  8
_1-1_
  6
CONTINUOUS
 62
    2
 10
190.32432762352198
 20
174.57307557801943
 11
204.32432432432432
 21
180.87307904217695
  0
LINE
  8
_1-1_
  6
CONTINUOUS
 62
    2
 10
190.32432762352198
 20
175.23104281038852
 11
190.32432762352198
 21
174.57307557801943
  0
LINE
  8
_1-1_
  6
CONTINUOUS
 62
    7
 10
201.32432679872255
 20
186.98922234612544
 11
201.32432679872255
 21
180.18105171822214
  0
LINE
  8
_1-1_
  6
CONTINUOUS
 62
    7
 10
207.32432184992612
 20
186.98922234612544
 11
207.32432184992612
 21
180.18103934623102
  0
LINE
  8
_1-1_
  6
CONTINUOUS
 62
    7
 10
200.92432795344175
 20
187.38922119140625
 11
200.92432795344175
 21
180.0010516192462
  0
LINE
  8
_1-1_
  6
CONTINUOUS
 62
    7
 10
207.72432069520693
 20
187.38922119140625
 11
207.72432069520693
 21
180.00103924725508
  0
LINE
  8
_1-1_
  6
CONTINUOUS
 62
    7
 10
203.72431987040753
 20
182.10643046611065
 11
204.92432877824115
 21
182.10643046611065
  0
LINE
  8
_1-1_
  6
CONTINUOUS
 62
    7
 10
203.72431987040753
 20
185.68173795133023
 11
203.72431987040753
 21
182.10643046611065
  0
LINE
  8
_1-1_
  6
CONTINUOUS
 62
    7
 10
203.72431987040753
 20
186.98922234612544
 11
203.72431987040753
 21
181.26105231207771
  0
LINE
  8
_1-1_
  6
CONTINUOUS
 62
    7
 10
204.92432877824115
 20
185.68173795133023
 11
204.92432877824115
 21
182.10643046611065
  0
LINE
  8
_1-1_
  6
CONTINUOUS
 62
    7
 10
204.92432877824115
 20
186.98922234612544
 11
204.92432877824115
 21
181.26103994008659
  0
LINE
  8
_1-1_
  6
CONTINUOUS
 62
    7
 10
203.72431987040753
 20
182.84732715503591
 11
204.92432877824115
 21
182.84732715503591
  0
LINE
  8
_1-1_
  6
CONTINUOUS
 62
    7
 10
203.72431987040753
 20
182.54733111407307
 11
204.92432877824115
 21
182.54733111407307
  0
LINE
  8
_1-1_
  6
CONTINUOUS
 62
    7
 10
203.72431987040753
 20
182.24733507311024
 11
204.92432877824115
 21
182.24733507311024
  0
LINE
  8
_1-1_
  6
CONTINUOUS
 62
    7
 10
203.72431987040753
 20
185.48924214131125
 11
204.92432877824115
 21
185.48924214131125
  0
LINE
  8
_1-1_
  6
CONTINUOUS
 62
    7
 10
203.72431987040753
 20
185.18924610034841
 11
204.92432877824115
 21
185.18924610034841
  0
LINE
  8
_1-1_
  6
CONTINUOUS
 62
    7
 10
203.72431987040753
 20
184.88925005938557
 11
204.92432877824115
 21
184.88925005938557
  0
LINE
  8
_1-1_
  6
CONTINUOUS
 62
    7
 10
203.72431987040753
 20
184.58925401842274
 11
204.92432877824115
 21
184.58925401842274
  0
LINE
  8
_1-1_
  6
CONTINUOUS
 62
    7
 10
203.72431987040753
 20
184.2892579774599
 11
204.92432877824115
 21
184.2892579774599
  0
LINE
  8
_1-1_
  6
CONTINUOUS
 62
    7
 10
203.72431987040753
 20
183.98926193649706
 11
204.92432877824115
 21
183.98926193649706
  0
LINE
  8
_1-1_
  6
CONTINUOUS
 62
    7
 10
203.72431987040753
 20
183.68926589553422
 11
204.92432877824115
 21
183.68926589553422
  0
LINE
  8
_1-1_
  6
CONTINUOUS
 62
    7
 10
203.72431987040753
 20
183.38926985457138
 11
204.92432877824115
 21
183.38926985457138
  0
LINE
  8
_1-1_
  6
CONTINUOUS
 62
    7
 10
203.72431987040753
 20
183.08927381360854
 11
204.92432877824115
 21
183.08927381360854
  0
LINE
  8
_1-1_
  6
CONTINUOUS
 62
    7
 10
203.72431987040753
 20
182.7892777726457
 11
204.92432877824115
 21
182.7892777726457
  0
LINE
  8
_1-1_
  6
CONTINUOUS
 62
    7
 10
203.72431987040753
 20
182.48928173168287
 11
204.92432877824115
 21
182.48928173168287
  0
LINE
  8
_1-1_
  6
CONTINUOUS
 62
    7
 10
203.72431987040753
 20
182.18928569072003
 11
204.92432877824115
 21
182.18928569072003
  0
LINE
  8
_1-1_
  6
CONTINUOUS
 62
    7
 10
203.72431987040753
 20
181.88928964975719
 11
204.92432877824115
 21
181.88928964975719
  0
LINE
  8
_1-1_
  6
CONTINUOUS
 62
    7
 10
203.72431987040753
 20
181.58929360879435
 11
204.92432877824115
 21
181.58929360879435
  0
LINE
  8
_1-1_
  6
CONTINUOUS
 62
    7
 10
203.12432778848185
 20
198.67826719541807
 11
205.52432086016682
 21
198.67826719541807
  0
LINE
  8
_1-1_
  6
CONTINUOUS
 62
    7
 10
203.12432778848185
 20
198.67826719541807
 11
203.12432778848185
 21
197.85743507179055
  0
LINE
  8
_1-1_
  6
CONTINUOUS
 62
    7
 10
205.52432086016682
 20
198.67826719541807
 11
205.52432086016682
 21
197.85743507179055
  0
LINE
  8
_1-1_
  6
DASHED1
 62
    7
 10
203.72431987040753
 20
192.08173184781461
 11
203.72431987040753
 21
188.37494721283784
  0
LINE
  8
_1-1_
  6
DASHED1
 62
    7
 10
203.72431987040753
 20
188.37494721283784
 11
204.32432432432432
 21
187.66345874683279
  0
LINE
  8
_1-1_
  6
DASHED1
 62
    7
 10
204.92432877824115
 20
188.48172986829604
 11
204.32432432432432
 21
187.66345874683279
  0
LINE
  8
_1-1_
  6
DASHED1
 62
    7
 10
204.92432877824115
 20
192.08173184781461
 11
204.92432877824115
 21
188.48172986829604
  0
LINE
  8
_1-1_
  6
CONTINUOUS
 62
    7
 10
203.72431987040753
 20
194.58719614389781
 11
203.72431987040753
 21
192.08173184781461
  0
LINE
  8
_1-1_
  6
CONTINUOUS
 62
    7
 10
204.92432877824115
 20
194.58719614389781
 11
204.92432877824115
 21
192.08173184781461
  0
LINE
  8
_1-1_
  6
DASHED1
 62
    7
 10
203.72431987040753
 20
194.58719614389781
 11
203.72431987040753
 21
198.11706130569047
  0
LINE
  8
_1-1_
  6
DASHED1
 62
    7
 10
204.92432877824115
 20
194.58719614389781
 11
204.92432877824115
 21
198.06659595386404
  0
LINE
  8
_1-3_
  6
CONTINUOUS
 62
    7
 10
204.42499521616344
 20
199.45510451858109
 11
186.72713408599029
 21
248.07957829655828
  0
LINE
  8
_1-3_
  6
CONTINUOUS
 62
    7
 10
202.68366220835094
 20
190.05187163481841
 11
187.28613776129646
 21
232.35621271906675
  0
LINE
  8
_1-3_
  6
CONTINUOUS
 62
    7
 10
200.94231682854732
 20
185.23489874762458
 11
187.85460600981841
 21
221.19308884079393
  0
LINE
  8
_1-3_
  6
CONTINUOUS
 62
    7
 10
213.13169737119932
 20
192.83801929370779
 11
226.97246654613599
 21
230.86523932379646
  0
LINE
  8
_1-3_
  6
CONTINUOUS
 62
    7
 10
186.72713408599029
 20
248.07957829655828
 11
182.72713326119089
 21
248.07957829655828
  0
LINE
  8
_1-3_
  6
CONTINUOUS
 62
    7
 10
187.28613776129646
 20
232.35621271906675
 11
183.28613693649706
 21
232.35621271906675
  0
LINE
  8
_1-3_
  6
CONTINUOUS
 62
    7
 10
187.85460600981841
 20
221.19308884079393
 11
183.85460518501901
 21
221.19308884079393
  0
LINE
  8
_1-3_
  6
CONTINUOUS
 62
    7
 10
226.97246654613599
 20
230.86523932379646
 11
230.97245499894427
 21
230.86523932379646
  0
LINE
  8
_1-3_
  6
CONTINUOUS
 62
    7
 10
91.956587095518373
 20
132.64974233266472
 11
111.5496826171875
 21
78.818157299144858
  0
LINE
  8
_1-0_
  6
CONTINUOUS
 62
    3
 10
212.86183950063347
 20
186.60726186391472
 11
214.19281830658784
 21
186.17312869510135
  0
LINE
  8
_1-0_
  6
CONTINUOUS
 62
    3
 10
194.45584271405195
 20
186.17312869510135
 11
195.78682152000636
 21
186.60726186391472
  0
LINE
  8
_1-0_
  6
CONTINUOUS
 62
    7
 10
36.107603537069792
 20
66.57574421650655
 11
204.32432432432432
 21
142.27324614653716
  0
LINE
  8
_1-0_
  6
CONTINUOUS
 62
    7
 10
248.85235760663008
 20
122.23563116949958
 11
204.32432432432432
 21
142.27324614653716
  0
LINE
  8
_1-0_
  6
CONTINUOUS
 62
    7
 10
372.54101727459886
 20
66.57574421650655
 11
250.43386923300255
 21
121.52394475163641
  0
LINE
  8
_1-0_
  6
CONTINUOUS
 62
    7
 10
250.43386923300255
 20
121.52394475163641
 11
248.85235760663008
 21
122.23563116949958
  0
LINE
  8
_1-0_
  6
CONTINUOUS
 62
    7
 10
276.06685329127959
 20
136.30716272302575
 11
264.00569606471709
 21
115.41662267736487
  0
LINE
  8
_1-0_
  6
CONTINUOUS
 62
    7
 10
277.90001121727198
 20
135.48224784232477
 11
265.83885399070948
 21
114.59170779666385
  0
LINE
  8
_1-0_
  6
CONTINUOUS
 62
    7
 10
279.73314439928208
 20
134.65733296162375
 11
267.67198717271958
 21
113.76679291596284
  0
LINE
  8
_1-0_
  6
CONTINUOUS
 62
    7
 10
353.16009521484375
 20
101.61520880621833
 11
341.09893798828125
 21
80.724668760557435
  0
LINE
  8
_1-0_
  6
CONTINUOUS
 62
    7
 10
354.99325314083615
 20
100.79028773952176
 11
342.93209591427365
 21
79.899753879856419
  0
LINE
  8
_1-0_
  6
CONTINUOUS
 62
    7
 10
356.8263863228463
 20
99.965372858820743
 11
344.7652290962838
 21
79.074838999155403
  0
LINE
  8
_1-0_
  6
CONTINUOUS
 62
    7
 10
74.205563519452085
 20
110.03788716084249
 11
53.677467139991563
 21
74.482176497175885
  0
LINE
  8
_1-0_
  6
CONTINUOUS
 62
    7
 10
77.325569359031874
 20
111.44188545845651
 11
56.797479165566926
 21
75.886187166781042
  0
LINE
  8
_1-0_
  6
CONTINUOUS
 62
    7
 10
80.445569012616147
 20
112.84588375607053
 11
59.917472633155626
 21
77.290179278399492
  0
LINE
  8
_1-0_
  6
CONTINUOUS
 62
    7
 10
160.89423102301521
 20
149.04778970254435
 11
140.36610371357688
 21
113.49206048089106
  0
LINE
  8
_1-0_
  6
CONTINUOUS
 62
    7
 10
157.77421281144427
 20
147.64377903293919
 11
137.24609787399706
 21
112.0880498112859
  0
LINE
  8
_1-0_
  6
CONTINUOUS
 62
    7
 10
154.65421934385557
 20
146.23978073532518
 11
134.12610440640836
 21
110.68405151367187
  0
LINE
  8
_1-0_
  6
CONTINUOUS
 62
    7
 10
111.5496826171875
 20
78.818157299144858
 11
116.70517792572846
 21
64.504307927312084
  0
LINE
  8
_1-0_
  6
CONTINUOUS
 62
    7
 10
382.38976555901604
 20
88.461858388539909
 11
204.32429958034209
 21
168.59131684174409
  0
LINE
  8
_1-0_
  6
CONTINUOUS
 62
    7
 10
365.15511177681589
 20
109.76189278267526
 11
366.48173564189193
 21
111.84996321394638
  0
LINE
  8
_1-0_
  6
CONTINUOUS
 62
    7
 10
43.493524499841641
 20
109.76189278267526
 11
42.166925378747891
 21
111.84996321394638
  0
LINE
  8
_1-0_
  6
CONTINUOUS
 62
    7
 10
26.258852159654765
 20
88.461858388539909
 11
204.32429958034209
 21
168.59131684174409
  0
ARC
  8
_1-2_
  6
CONTINUOUS
 62
    3
 10
33.444399447054479
 20
112.16303644953548
 40
6.01062568458351
 50
107.38015747070314
 51
141.59829711914062
  0
ARC
  8
_1-2_
  6
CONTINUOUS
 62
    3
 10
32.366106187975078
 20
113.92576063001479
 40
0.9999999162313101
 50
108.06419372558594
 51
175.49896240234378
  0
ARC
  8
_1-2_
  6
CONTINUOUS
 62
    3
 10
84.511995057801954
 20
135.14346560916385
 40
6.01062568458351
 50
107.38015747070314
 51
141.59829711914062
  0
ARC
  8
_1-2_
  6
CONTINUOUS
 62
    3
 10
83.433701798722552
 20
136.90618978964318
 40
0.9999999162313101
 50
108.06419372558594
 51
175.49896240234378
  0
ARC
  8
_1-2_
  6
CONTINUOUS
 62
    3
 10
135.57959066854943
 20
158.12389476879224
 40
6.01062568458351
 50
107.38015747070314
 51
141.59829711914062
  0
ARC
  8
_1-2_
  6
CONTINUOUS
 62
    3
 10
134.50129740947003
 20
159.88660657728042
 40
0.9999999162313101
 50
108.06419372558594
 51
175.49896240234378
  0
ARC
  8
_1-2_
  6
CONTINUOUS
 62
    3
 10
375.20423682960308
 20
112.16303644953548
 40
6.01062568458351
 50
38.401657104492202
 51
72.619796752929702
  0
ARC
  8
_1-2_
  6
CONTINUOUS
 62
    3
 10
376.28253008868245
 20
113.92576063001479
 40
0.9999999162313101
 50
4.5005950927734588
 51
71.935363769531278
  0
ARC
  8
_1-2_
  6
CONTINUOUS
 62
    3
 10
324.13666596283787
 20
135.14346560916385
 40
6.01062568458351
 50
38.401657104492202
 51
72.619796752929702
  0
ARC
  8
_1-2_
  6
CONTINUOUS
 62
    3
 10
325.21495922191724
 20
136.90618978964318
 40
0.9999999162313101
 50
4.5005950927734588
 51
71.935363769531278
  0
ARC
  8
_1-2_
  6
CONTINUOUS
 62
    3
 10
273.06904560810813
 20
158.12389476879224
 40
6.01062568458351
 50
38.401657104492202
 51
72.619796752929702
  0
ARC
  8
_1-2_
  6
CONTINUOUS
 62
    3
 10
274.1473388671875
 20
159.88660657728042
 40
0.9999999162313101
 50
4.5005950927734588
 51
71.935363769531278
  0
ARC
  8
_1-0_
  6
CONTINUOUS
 62
    3
 10
204.32432432432432
 20
196.22050929713896
 40
1.9999998324626203
 50
64.057891845703139
 51
115.9421081542969
  0
ARC
  8
_1-1_
  6
CONTINUOUS
 62
    7
 10
204.32432432432432
 20
198.21467631572003
 40
1.2864322920103333
 50
21.122879028320316
 51
158.87712097167969
  0
CIRCLE
  8
_1-0_
  6
CONTINUOUS
 62
    7
 10
24.445871404699375
 20
94.345117517419766
 40
0.1476736326475401
  0
CIRCLE
  8
_1-0_
  6
CONTINUOUS
 62
    7
 10
26.660972801414687
 20
95.378834492451446
 40
0.1476736326475401
  0
CIRCLE
  8
_1-0_
  6
CONTINUOUS
 62
    7
 10
27.842361862595027
 20
96.264873195338893
 40
0.1476736326475401
  0
CIRCLE
  8
_1-0_
  6
CONTINUOUS
 62
    7
 10
24.888892302642006
 20
96.855567725929063
 40
0.1476736326475401
  0
CIRCLE
  8
_1-0_
  6
CONTINUOUS
 62
    7
 10
25.184238021438176
 20
96.929403769003386
 40
0.1476736326475401
  0
CIRCLE
  8
_1-0_
  6
CONTINUOUS
 62
    7
 10
29.688281497439817
 20
98.33230095940668
 40
0.1476736326475401
  0
CIRCLE
  8
_1-0_
  6
CONTINUOUS
 62
    7
 10
28.506892436259506
 20
98.406137002481003
 40
0.1476736326475401
  0
CIRCLE
  8
_1-0_
  6
CONTINUOUS
 62
    7
 10
28.654564522408151
 20
97.593934342667865
 40
0.1476736326475401
  0
CIRCLE
  8
_1-0_
  6
CONTINUOUS
 62
    7
 10
30.50048415725297
 20
96.634059596706081
 40
0.1476736326475401
  0
CIRCLE
  8
_1-0_
  6
CONTINUOUS
 62
    7
 10
28.728400565482474
 20
95.74801470782306
 40
0.1476736326475401
  0
CIRCLE
  8
_1-0_
  6
CONTINUOUS
 62
    7
 10
30.205133798960105
 20
96.043365066115925
 40
0.1476736326475401
  0
CIRCLE
  8
_1-0_
  6
CONTINUOUS
 62
    7
 10
31.90338134765625
 20
97.077075855152032
 40
0.1476736326475401
  0
CIRCLE
  8
_1-0_
  6
CONTINUOUS
 62
    7
 10
30.574320200327293
 20
98.33230095940668
 40
0.1476736326475401
  0
CIRCLE
  8
_1-0_
  6
CONTINUOUS
 62
    7
 10
30.278969842034428
 20
99.956706279032943
 40
0.1476736326475401
  0
CIRCLE
  8
_1-0_
  6
CONTINUOUS
 62
    7
 10
33.60162271035685
 20
99.218345848289701
 40
0.1476736326475401
  0
CIRCLE
  8
_1-0_
  6
CONTINUOUS
 62
    7
 10
36.333581048089115
 20
99.513690020586992
 40
0.1476736326475401
  0
CIRCLE
  8
_1-0_
  6
CONTINUOUS
 62
    7
 10
35.521378388275963
 20
98.406137002481003
 40
0.1476736326475401
  0
CIRCLE
  8
_1-0_
  6
CONTINUOUS
 62
    7
 10
39.065539385821353
 20
101.21193138328759
 40
0.1651024093499055
  0
CIRCLE
  8
_1-0_
  6
CONTINUOUS
 62
    7
 10
38.253336726008229
 20
101.28576742636191
 40
0.1651024093499055
  0
CIRCLE
  8
_1-0_
  6
CONTINUOUS
 62
    7
 10
36.038233782794009
 20
101.6549538277291
 40
0.1651024093499055
  0
CIRCLE
  8
_1-0_
  6
CONTINUOUS
 62
    7
 10
34.930683857685807
 20
101.13809534021327
 40
0.1651024093499055
  0
CIRCLE
  8
_1-0_
  6
CONTINUOUS
 62
    7
 10
37.293458887048672
 20
100.03054850810284
 40
0.1651024093499055
  0
CIRCLE
  8
_1-0_
  6
CONTINUOUS
 62
    7
 10
40.837619884594062
 20
100.25205663732581
 40
0.1651024093499055
  0
CIRCLE
  8
_1-0_
  6
CONTINUOUS
 62
    7
 10
40.320764490076016
 20
102.31948440139358
 40
0.1651024093499055
  0
CIRCLE
  8
_1-0_
  6
CONTINUOUS
 62
    7
 10
39.434722694190782
 20
102.61482857369089
 40
0.1651024093499055
  0
CIRCLE
  8
_1-0_
  6
CONTINUOUS
 62
    7
 10
38.696356077451981
 20
103.35320137642526
 40
0.1651024093499055
  0
CIRCLE
  8
_1-0_
  6
CONTINUOUS
 62
    7
 10
42.388192254143803
 20
104.23924626530828
 40
0.1651024093499055
  0
CIRCLE
  8
_1-0_
  6
CONTINUOUS
 62
    7
 10
42.019005852776615
 20
103.20552929027662
 40
0.1651024093499055
  0
CIRCLE
  8
_1-0_
  6
CONTINUOUS
 62
    7
 10
43.791089444547083
 20
101.58111778465478
 40
0.1651024093499055
  0
CIRCLE
  8
_1-0_
  6
CONTINUOUS
 62
    7
 10
44.381783975137239
 20
102.17181231524494
 40
0.1651024093499055
  0
CIRCLE
  8
_1-0_
  6
CONTINUOUS
 62
    7
 10
37.929555532094582
 20
99.17125805004224
 40
0.1476736326475401
  0
CIRCLE
  8
_1-0_
  6
CONTINUOUS
 62
    7
 10
40.144655382311015
 20
100.20497502507391
 40
0.1476736326475401
  0
CIRCLE
  8
_1-0_
  6
CONTINUOUS
 62
    7
 10
41.326044443491355
 20
101.09101372796137
 40
0.1476736326475401
  0
CIRCLE
  8
_1-0_
  6
CONTINUOUS
 62
    7
 10
38.372574883538334
 20
101.68170825855152
 40
0.1476736326475401
  0
CIRCLE
  8
_1-0_
  6
CONTINUOUS
 62
    7
 10
38.667922148833412
 20
101.75554430162585
 40
0.1476736326475401
  0
CIRCLE
  8
_1-0_
  6
CONTINUOUS
 62
    7
 10
43.171964078336146
 20
103.15844149202914
 40
0.1476736326475401
  0
CIRCLE
  8
_1-0_
  6
CONTINUOUS
 62
    7
 10
41.990575017155834
 20
103.23227753510346
 40
0.1476736326475401
  0
CIRCLE
  8
_1-0_
  6
CONTINUOUS
 62
    7
 10
42.138247103304479
 20
102.42007487529034
 40
0.1476736326475401
  0
CIRCLE
  8
_1-0_
  6
CONTINUOUS
 62
    7
 10
43.98416673814927
 20
101.46020012932856
 40
0.1476736326475401
  0
CIRCLE
  8
_1-0_
  6
CONTINUOUS
 62
    7
 10
42.212083146378802
 20
100.57415524044553
 40
0.1476736326475401
  0
CIRCLE
  8
_1-0_
  6
CONTINUOUS
 62
    7
 10
43.688816379856405
 20
100.8695055987384
 40
0.1476736326475401
  0
CIRCLE
  8
_1-0_
  6
CONTINUOUS
 62
    7
 10
45.387063928552578
 20
101.90321638777449
 40
0.1476736326475401
  0
CIRCLE
  8
_1-0_
  6
CONTINUOUS
 62
    7
 10
44.058002781223593
 20
103.15844149202914
 40
0.1476736326475401
  0
CIRCLE
  8
_1-0_
  6
CONTINUOUS
 62
    7
 10
43.762652422930756
 20
104.78284681165542
 40
0.1476736326475401
  0
CIRCLE
  8
_1-0_
  6
CONTINUOUS
 62
    7
 10
47.085305291253178
 20
104.04448638091216
 40
0.1476736326475401
  0
CIRCLE
  8
_1-0_
  6
CONTINUOUS
 62
    7
 10
49.817263628985444
 20
104.33983055320947
 40
0.1476736326475401
  0
CIRCLE
  8
_1-0_
  6
CONTINUOUS
 62
    7
 10
49.005060969172291
 20
103.23227753510346
 40
0.1476736326475401
  0
CIRCLE
  8
_1-0_
  6
CONTINUOUS
 62
    7
 10
52.54922196671771
 20
106.03807191591005
 40
0.1651024093499055
  0
CIRCLE
  8
_1-0_
  6
CONTINUOUS
 62
    7
 10
51.737019306904557
 20
106.11190795898437
 40
0.1651024093499055
  0
CIRCLE
  8
_1-0_
  6
CONTINUOUS
 62
    7
 10
49.521916363690366
 20
106.48110054634714
 40
0.1651024093499055
  0
CIRCLE
  8
_1-0_
  6
CONTINUOUS
 62
    7
 10
48.414366438582135
 20
105.96423587283573
 40
0.1651024093499055
  0
CIRCLE
  8
_1-0_
  6
CONTINUOUS
 62
    7
 10
50.777141467945
 20
104.85668285472974
 40
0.1651024093499055
  0
CIRCLE
  8
_1-0_
  6
CONTINUOUS
 62
    7
 10
54.321305558488177
 20
105.07819098395271
 40
0.1651024093499055
  0
CIRCLE
  8
_1-0_
  6
CONTINUOUS
 62
    7
 10
57.274772025443411
 20
106.40726450327281
 40
0.1651024093499055
  0
CIRCLE
  8
_1-0_
  6
CONTINUOUS
 62
    7
 10
46.475941426045182
 20
105.51999478726775
 40
0.1476736326475401
  0
CIRCLE
  8
_1-0_
  6
CONTINUOUS
 62
    7
 10
48.691041276261615
 20
106.55371176229941
 40
0.1476736326475401
  0
CIRCLE
  8
_1-0_
  6
CONTINUOUS
 62
    7
 10
49.872430337441926
 20
107.43975665118244
 40
0.1476736326475401
  0
CIRCLE
  8
_1-0_
  6
CONTINUOUS
 62
    7
 10
46.918960777488905
 20
108.03044499577703
 40
0.1476736326475401
  0
CIRCLE
  8
_1-0_
  6
CONTINUOUS
 62
    7
 10
47.214308042784012
 20
108.10428103885135
 40
0.1476736326475401
  0
CIRCLE
  8
_1-0_
  6
CONTINUOUS
 62
    7
 10
51.718349972286745
 20
109.50717822925465
 40
0.1476736326475401
  0
CIRCLE
  8
_1-0_
  6
CONTINUOUS
 62
    7
 10
50.536960911106405
 20
109.58101427232897
 40
0.1476736326475401
  0
CIRCLE
  8
_1-0_
  6
CONTINUOUS
 62
    7
 10
50.684632997255079
 20
108.76880542652027
 40
0.1476736326475401
  0
CIRCLE
  8
_1-0_
  6
CONTINUOUS
 62
    7
 10
52.530552632099869
 20
107.80893686655406
 40
0.1476736326475401
  0
CIRCLE
  8
_1-0_
  6
CONTINUOUS
 62
    7
 10
50.758469040329402
 20
106.92289197767104
 40
0.1476736326475401
  0
CIRCLE
  8
_1-0_
  6
CONTINUOUS
 62
    7
 10
52.235202273807005
 20
107.21824852195947
 40
0.1476736326475401
  0
CIRCLE
  8
_1-0_
  6
CONTINUOUS
 62
    7
 10
53.933449822503178
 20
108.251953125
 40
0.1476736326475401
  0
CIRCLE
  8
_1-0_
  6
CONTINUOUS
 62
    7
 10
52.604388675174192
 20
109.50717822925465
 40
0.1476736326475401
  0
CIRCLE
  8
_1-0_
  6
CONTINUOUS
 62
    7
 10
52.309038316881328
 20
111.13158354888091
 40
0.1476736326475401
  0
CIRCLE
  8
_1-0_
  6
CONTINUOUS
 62
    7
 10
55.631691185203749
 20
110.39322311813767
 40
0.1476736326475401
  0
CIRCLE
  8
_1-0_
  6
CONTINUOUS
 62
    7
 10
58.363649522936015
 20
110.68856729043497
 40
0.1476736326475401
  0
CIRCLE
  8
_1-0_
  6
CONTINUOUS
 62
    7
 10
57.551446863122891
 20
109.58101427232897
 40
0.1476736326475401
  0
CIRCLE
  8
_1-0_
  6
CONTINUOUS
 62
    7
 10
61.095607860668281
 20
112.38680865313556
 40
0.1651024093499055
  0
CIRCLE
  8
_1-0_
  6
CONTINUOUS
 62
    7
 10
60.283405200855157
 20
112.46064469620988
 40
0.1651024093499055
  0
CIRCLE
  8
_1-0_
  6
CONTINUOUS
 62
    7
 10
58.068299164643179
 20
112.82983728357264
 40
0.1651024093499055
  0
CIRCLE
  8
_1-0_
  6
CONTINUOUS
 62
    7
 10
56.960752332532735
 20
112.31297261006124
 40
0.1651024093499055
  0
CIRCLE
  8
_1-0_
  6
CONTINUOUS
 62
    7
 10
59.323524268897813
 20
111.20541959195525
 40
0.1651024093499055
  0
CIRCLE
  8
_1-0_
  6
CONTINUOUS
 62
    7
 10
62.867691452438777
 20
111.42692772117822
 40
0.1651024093499055
  0
CIRCLE
  8
_1-0_
  6
CONTINUOUS
 62
    7
 10
65.821157919394011
 20
112.75600124049832
 40
0.1651024093499055
  0
CIRCLE
  8
_1-0_
  6
CONTINUOUS
 62
    7
 10
64.30125880885771
 20
110.6478263236381
 40
0.1476736326475401
  0
CIRCLE
  8
_1-0_
  6
CONTINUOUS
 62
    7
 10
66.516358659074115
 20
111.68154329866977
 40
0.1476736326475401
  0
CIRCLE
  8
_1-0_
  6
CONTINUOUS
 62
    7
 10
67.697747720254426
 20
112.56757581556167
 40
0.1476736326475401
  0
CIRCLE
  8
_1-0_
  6
CONTINUOUS
 62
    7
 10
64.744275067303647
 20
113.15827653214738
 40
0.1476736326475401
  0
CIRCLE
  8
_1-0_
  6
CONTINUOUS
 62
    7
 10
65.039625425596512
 20
113.23211257522171
 40
0.1476736326475401
  0
CIRCLE
  8
_1-0_
  6
CONTINUOUS
 62
    7
 10
69.543667355099245
 20
114.635009765625
 40
0.1476736326475401
  0
CIRCLE
  8
_1-0_
  6
CONTINUOUS
 62
    7
 10
68.362278293918905
 20
114.70884580869934
 40
0.1476736326475401
  0
CIRCLE
  8
_1-0_
  6
CONTINUOUS
 62
    7
 10
68.509950380067551
 20
113.89664933488176
 40
0.1476736326475401
  0
CIRCLE
  8
_1-0_
  6
CONTINUOUS
 62
    7
 10
70.355870014912398
 20
112.93676840292441
 40
0.1476736326475401
  0
CIRCLE
  8
_1-0_
  6
CONTINUOUS
 62
    7
 10
68.583786423141902
 20
112.05072351404139
 40
0.1476736326475401
  0
CIRCLE
  8
_1-0_
  6
CONTINUOUS
 62
    7
 10
70.060519656619533
 20
112.34606768633869
 40
0.1476736326475401
  0
CIRCLE
  8
_1-0_
  6
CONTINUOUS
 62
    7
 10
71.758767205315678
 20
113.37978466137037
 40
0.1476736326475401
  0
CIRCLE
  8
_1-0_
  6
CONTINUOUS
 62
    7
 10
70.429706057986721
 20
114.635009765625
 40
0.1476736326475401
  0
CIRCLE
  8
_1-0_
  6
CONTINUOUS
 62
    7
 10
70.134355699693856
 20
116.25941508525128
 40
0.1476736326475401
  0
CIRCLE
  8
_1-0_
  6
CONTINUOUS
 62
    7
 10
73.457008568016249
 20
115.52105465450803
 40
0.1476736326475401
  0
CIRCLE
  8
_1-0_
  6
CONTINUOUS
 62
    7
 10
76.188966905748543
 20
115.81639882680533
 40
0.1476736326475401
  0
CIRCLE
  8
_1-0_
  6
CONTINUOUS
 62
    7
 10
75.376764245935391
 20
114.70884580869934
 40
0.1476736326475401
  0
CIRCLE
  8
_1-0_
  6
CONTINUOUS
 62
    7
 10
78.920925243480781
 20
117.51464018950593
 40
0.1651024093499055
  0
CIRCLE
  8
_1-0_
  6
CONTINUOUS
 62
    7
 10
78.108722583667657
 20
117.58847623258025
 40
0.1651024093499055
  0
CIRCLE
  8
_1-0_
  6
CONTINUOUS
 62
    7
 10
75.893616547455679
 20
117.95765644795186
 40
0.1651024093499055
  0
CIRCLE
  8
_1-0_
  6
CONTINUOUS
 62
    7
 10
74.786069715345235
 20
117.44080414643159
 40
0.1651024093499055
  0
CIRCLE
  8
_1-0_
  6
CONTINUOUS
 62
    7
 10
77.148841651710313
 20
116.33326350031673
 40
0.1651024093499055
  0
CIRCLE
  8
_1-0_
  6
CONTINUOUS
 62
    7
 10
80.693008835251277
 20
116.5547716295397
 40
0.1651024093499055
  0
CIRCLE
  8
_1-0_
  6
CONTINUOUS
 62
    7
 10
83.646475302206511
 20
117.88382040487754
 40
0.1651024093499055
  0
CIRCLE
  8
_1-0_
  6
CONTINUOUS
 62
    7
 10
73.336004308752109
 20
117.24076142182221
 40
0.1476736326475401
  0
CIRCLE
  8
_1-0_
  6
CONTINUOUS
 62
    7
 10
75.551104158968542
 20
118.27447839685389
 40
0.1476736326475401
  0
CIRCLE
  8
_1-0_
  6
CONTINUOUS
 62
    7
 10
76.732493220148854
 20
119.16051091374578
 40
0.1476736326475401
  0
CIRCLE
  8
_1-0_
  6
CONTINUOUS
 62
    7
 10
73.779020567198074
 20
119.75121163033151
 40
0.1476736326475401
  0
CIRCLE
  8
_1-0_
  6
CONTINUOUS
 62
    7
 10
74.074370925490939
 20
119.82504767340583
 40
0.1476736326475401
  0
CIRCLE
  8
_1-0_
  6
CONTINUOUS
 62
    7
 10
78.578412854993672
 20
121.22794486380913
 40
0.1476736326475401
  0
CIRCLE
  8
_1-0_
  6
CONTINUOUS
 62
    7
 10
77.397023793813332
 20
121.30178090688345
 40
0.1476736326475401
  0
CIRCLE
  8
_1-0_
  6
CONTINUOUS
 62
    7
 10
77.544695879961978
 20
120.48958443306589
 40
0.1476736326475401
  0
CIRCLE
  8
_1-0_
  6
CONTINUOUS
 62
    7
 10
79.390615514806797
 20
119.52970350110854
 40
0.1476736326475401
  0
CIRCLE
  8
_1-0_
  6
CONTINUOUS
 62
    7
 10
77.618531923036301
 20
118.64365861222551
 40
0.1476736326475401
  0
CIRCLE
  8
_1-0_
  6
CONTINUOUS
 62
    7
 10
79.09526515651396
 20
118.93900278452281
 40
0.1476736326475401
  0
CIRCLE
  8
_1-0_
  6
CONTINUOUS
 62
    7
 10
80.793512705210105
 20
119.97271975955448
 40
0.1476736326475401
  0
CIRCLE
  8
_1-0_
  6
CONTINUOUS
 62
    7
 10
79.464451557881148
 20
121.22794486380913
 40
0.1476736326475401
  0
CIRCLE
  8
_1-0_
  6
CONTINUOUS
 62
    7
 10
79.169101199588283
 20
122.85235018343539
 40
0.1476736326475401
  0
CIRCLE
  8
_1-0_
  6
CONTINUOUS
 62
    7
 10
82.491754067910691
 20
122.11398975269215
 40
0.1476736326475401
  0
CIRCLE
  8
_1-0_
  6
CONTINUOUS
 62
    7
 10
85.223712405642956
 20
122.40933392498945
 40
0.1476736326475401
  0
CIRCLE
  8
_1-0_
  6
CONTINUOUS
 62
    7
 10
84.411509745829818
 20
121.30178090688345
 40
0.1476736326475401
  0
CIRCLE
  8
_1-0_
  6
CONTINUOUS
 62
    7
 10
87.955670743375222
 20
124.10757528769004
 40
0.1651024093499055
  0
CIRCLE
  8
_1-0_
  6
CONTINUOUS
 62
    7
 10
87.143468083562084
 20
124.18141133076436
 40
0.1651024093499055
  0
CIRCLE
  8
_1-0_
  6
CONTINUOUS
 62
    7
 10
84.928362047350092
 20
124.55059154613599
 40
0.1651024093499055
  0
CIRCLE
  8
_1-0_
  6
CONTINUOUS
 62
    7
 10
83.820815215239662
 20
124.03373924461572
 40
0.1651024093499055
  0
CIRCLE
  8
_1-0_
  6
CONTINUOUS
 62
    7
 10
86.18358715160474
 20
122.92619859850085
 40
0.1651024093499055
  0
CIRCLE
  8
_1-0_
  6
CONTINUOUS
 62
    7
 10
89.727754335145704
 20
123.14770672772383
 40
0.1651024093499055
  0
CIRCLE
  8
_1-0_
  6
CONTINUOUS
 62
    7
 10
92.681220802100938
 20
124.47675550306167
 40
0.1651024093499055
  0
CIRCLE
  8
_1-0_
  6
CONTINUOUS
 62
    7
 10
95.80078125
 20
125.78713494378168
 40
0.1476736326475401
  0
CIRCLE
  8
_1-0_
  6
CONTINUOUS
 62
    7
 10
98.015881100216433
 20
126.82085191881335
 40
0.1476736326475401
  0
CIRCLE
  8
_1-0_
  6
CONTINUOUS
 62
    7
 10
99.197270161396759
 20
127.70688443570525
 40
0.1476736326475401
  0
CIRCLE
  8
_1-0_
  6
CONTINUOUS
 62
    7
 10
96.243797508445951
 20
128.29758515229096
 40
0.1476736326475401
  0
CIRCLE
  8
_1-0_
  6
CONTINUOUS
 62
    7
 10
96.539147866738816
 20
128.37142119536529
 40
0.1476736326475401
  0
CIRCLE
  8
_1-0_
  6
CONTINUOUS
 62
    7
 10
101.04318979624156
 20
129.77431838576859
 40
0.1476736326475401
  0
CIRCLE
  8
_1-0_
  6
CONTINUOUS
 62
    7
 10
99.861800735061237
 20
129.84815442884292
 40
0.1476736326475401
  0
CIRCLE
  8
_1-0_
  6
CONTINUOUS
 62
    7
 10
100.00947282120988
 20
129.03595795502534
 40
0.1476736326475401
  0
CIRCLE
  8
_1-0_
  6
CONTINUOUS
 62
    7
 10
101.85539245605469
 20
128.076077023068
 40
0.1476736326475401
  0
CIRCLE
  8
_1-0_
  6
CONTINUOUS
 62
    7
 10
100.08330886428421
 20
127.19003213418497
 40
0.1476736326475401
  0
CIRCLE
  8
_1-0_
  6
CONTINUOUS
 62
    7
 10
101.56004209776184
 20
127.48537630648227
 40
0.1476736326475401
  0
CIRCLE
  8
_1-0_
  6
CONTINUOUS
 62
    7
 10
103.25828964645798
 20
128.51909328151393
 40
0.1476736326475401
  0
CIRCLE
  8
_1-0_
  6
CONTINUOUS
 62
    7
 10
101.92922849912902
 20
129.77431838576859
 40
0.1476736326475401
  0
CIRCLE
  8
_1-0_
  6
CONTINUOUS
 62
    7
 10
101.63387814083616
 20
131.39872370539484
 40
0.1476736326475401
  0
CIRCLE
  8
_1-0_
  6
CONTINUOUS
 62
    7
 10
104.95652482316301
 20
130.66036327465162
 40
0.1476736326475401
  0
CIRCLE
  8
_1-0_
  6
CONTINUOUS
 62
    7
 10
107.68848316089527
 20
130.95570744694891
 40
0.1476736326475401
  0
CIRCLE
  8
_1-0_
  6
CONTINUOUS
 62
    7
 10
106.87628668707771
 20
129.84815442884292
 40
0.1476736326475401
  0
CIRCLE
  8
_1-0_
  6
CONTINUOUS
 62
    7
 10
110.42044149862754
 20
132.65394880964951
 40
0.1651024093499055
  0
CIRCLE
  8
_1-0_
  6
CONTINUOUS
 62
    7
 10
109.60824502480997
 20
132.72778485272383
 40
0.1651024093499055
  0
CIRCLE
  8
_1-0_
  6
CONTINUOUS
 62
    7
 10
107.39313898859798
 20
133.09696506809544
 40
0.1651024093499055
  0
CIRCLE
  8
_1-0_
  6
CONTINUOUS
 62
    7
 10
106.28559834248311
 20
132.58011276657518
 40
0.1651024093499055
  0
CIRCLE
  8
_1-0_
  6
CONTINUOUS
 62
    7
 10
108.64836409285263
 20
131.47257212046031
 40
0.1651024093499055
  0
CIRCLE
  8
_1-0_
  6
CONTINUOUS
 62
    7
 10
112.19253127639358
 20
131.69408024968328
 40
0.1651024093499055
  0
CIRCLE
  8
_1-0_
  6
CONTINUOUS
 62
    7
 10
115.14599774334883
 20
133.02312902502112
 40
0.1651024093499055
  0
CIRCLE
  8
_1-0_
  6
CONTINUOUS
 62
    7
 10
111.18427585911107
 20
134.57770682669977
 40
0.1476736326475401
  0
CIRCLE
  8
_1-0_
  6
CONTINUOUS
 62
    7
 10
113.39936952333193
 20
135.61142380173143
 40
0.1476736326475401
  0
CIRCLE
  8
_1-0_
  6
CONTINUOUS
 62
    7
 10
114.58077095650339
 20
136.49745631862331
 40
0.1476736326475401
  0
CIRCLE
  8
_1-0_
  6
CONTINUOUS
 62
    7
 10
111.62729211755702
 20
137.08815703520904
 40
0.1476736326475401
  0
CIRCLE
  8
_1-0_
  6
CONTINUOUS
 62
    7
 10
111.92263628985431
 20
137.16199307828336
 40
0.1476736326475401
  0
CIRCLE
  8
_1-0_
  6
CONTINUOUS
 62
    7
 10
116.42668440535263
 20
138.56489026868667
 40
0.1476736326475401
  0
CIRCLE
  8
_1-0_
  6
CONTINUOUS
 62
    7
 10
115.24529534417231
 20
138.63872631176099
 40
0.1476736326475401
  0
CIRCLE
  8
_1-0_
  6
CONTINUOUS
 62
    7
 10
115.39296743032095
 20
137.82652983794341
 40
0.1476736326475401
  0
CIRCLE
  8
_1-0_
  6
CONTINUOUS
 62
    7
 10
117.23889325116133
 20
136.86664890598607
 40
0.1476736326475401
  0
CIRCLE
  8
_1-0_
  6
CONTINUOUS
 62
    7
 10
115.46680347339527
 20
135.98060401710305
 40
0.1476736326475401
  0
CIRCLE
  8
_1-0_
  6
CONTINUOUS
 62
    7
 10
116.94353670687289
 20
136.27594818940034
 40
0.1476736326475401
  0
CIRCLE
  8
_1-0_
  6
CONTINUOUS
 62
    7
 10
118.64177806957349
 20
137.309665164432
 40
0.1476736326475401
  0
CIRCLE
  8
_1-0_
  6
CONTINUOUS
 62
    7
 10
117.31272929423565
 20
138.56489026868667
 40
0.1476736326475401
  0
CIRCLE
  8
_1-0_
  6
CONTINUOUS
 62
    7
 10
117.01737274994721
 20
140.18929558831292
 40
0.1476736326475401
  0
CIRCLE
  8
_1-0_
  6
CONTINUOUS
 62
    7
 10
120.34003180426521
 20
139.45093515756969
 40
0.1476736326475401
  0
CIRCLE
  8
_1-0_
  6
CONTINUOUS
 62
    7
 10
123.07199014199747
 20
139.74627932986698
 40
0.1476736326475401
  0
CIRCLE
  8
_1-0_
  6
CONTINUOUS
 62
    7
 10
122.25978129618878
 20
138.63872631176099
 40
0.1476736326475401
  0
CIRCLE
  8
_1-0_
  6
CONTINUOUS
 62
    7
 10
125.80394847972974
 20
141.44452069256758
 40
0.1651024093499055
  0
CIRCLE
  8
_1-0_
  6
CONTINUOUS
 62
    7
 10
124.99173963392104
 20
141.5183567356419
 40
0.1651024093499055
  0
CIRCLE
  8
_1-0_
  6
CONTINUOUS
 62
    7
 10
122.77663359770905
 20
141.88753695101352
 40
0.1651024093499055
  0
CIRCLE
  8
_1-0_
  6
CONTINUOUS
 62
    7
 10
121.66908057960305
 20
141.37068464949326
 40
0.1651024093499055
  0
CIRCLE
  8
_1-0_
  6
CONTINUOUS
 62
    7
 10
124.03185870196369
 20
140.26314400337839
 40
0.1651024093499055
  0
CIRCLE
  8
_1-0_
  6
CONTINUOUS
 62
    7
 10
127.57602588550465
 20
140.48465213260135
 40
0.1651024093499055
  0
CIRCLE
  8
_1-0_
  6
CONTINUOUS
 62
    7
 10
130.5294923524599
 20
141.81370090793919
 40
0.1651024093499055
  0
CIRCLE
  8
_1-0_
  6
CONTINUOUS
 62
    7
 10
127.78868804106843
 20
140.92644356392526
 40
0.1476736326475401
  0
CIRCLE
  8
_1-0_
  6
CONTINUOUS
 62
    7
 10
130.00379407728042
 20
141.96016053895693
 40
0.1476736326475401
  0
CIRCLE
  8
_1-0_
  6
CONTINUOUS
 62
    7
 10
131.18517076646961
 20
142.84619305584883
 40
0.1476736326475401
  0
CIRCLE
  8
_1-0_
  6
CONTINUOUS
 62
    7
 10
128.23170429951438
 20
143.43689377243456
 40
0.1476736326475401
  0
CIRCLE
  8
_1-0_
  6
CONTINUOUS
 62
    7
 10
128.52704847181167
 20
143.51072981550888
 40
0.1476736326475401
  0
CIRCLE
  8
_1-0_
  6
CONTINUOUS
 62
    7
 10
133.03109658730997
 20
144.91362700591216
 40
0.1476736326475401
  0
CIRCLE
  8
_1-0_
  6
CONTINUOUS
 62
    7
 10
131.84970752612966
 20
144.98746304898648
 40
0.1476736326475401
  0
CIRCLE
  8
_1-0_
  6
CONTINUOUS
 62
    7
 10
131.99737961227831
 20
144.17526657516893
 40
0.1476736326475401
  0
CIRCLE
  8
_1-0_
  6
CONTINUOUS
 62
    7
 10
133.84329306112755
 20
143.21538564321159
 40
0.1476736326475401
  0
CIRCLE
  8
_1-0_
  6
CONTINUOUS
 62
    7
 10
132.07121565535263
 20
142.32934075432854
 40
0.1476736326475401
  0
CIRCLE
  8
_1-0_
  6
CONTINUOUS
 62
    7
 10
133.54794888883023
 20
142.62468492662586
 40
0.1476736326475401
  0
CIRCLE
  8
_1-0_
  6
CONTINUOUS
 62
    7
 10
135.24620262352198
 20
143.65840190165753
 40
0.1476736326475401
  0
CIRCLE
  8
_1-0_
  6
CONTINUOUS
 62
    7
 10
133.91712910420188
 20
144.91362700591216
 40
0.1476736326475401
  0
CIRCLE
  8
_1-0_
  6
CONTINUOUS
 62
    7
 10
133.62178493190456
 20
146.53803232553844
 40
0.1476736326475401
  0
CIRCLE
  8
_1-0_
  6
CONTINUOUS
 62
    7
 10
136.94443161423143
 20
145.79967189479518
 40
0.1476736326475401
  0
CIRCLE
  8
_1-0_
  6
CONTINUOUS
 62
    7
 10
139.6763899519637
 20
146.0950160670925
 40
0.1476736326475401
  0
CIRCLE
  8
_1-0_
  6
CONTINUOUS
 62
    7
 10
138.86419347814612
 20
144.98746304898648
 40
0.1476736326475401
  0
CIRCLE
  8
_1-0_
  6
CONTINUOUS
 62
    7
 10
142.40834828969597
 20
147.79325742979307
 40
0.1651024093499055
  0
CIRCLE
  8
_1-0_
  6
CONTINUOUS
 62
    7
 10
141.59615181587839
 20
147.8670934728674
 40
0.1651024093499055
  0
CIRCLE
  8
_1-0_
  6
CONTINUOUS
 62
    7
 10
139.38104577966638
 20
148.23627368823904
 40
0.1651024093499055
  0
CIRCLE
  8
_1-0_
  6
CONTINUOUS
 62
    7
 10
138.27350513355154
 20
147.71942138671875
 40
0.1651024093499055
  0
CIRCLE
  8
_1-0_
  6
CONTINUOUS
 62
    7
 10
140.63627088392104
 20
146.61188074060388
 40
0.1651024093499055
  0
CIRCLE
  8
_1-0_
  6
CONTINUOUS
 62
    7
 10
144.18043806746201
 20
146.83338886982688
 40
0.1651024093499055
  0
CIRCLE
  8
_1-0_
  6
CONTINUOUS
 62
    7
 10
147.13390453441724
 20
148.16243764516472
 40
0.1651024093499055
  0
CIRCLE
  8
_1-0_
  6
CONTINUOUS
 62
    7
 10
147.07909661370357
 20
149.71701544684333
 40
0.1476736326475401
  0
CIRCLE
  8
_1-0_
  6
CONTINUOUS
 62
    7
 10
149.29420264991555
 20
150.750732421875
 40
0.1476736326475401
  0
CIRCLE
  8
_1-0_
  6
CONTINUOUS
 62
    7
 10
150.47559171109586
 20
151.6367649387669
 40
0.1476736326475401
  0
CIRCLE
  8
_1-0_
  6
CONTINUOUS
 62
    7
 10
147.52212524414062
 20
152.22746565535263
 40
0.1476736326475401
  0
CIRCLE
  8
_1-0_
  6
CONTINUOUS
 62
    7
 10
147.81746941643794
 20
152.30130169842695
 40
0.1476736326475401
  0
CIRCLE
  8
_1-0_
  6
CONTINUOUS
 62
    7
 10
152.3215051599451
 20
153.70419888883023
 40
0.1476736326475401
  0
CIRCLE
  8
_1-0_
  6
CONTINUOUS
 62
    7
 10
151.14012847075591
 20
153.77803493190456
 40
0.1476736326475401
  0
CIRCLE
  8
_1-0_
  6
CONTINUOUS
 62
    7
 10
151.28780055690456
 20
152.96583845808701
 40
0.1476736326475401
  0
CIRCLE
  8
_1-0_
  6
CONTINUOUS
 62
    7
 10
153.1337140057538
 20
152.00595752612966
 40
0.1476736326475401
  0
CIRCLE
  8
_1-0_
  6
CONTINUOUS
 62
    7
 10
151.36163659997888
 20
151.11991263724664
 40
0.1476736326475401
  0
CIRCLE
  8
_1-0_
  6
CONTINUOUS
 62
    7
 10
152.83835746146539
 20
151.41525680954393
 40
0.1476736326475401
  0
CIRCLE
  8
_1-0_
  6
CONTINUOUS
 62
    7
 10
154.53661119615711
 20
152.4489737845756
 40
0.1476736326475401
  0
CIRCLE
  8
_1-0_
  6
CONTINUOUS
 62
    7
 10
153.20755004882812
 20
153.70419888883023
 40
0.1476736326475401
  0
CIRCLE
  8
_1-0_
  6
CONTINUOUS
 62
    7
 10
152.91219350453972
 20
155.32860420845651
 40
0.1476736326475401
  0
CIRCLE
  8
_1-0_
  6
CONTINUOUS
 62
    7
 10
156.23485255885768
 20
154.59024377771325
 40
0.1476736326475401
  0
CIRCLE
  8
_1-0_
  6
CONTINUOUS
 62
    7
 10
158.96681089658995
 20
154.88558795001057
 40
0.1476736326475401
  0
CIRCLE
  8
_1-0_
  6
CONTINUOUS
 62
    7
 10
158.15460205078125
 20
153.77803493190456
 40
0.1476736326475401
  0
CIRCLE
  8
_1-0_
  6
CONTINUOUS
 62
    7
 10
161.69876923432221
 20
156.58382931271115
 40
0.1651024093499055
  0
CIRCLE
  8
_1-0_
  6
CONTINUOUS
 62
    7
 10
160.88656038851352
 20
156.65766535578547
 40
0.1651024093499055
  0
CIRCLE
  8
_1-0_
  6
CONTINUOUS
 62
    7
 10
158.67146672429266
 20
157.02684557115711
 40
0.1651024093499055
  0
CIRCLE
  8
_1-0_
  6
CONTINUOUS
 62
    7
 10
157.56391370618667
 20
156.50999326963682
 40
0.1651024093499055
  0
CIRCLE
  8
_1-0_
  6
CONTINUOUS
 62
    7
 10
159.92669182854732
 20
155.40245262352198
 40
0.1651024093499055
  0
CIRCLE
  8
_1-0_
  6
CONTINUOUS
 62
    7
 10
163.47084664009714
 20
155.62396075274495
 40
0.1651024093499055
  0
CIRCLE
  8
_1-0_
  6
CONTINUOUS
 62
    7
 10
166.42431310705237
 20
156.95300952808279
 40
0.1651024093499055
  0
CIRCLE
  8
_1-0_
  6
CONTINUOUS
 62
    7
 10
161.97420687288852
 20
158.01921535182643
 40
0.1476736326475401
  0
CIRCLE
  8
_1-0_
  6
CONTINUOUS
 62
    7
 10
164.18931290910052
 20
159.05293232685813
 40
0.1476736326475401
  0
CIRCLE
  8
_1-0_
  6
CONTINUOUS
 62
    7
 10
165.37070197028083
 20
159.93896484375
 40
0.1476736326475401
  0
CIRCLE
  8
_1-0_
  6
CONTINUOUS
 62
    7
 10
162.4172355033256
 20
160.52966556033573
 40
0.1476736326475401
  0
CIRCLE
  8
_1-0_
  6
CONTINUOUS
 62
    7
 10
162.71257967562289
 20
160.60350160341005
 40
0.1476736326475401
  0
CIRCLE
  8
_1-0_
  6
CONTINUOUS
 62
    7
 10
167.21661541913008
 20
162.00639879381336
 40
0.1476736326475401
  0
CIRCLE
  8
_1-0_
  6
CONTINUOUS
 62
    7
 10
166.03523872994089
 20
162.08023483688768
 40
0.1476736326475401
  0
CIRCLE
  8
_1-0_
  6
CONTINUOUS
 62
    7
 10
166.18291081608953
 20
161.2680383630701
 40
0.1476736326475401
  0
CIRCLE
  8
_1-0_
  6
CONTINUOUS
 62
    7
 10
168.02882426493878
 20
160.30815743111276
 40
0.1476736326475401
  0
CIRCLE
  8
_1-0_
  6
CONTINUOUS
 62
    7
 10
166.25674685916385
 20
159.42211254222974
 40
0.1476736326475401
  0
CIRCLE
  8
_1-0_
  6
CONTINUOUS
 62
    7
 10
167.73346772065034
 20
159.71745671452703
 40
0.1476736326475401
  0
CIRCLE
  8
_1-0_
  6
CONTINUOUS
 62
    7
 10
169.43172145534206
 20
160.7511736895587
 40
0.1476736326475401
  0
CIRCLE
  8
_1-0_
  6
CONTINUOUS
 62
    7
 10
168.1026603080131
 20
162.00639879381336
 40
0.1476736326475401
  0
CIRCLE
  8
_1-0_
  6
CONTINUOUS
 62
    7
 10
167.80730376372466
 20
163.63080411343961
 40
0.1476736326475401
  0
CIRCLE
  8
_1-0_
  6
CONTINUOUS
 62
    7
 10
171.12996281804266
 20
162.89244368269638
 40
0.1476736326475401
  0
CIRCLE
  8
_1-0_
  6
CONTINUOUS
 62
    7
 10
173.86192115577492
 20
163.18778785499367
 40
0.1476736326475401
  0
CIRCLE
  8
_1-0_
  6
CONTINUOUS
 62
    7
 10
173.04971230996622
 20
162.08023483688768
 40
0.1476736326475401
  0
CIRCLE
  8
_1-0_
  6
CONTINUOUS
 62
    7
 10
176.59387949350719
 20
164.88602921769427
 40
0.1651024093499055
  0
CIRCLE
  8
_1-0_
  6
CONTINUOUS
 62
    7
 10
175.78167064769849
 20
164.95986526076859
 40
0.1651024093499055
  0
CIRCLE
  8
_1-0_
  6
CONTINUOUS
 62
    7
 10
173.56657698347763
 20
165.32904547614021
 40
0.1651024093499055
  0
CIRCLE
  8
_1-0_
  6
CONTINUOUS
 62
    7
 10
172.45902396537164
 20
164.81219317461995
 40
0.1651024093499055
  0
CIRCLE
  8
_1-0_
  6
CONTINUOUS
 62
    7
 10
174.82180208773227
 20
163.70465252850508
 40
0.1651024093499055
  0
CIRCLE
  8
_1-0_
  6
CONTINUOUS
 62
    7
 10
178.36595689928211
 20
163.92616065772805
 40
0.1651024093499055
  0
CIRCLE
  8
_1-0_
  6
CONTINUOUS
 62
    7
 10
181.31942336623734
 20
165.25520943306589
 40
0.1651024093499055
  0
CIRCLE
  8
_1-0_
  6
CONTINUOUS
 62
    7
 10
177.11351549303211
 20
162.90286089922932
 40
0.1476736326475401
  0
CIRCLE
  8
_1-0_
  6
CONTINUOUS
 62
    7
 10
179.32862152924409
 20
163.93657787426099
 40
0.1476736326475401
  0
CIRCLE
  8
_1-0_
  6
CONTINUOUS
 62
    7
 10
180.51001059042443
 20
164.82261039115289
 40
0.1476736326475401
  0
CIRCLE
  8
_1-0_
  6
CONTINUOUS
 62
    7
 10
177.55654412346919
 20
165.41331110773859
 40
0.1476736326475401
  0
CIRCLE
  8
_1-0_
  6
CONTINUOUS
 62
    7
 10
177.85188829576649
 20
165.48714715081294
 40
0.1476736326475401
  0
CIRCLE
  8
_1-0_
  6
CONTINUOUS
 62
    7
 10
182.35592403927365
 20
166.89004434121622
 40
0.1476736326475401
  0
CIRCLE
  8
_1-0_
  6
CONTINUOUS
 62
    7
 10
181.17454735008448
 20
166.96388038429055
 40
0.1476736326475401
  0
CIRCLE
  8
_1-0_
  6
CONTINUOUS
 62
    7
 10
181.32221943623313
 20
166.15168391047297
 40
0.1476736326475401
  0
CIRCLE
  8
_1-0_
  6
CONTINUOUS
 62
    7
 10
183.16813288508237
 20
165.19180297851562
 40
0.1476736326475401
  0
CIRCLE
  8
_1-0_
  6
CONTINUOUS
 62
    7
 10
181.39605547930745
 20
164.3057580896326
 40
0.1476736326475401
  0
CIRCLE
  8
_1-0_
  6
CONTINUOUS
 62
    7
 10
182.87277634079393
 20
164.6011022619299
 40
0.1476736326475401
  0
CIRCLE
  8
_1-0_
  6
CONTINUOUS
 62
    7
 10
184.57103007548565
 20
165.63481923696159
 40
0.1476736326475401
  0
CIRCLE
  8
_1-0_
  6
CONTINUOUS
 62
    7
 10
183.24196892815669
 20
166.89004434121622
 40
0.1476736326475401
  0
CIRCLE
  8
_1-0_
  6
CONTINUOUS
 62
    7
 10
182.94661238386826
 20
168.5144496608425
 40
0.1476736326475401
  0
CIRCLE
  8
_1-0_
  6
CONTINUOUS
 62
    7
 10
186.26927143818625
 20
167.77608923009925
 40
0.1476736326475401
  0
CIRCLE
  8
_1-0_
  6
CONTINUOUS
 62
    7
 10
189.00122977591852
 20
168.07143340239654
 40
0.1476736326475401
  0
CIRCLE
  8
_1-0_
  6
CONTINUOUS
 62
    7
 10
188.18902093010982
 20
166.96388038429055
 40
0.1476736326475401
  0
CIRCLE
  8
_1-0_
  6
CONTINUOUS
 62
    7
 10
191.73318811365078
 20
169.76967476509714
 40
0.1651024093499055
  0
CIRCLE
  8
_1-0_
  6
CONTINUOUS
 62
    7
 10
190.92097926784209
 20
169.84351080817146
 40
0.1651024093499055
  0
CIRCLE
  8
_1-0_
  6
CONTINUOUS
 62
    7
 10
188.7058856036212
 20
170.21269102354307
 40
0.1651024093499055
  0
CIRCLE
  8
_1-0_
  6
CONTINUOUS
 62
    7
 10
187.59833258551521
 20
169.69583872202281
 40
0.1651024093499055
  0
CIRCLE
  8
_1-0_
  6
CONTINUOUS
 62
    7
 10
189.96111070787586
 20
168.58829807590794
 40
0.1651024093499055
  0
CIRCLE
  8
_1-0_
  6
CONTINUOUS
 62
    7
 10
193.50526551942568
 20
168.80980620513091
 40
0.1651024093499055
  0
CIRCLE
  8
_1-0_
  6
CONTINUOUS
 62
    7
 10
196.45873198638091
 20
170.13885498046875
 40
0.1651024093499055
  0
CIRCLE
  8
_1-0_
  6
CONTINUOUS
 62
    7
 10
190.29938568940034
 20
169.00742401947846
 40
0.1476736326475401
  0
CIRCLE
  8
_1-0_
  6
CONTINUOUS
 62
    7
 10
192.51449172561234
 20
170.04114099451016
 40
0.1476736326475401
  0
CIRCLE
  8
_1-0_
  6
CONTINUOUS
 62
    7
 10
193.69588078679266
 20
170.92717351140203
 40
0.1476736326475401
  0
CIRCLE
  8
_1-0_
  6
CONTINUOUS
 62
    7
 10
190.74241431983742
 20
171.51787422798776
 40
0.1476736326475401
  0
CIRCLE
  8
_1-0_
  6
CONTINUOUS
 62
    7
 10
191.03775849213471
 20
171.59171027106208
 40
0.1476736326475401
  0
CIRCLE
  8
_1-0_
  6
CONTINUOUS
 62
    7
 10
195.5417942356419
 20
172.99460746146539
 40
0.1476736326475401
  0
CIRCLE
  8
_1-0_
  6
CONTINUOUS
 62
    7
 10
194.36041754645271
 20
173.06844350453972
 40
0.1476736326475401
  0
CIRCLE
  8
_1-0_
  6
CONTINUOUS
 62
    7
 10
194.50808963260135
 20
172.25624703072214
 40
0.1476736326475401
  0
CIRCLE
  8
_1-0_
  6
CONTINUOUS
 62
    7
 10
196.3540030814506
 20
171.29636609876479
 40
0.1476736326475401
  0
CIRCLE
  8
_1-0_
  6
CONTINUOUS
 62
    7
 10
194.58192567567568
 20
170.41032120988177
 40
0.1476736326475401
  0
CIRCLE
  8
_1-0_
  6
CONTINUOUS
 62
    7
 10
196.05864653716216
 20
170.70566538217906
 40
0.1476736326475401
  0
CIRCLE
  8
_1-0_
  6
CONTINUOUS
 62
    7
 10
197.75690027185391
 20
171.73938235721073
 40
0.1476736326475401
  0
CIRCLE
  8
_1-0_
  6
CONTINUOUS
 62
    7
 10
196.42783912452492
 20
172.99460746146539
 40
0.1476736326475401
  0
CIRCLE
  8
_1-0_
  6
CONTINUOUS
 62
    7
 10
196.13248258023648
 20
174.61901278109164
 40
0.1476736326475401
  0
CIRCLE
  8
_1-0_
  6
CONTINUOUS
 62
    7
 10
199.45514163455448
 20
173.88065235034841
 40
0.1476736326475401
  0
CIRCLE
  8
_1-0_
  6
CONTINUOUS
 62
    7
 10
202.18709997228675
 20
174.1759965226457
 40
0.1476736326475401
  0
CIRCLE
  8
_1-0_
  6
CONTINUOUS
 62
    7
 10
201.37489112647805
 20
173.06844350453972
 40
0.1476736326475401
  0
CIRCLE
  8
_1-0_
  6
CONTINUOUS
 62
    7
 10
204.91905831001901
 20
175.8742378853463
 40
0.1651024093499055
  0
CIRCLE
  8
_1-0_
  6
CONTINUOUS
 62
    7
 10
204.10684946421031
 20
175.94807392842063
 40
0.1651024093499055
  0
CIRCLE
  8
_1-0_
  6
CONTINUOUS
 62
    7
 10
201.89175579998945
 20
176.31725414379224
 40
0.1651024093499055
  0
CIRCLE
  8
_1-0_
  6
CONTINUOUS
 62
    7
 10
200.78420278188347
 20
175.80040184227198
 40
0.1651024093499055
  0
CIRCLE
  8
_1-0_
  6
CONTINUOUS
 62
    7
 10
203.14698090424409
 20
174.69286119615711
 40
0.1651024093499055
  0
CIRCLE
  8
_1-0_
  6
CONTINUOUS
 62
    7
 10
206.69113571579393
 20
174.91436932538008
 40
0.1651024093499055
  0
CIRCLE
  8
_1-0_
  6
CONTINUOUS
 62
    7
 10
209.64460218274917
 20
176.24341810071792
 40
0.1651024093499055
  0
CIRCLE
  8
_1-0_
  6
CONTINUOUS
 62
    7
 10
242.2243355415963
 20
156.95300952808279
 40
0.1651024093499055
  0
CIRCLE
  8
_1-0_
  6
CONTINUOUS
 62
    7
 10
244.45933573954815
 20
159.05293232685813
 40
0.1476736326475401
  0
CIRCLE
  8
_1-0_
  6
CONTINUOUS
 62
    7
 10
243.27793430637669
 20
159.93896484375
 40
0.1476736326475401
  0
CIRCLE
  8
_1-0_
  6
CONTINUOUS
 62
    7
 10
241.43203322951859
 20
162.00639879381336
 40
0.1476736326475401
  0
CIRCLE
  8
_1-0_
  6
CONTINUOUS
 62
    7
 10
242.61340991870779
 20
162.08023483688768
 40
0.1476736326475401
  0
CIRCLE
  8
_1-0_
  6
CONTINUOUS
 62
    7
 10
242.46573783255914
 20
161.2680383630701
 40
0.1476736326475401
  0
CIRCLE
  8
_1-0_
  6
CONTINUOUS
 62
    7
 10
240.61983675570102
 20
160.30815743111276
 40
0.1476736326475401
  0
CIRCLE
  8
_1-0_
  6
CONTINUOUS
 62
    7
 10
242.39190178948482
 20
159.42211254222974
 40
0.1476736326475401
  0
CIRCLE
  8
_1-0_
  6
CONTINUOUS
 62
    7
 10
240.91518092799834
 20
159.71745671452703
 40
0.1476736326475401
  0
CIRCLE
  8
_1-0_
  6
CONTINUOUS
 62
    7
 10
239.21692719330659
 20
160.7511736895587
 40
0.1476736326475401
  0
CIRCLE
  8
_1-0_
  6
CONTINUOUS
 62
    7
 10
240.54600071262669
 20
162.00639879381336
 40
0.1476736326475401
  0
CIRCLE
  8
_1-0_
  6
CONTINUOUS
 62
    7
 10
237.51867345861487
 20
162.89244368269638
 40
0.1476736326475401
  0
CIRCLE
  8
_1-0_
  6
CONTINUOUS
 62
    7
 10
234.78673986486487
 20
163.18778785499367
 40
0.1476736326475401
  0
CIRCLE
  8
_1-0_
  6
CONTINUOUS
 62
    7
 10
235.59893633868245
 20
162.08023483688768
 40
0.1476736326475401
  0
CIRCLE
  8
_1-0_
  6
CONTINUOUS
 62
    7
 10
232.05475678315034
 20
164.88602921769427
 40
0.1651024093499055
  0
CIRCLE
  8
_1-0_
  6
CONTINUOUS
 62
    7
 10
232.86697800095018
 20
164.95986526076859
 40
0.1651024093499055
  0
CIRCLE
  8
_1-0_
  6
CONTINUOUS
 62
    7
 10
235.08208403716216
 20
165.32904547614021
 40
0.1651024093499055
  0
CIRCLE
  8
_1-0_
  6
CONTINUOUS
 62
    7
 10
236.18962468327703
 20
164.81219317461995
 40
0.1651024093499055
  0
CIRCLE
  8
_1-0_
  6
CONTINUOUS
 62
    7
 10
233.82684656091641
 20
163.70465252850508
 40
0.1651024093499055
  0
CIRCLE
  8
_1-0_
  6
CONTINUOUS
 62
    7
 10
230.28269174936656
 20
163.92616065772805
 40
0.1651024093499055
  0
CIRCLE
  8
_1-0_
  6
CONTINUOUS
 62
    7
 10
227.32922528241133
 20
165.25520943306589
 40
0.1651024093499055
  0
CIRCLE
  8
_1-0_
  6
CONTINUOUS
 62
    7
 10
231.53513315561656
 20
162.90286089922932
 40
0.1476736326475401
  0
CIRCLE
  8
_1-0_
  6
CONTINUOUS
 62
    7
 10
229.32002711940459
 20
163.93657787426099
 40
0.1476736326475401
  0
CIRCLE
  8
_1-0_
  6
CONTINUOUS
 62
    7
 10
228.13862568623313
 20
164.82261039115289
 40
0.1476736326475401
  0
CIRCLE
  8
_1-0_
  6
CONTINUOUS
 62
    7
 10
231.09211689717063
 20
165.41331110773859
 40
0.1476736326475401
  0
CIRCLE
  8
_1-0_
  6
CONTINUOUS
 62
    7
 10
230.79677272487334
 20
165.48714715081294
 40
0.1476736326475401
  0
CIRCLE
  8
_1-0_
  6
CONTINUOUS
 62
    7
 10
226.292724609375
 20
166.89004434121622
 40
0.1476736326475401
  0
CIRCLE
  8
_1-0_
  6
CONTINUOUS
 62
    7
 10
227.47410129856419
 20
166.96388038429055
 40
0.1476736326475401
  0
CIRCLE
  8
_1-0_
  6
CONTINUOUS
 62
    7
 10
227.32642921241555
 20
166.15168391047297
 40
0.1476736326475401
  0
CIRCLE
  8
_1-0_
  6
CONTINUOUS
 62
    7
 10
225.48052813555745
 20
165.19180297851562
 40
0.1476736326475401
  0
CIRCLE
  8
_1-0_
  6
CONTINUOUS
 62
    7
 10
227.25259316934122
 20
164.3057580896326
 40
0.1476736326475401
  0
CIRCLE
  8
_1-0_
  6
CONTINUOUS
 62
    7
 10
225.77587230785474
 20
164.6011022619299
 40
0.1476736326475401
  0
CIRCLE
  8
_1-0_
  6
CONTINUOUS
 62
    7
 10
224.07761857316302
 20
165.63481923696159
 40
0.1476736326475401
  0
CIRCLE
  8
_1-0_
  6
CONTINUOUS
 62
    7
 10
225.40669209248313
 20
166.89004434121622
 40
0.1476736326475401
  0
CIRCLE
  8
_1-0_
  6
CONTINUOUS
 62
    7
 10
230.50358127903294
 20
163.79011824324326
 40
0.1651024093499055
  0
CIRCLE
  8
_1-0_
  6
CONTINUOUS
 62
    7
 10
232.73858147698482
 20
165.89004104201859
 40
0.1476736326475401
  0
CIRCLE
  8
_1-0_
  6
CONTINUOUS
 62
    7
 10
231.55718004381336
 20
166.77607355891047
 40
0.1476736326475401
  0
CIRCLE
  8
_1-0_
  6
CONTINUOUS
 62
    7
 10
228.89908249313768
 20
167.14526614627323
 40
0.1476736326475401
  0
CIRCLE
  8
_1-0_
  6
CONTINUOUS
 62
    7
 10
230.67114752692146
 20
166.25922125739021
 40
0.1476736326475401
  0
CIRCLE
  8
_1-0_
  6
CONTINUOUS
 62
    7
 10
229.19442666543497
 20
166.5545654296875
 40
0.1476736326475401
  0
CIRCLE
  8
_1-0_
  6
CONTINUOUS
 62
    7
 10
227.49617293074326
 20
167.58828240471919
 40
0.1476736326475401
  0
CIRCLE
  8
_1-0_
  6
CONTINUOUS
 62
    7
 10
225.79791919605154
 20
169.72955239785685
 40
0.1476736326475401
  0
CIRCLE
  8
_1-0_
  6
CONTINUOUS
 62
    7
 10
223.06598560230154
 20
170.02489657015414
 40
0.1476736326475401
  0
CIRCLE
  8
_1-0_
  6
CONTINUOUS
 62
    7
 10
223.87818207611909
 20
168.91734355204815
 40
0.1476736326475401
  0
CIRCLE
  8
_1-0_
  6
CONTINUOUS
 62
    7
 10
220.33400252058701
 20
171.72313793285474
 40
0.1651024093499055
  0
CIRCLE
  8
_1-0_
  6
CONTINUOUS
 62
    7
 10
221.14622373838682
 20
171.79697397592906
 40
0.1651024093499055
  0
CIRCLE
  8
_1-0_
  6
CONTINUOUS
 62
    7
 10
222.10609229835305
 20
170.54176124366555
 40
0.1651024093499055
  0
CIRCLE
  8
_1-0_
  6
CONTINUOUS
 62
    7
 10
218.56193748680323
 20
170.76326937288852
 40
0.1651024093499055
  0
CIRCLE
  8
_1-0_
  6
CONTINUOUS
 62
    7
 10
215.608471019848
 20
172.09231814822635
 40
0.1651024093499055
  0
CIRCLE
  8
_1-0_
  6
CONTINUOUS
 62
    7
 10
219.81437889305323
 20
169.73996961438979
 40
0.1476736326475401
  0
CIRCLE
  8
_1-0_
  6
CONTINUOUS
 62
    7
 10
217.59927285684122
 20
170.77368658942146
 40
0.1476736326475401
  0
CIRCLE
  8
_1-0_
  6
CONTINUOUS
 62
    7
 10
216.41787142366977
 20
171.65971910631336
 40
0.1476736326475401
  0
CIRCLE
  8
_1-0_
  6
CONTINUOUS
 62
    7
 10
219.37136263460727
 20
172.25041982289909
 40
0.1476736326475401
  0
CIRCLE
  8
_1-0_
  6
CONTINUOUS
 62
    7
 10
219.07601846230997
 20
172.32425586597341
 40
0.1476736326475401
  0
CIRCLE
  8
_1-0_
  6
CONTINUOUS
 62
    7
 10
214.57197034681167
 20
173.72715305637669
 40
0.1476736326475401
  0
CIRCLE
  8
_1-0_
  6
CONTINUOUS
 62
    7
 10
215.75334703600086
 20
173.80098909945102
 40
0.1476736326475401
  0
CIRCLE
  8
_1-0_
  6
CONTINUOUS
 62
    7
 10
215.60567494985222
 20
172.98879262563347
 40
0.1476736326475401
  0
CIRCLE
  8
_1-0_
  6
CONTINUOUS
 62
    7
 10
213.75977387299409
 20
172.02891169367609
 40
0.1476736326475401
  0
CIRCLE
  8
_1-0_
  6
CONTINUOUS
 62
    7
 10
215.53183890677789
 20
171.14286680479307
 40
0.1476736326475401
  0
CIRCLE
  8
_1-0_
  6
CONTINUOUS
 62
    7
 10
214.05511804529141
 20
171.43821097709039
 40
0.1476736326475401
  0
CIRCLE
  8
_1-0_
  6
CONTINUOUS
 62
    7
 10
212.35686431059966
 20
172.47192795212206
 40
0.1476736326475401
  0
CIRCLE
  8
_1-0_
  6
CONTINUOUS
 62
    7
 10
213.68593782991977
 20
173.72715305637669
 40
0.1476736326475401
  0
CIRCLE
  8
_1-0_
  6
CONTINUOUS
 62
    7
 10
261.75894247519005
 20
149.38335521801099
 40
0.1651024093499055
  0
CIRCLE
  8
_1-0_
  6
CONTINUOUS
 62
    7
 10
263.99394267314193
 20
151.48327801678633
 40
0.1476736326475401
  0
CIRCLE
  8
_1-0_
  6
CONTINUOUS
 62
    7
 10
262.81254123997047
 20
152.36931053367823
 40
0.1476736326475401
  0
CIRCLE
  8
_1-0_
  6
CONTINUOUS
 62
    7
 10
260.96664016311234
 20
154.43674448374156
 40
0.1476736326475401
  0
CIRCLE
  8
_1-0_
  6
CONTINUOUS
 62
    7
 10
262.14801685230151
 20
154.51058052681589
 40
0.1476736326475401
  0
CIRCLE
  8
_1-0_
  6
CONTINUOUS
 62
    7
 10
262.00034476615286
 20
153.69838405299831
 40
0.1476736326475401
  0
CIRCLE
  8
_1-0_
  6
CONTINUOUS
 62
    7
 10
260.15444368929479
 20
152.73850312104096
 40
0.1476736326475401
  0
CIRCLE
  8
_1-0_
  6
CONTINUOUS
 62
    7
 10
261.92650872307854
 20
151.85245823215794
 40
0.1476736326475401
  0
CIRCLE
  8
_1-0_
  6
CONTINUOUS
 62
    7
 10
260.44978786159209
 20
152.14780240445523
 40
0.1476736326475401
  0
CIRCLE
  8
_1-0_
  6
CONTINUOUS
 62
    7
 10
258.75153412690037
 20
153.18151937948693
 40
0.1476736326475401
  0
CIRCLE
  8
_1-0_
  6
CONTINUOUS
 62
    7
 10
260.08060764622047
 20
154.43674448374156
 40
0.1476736326475401
  0
CIRCLE
  8
_1-0_
  6
CONTINUOUS
 62
    7
 10
260.37595181851776
 20
156.06114980336784
 40
0.1476736326475401
  0
CIRCLE
  8
_1-0_
  6
CONTINUOUS
 62
    7
 10
257.05328039220865
 20
155.32278937262458
 40
0.1476736326475401
  0
CIRCLE
  8
_1-0_
  6
CONTINUOUS
 62
    7
 10
254.32134679845862
 20
155.61813354492187
 40
0.1476736326475401
  0
CIRCLE
  8
_1-0_
  6
CONTINUOUS
 62
    7
 10
255.1335432722762
 20
154.51058052681589
 40
0.1476736326475401
  0
CIRCLE
  8
_1-0_
  6
CONTINUOUS
 62
    7
 10
251.58936371674409
 20
157.31637490762247
 40
0.1651024093499055
  0
CIRCLE
  8
_1-0_
  6
CONTINUOUS
 62
    7
 10
252.40158493454393
 20
157.3902109506968
 40
0.1651024093499055
  0
CIRCLE
  8
_1-0_
  6
CONTINUOUS
 62
    7
 10
254.61669097075594
 20
157.75939116606841
 40
0.1651024093499055
  0
CIRCLE
  8
_1-0_
  6
CONTINUOUS
 62
    7
 10
255.72423161687078
 20
157.24253886454815
 40
0.1651024093499055
  0
CIRCLE
  8
_1-0_
  6
CONTINUOUS
 62
    7
 10
253.36145349451016
 20
156.13499821843328
 40
0.1651024093499055
  0
CIRCLE
  8
_1-0_
  6
CONTINUOUS
 62
    7
 10
249.81729868296031
 20
156.35650634765625
 40
0.1651024093499055
  0
CIRCLE
  8
_1-0_
  6
CONTINUOUS
 62
    7
 10
246.86383221600508
 20
157.68555512299409
 40
0.1651024093499055
  0
CIRCLE
  8
_1-0_
  6
CONTINUOUS
 62
    7
 10
251.06974008921031
 20
155.33320658915753
 40
0.1476736326475401
  0
CIRCLE
  8
_1-0_
  6
CONTINUOUS
 62
    7
 10
248.85463405299834
 20
156.36692356418919
 40
0.1476736326475401
  0
CIRCLE
  8
_1-0_
  6
CONTINUOUS
 62
    7
 10
247.67323261982688
 20
157.25295608108109
 40
0.1476736326475401
  0
CIRCLE
  8
_1-0_
  6
CONTINUOUS
 62
    7
 10
250.62672383076438
 20
157.84365679766682
 40
0.1476736326475401
  0
CIRCLE
  8
_1-0_
  6
CONTINUOUS
 62
    7
 10
250.33137965846709
 20
157.91749284074115
 40
0.1476736326475401
  0
CIRCLE
  8
_1-0_
  6
CONTINUOUS
 62
    7
 10
245.82733154296875
 20
159.32039003114443
 40
0.1476736326475401
  0
CIRCLE
  8
_1-0_
  6
CONTINUOUS
 62
    7
 10
247.00870823215794
 20
159.39422607421875
 40
0.1476736326475401
  0
CIRCLE
  8
_1-0_
  6
CONTINUOUS
 62
    7
 10
246.8610361460093
 20
158.5820296004012
 40
0.1476736326475401
  0
CIRCLE
  8
_1-0_
  6
CONTINUOUS
 62
    7
 10
245.0151350691512
 20
157.62214866844386
 40
0.1476736326475401
  0
CIRCLE
  8
_1-0_
  6
CONTINUOUS
 62
    7
 10
246.78720010293497
 20
156.73610377956081
 40
0.1476736326475401
  0
CIRCLE
  8
_1-0_
  6
CONTINUOUS
 62
    7
 10
245.31047924144849
 20
157.03144795185813
 40
0.1476736326475401
  0
CIRCLE
  8
_1-0_
  6
CONTINUOUS
 62
    7
 10
243.61222550675677
 20
158.06516492688979
 40
0.1476736326475401
  0
CIRCLE
  8
_1-0_
  6
CONTINUOUS
 62
    7
 10
244.94129902607688
 20
159.32039003114443
 40
0.1476736326475401
  0
CIRCLE
  8
_1-0_
  6
CONTINUOUS
 62
    7
 10
281.29352466480151
 20
139.12769214527029
 40
0.1651024093499055
  0
CIRCLE
  8
_1-0_
  6
CONTINUOUS
 62
    7
 10
283.52852486275339
 20
141.22761494404563
 40
0.1476736326475401
  0
CIRCLE
  8
_1-0_
  6
CONTINUOUS
 62
    7
 10
282.34712342958193
 20
142.1136474609375
 40
0.1476736326475401
  0
CIRCLE
  8
_1-0_
  6
CONTINUOUS
 62
    7
 10
280.50122235272386
 20
144.18108141100086
 40
0.1476736326475401
  0
CIRCLE
  8
_1-0_
  6
CONTINUOUS
 62
    7
 10
281.68259904191302
 20
144.25491745407518
 40
0.1476736326475401
  0
CIRCLE
  8
_1-0_
  6
CONTINUOUS
 62
    7
 10
281.53492695576438
 20
143.4427209802576
 40
0.1476736326475401
  0
CIRCLE
  8
_1-0_
  6
CONTINUOUS
 62
    7
 10
279.68902587890625
 20
142.48284004830026
 40
0.1476736326475401
  0
CIRCLE
  8
_1-0_
  6
CONTINUOUS
 62
    7
 10
281.46109091269005
 20
141.59679515941724
 40
0.1476736326475401
  0
CIRCLE
  8
_1-0_
  6
CONTINUOUS
 62
    7
 10
279.98437005120354
 20
141.89213933171453
 40
0.1476736326475401
  0
CIRCLE
  8
_1-0_
  6
CONTINUOUS
 62
    7
 10
278.28611631651182
 20
142.9258563067462
 40
0.1476736326475401
  0
CIRCLE
  8
_1-0_
  6
CONTINUOUS
 62
    7
 10
279.61518983583193
 20
144.18108141100086
 40
0.1476736326475401
  0
CIRCLE
  8
_1-0_
  6
CONTINUOUS
 62
    7
 10
279.91053400812922
 20
145.80548673062711
 40
0.1476736326475401
  0
CIRCLE
  8
_1-0_
  6
CONTINUOUS
 62
    7
 10
276.5878625818201
 20
145.06712629988388
 40
0.1476736326475401
  0
CIRCLE
  8
_1-0_
  6
CONTINUOUS
 62
    7
 10
273.8559289880701
 20
145.36247047218117
 40
0.1476736326475401
  0
CIRCLE
  8
_1-0_
  6
CONTINUOUS
 62
    7
 10
274.66812546188771
 20
144.25491745407518
 40
0.1476736326475401
  0
CIRCLE
  8
_1-0_
  6
CONTINUOUS
 62
    7
 10
271.12394590635557
 20
147.06071183488177
 40
0.1651024093499055
  0
CIRCLE
  8
_1-0_
  6
CONTINUOUS
 62
    7
 10
271.93616712415542
 20
147.13454787795609
 40
0.1651024093499055
  0
CIRCLE
  8
_1-0_
  6
CONTINUOUS
 62
    7
 10
274.1512731603674
 20
147.50372809332771
 40
0.1651024093499055
  0
CIRCLE
  8
_1-0_
  6
CONTINUOUS
 62
    7
 10
275.25881380648229
 20
146.98687579180745
 40
0.1651024093499055
  0
CIRCLE
  8
_1-0_
  6
CONTINUOUS
 62
    7
 10
272.89603568412161
 20
145.87933514569258
 40
0.1651024093499055
  0
CIRCLE
  8
_1-0_
  6
CONTINUOUS
 62
    7
 10
269.35188087257183
 20
146.10084327491555
 40
0.1651024093499055
  0
CIRCLE
  8
_1-0_
  6
CONTINUOUS
 62
    7
 10
266.39841440561656
 20
147.42989205025339
 40
0.1651024093499055
  0
CIRCLE
  8
_1-0_
  6
CONTINUOUS
 62
    7
 10
270.60432227882183
 20
145.07754351641682
 40
0.1476736326475401
  0
CIRCLE
  8
_1-0_
  6
CONTINUOUS
 62
    7
 10
268.38921624260979
 20
146.11126049144849
 40
0.1476736326475401
  0
CIRCLE
  8
_1-0_
  6
CONTINUOUS
 62
    7
 10
267.20781480943833
 20
146.99729300834039
 40
0.1476736326475401
  0
CIRCLE
  8
_1-0_
  6
CONTINUOUS
 62
    7
 10
270.16130602037583
 20
147.58799372492609
 40
0.1476736326475401
  0
CIRCLE
  8
_1-0_
  6
CONTINUOUS
 62
    7
 10
269.86596184807854
 20
147.66182976800044
 40
0.1476736326475401
  0
CIRCLE
  8
_1-0_
  6
CONTINUOUS
 62
    7
 10
265.36191373258026
 20
149.06472695840372
 40
0.1476736326475401
  0
CIRCLE
  8
_1-0_
  6
CONTINUOUS
 62
    7
 10
266.54329042176943
 20
149.13856300147805
 40
0.1476736326475401
  0
CIRCLE
  8
_1-0_
  6
CONTINUOUS
 62
    7
 10
266.39561833562078
 20
148.32636652766047
 40
0.1476736326475401
  0
CIRCLE
  8
_1-0_
  6
CONTINUOUS
 62
    7
 10
264.54971725876271
 20
147.36648559570312
 40
0.1476736326475401
  0
CIRCLE
  8
_1-0_
  6
CONTINUOUS
 62
    7
 10
266.32178229254646
 20
146.4804407068201
 40
0.1476736326475401
  0
CIRCLE
  8
_1-0_
  6
CONTINUOUS
 62
    7
 10
264.84506143106
 20
146.7757848791174
 40
0.1476736326475401
  0
CIRCLE
  8
_1-0_
  6
CONTINUOUS
 62
    7
 10
263.14680769636828
 20
147.80950185414909
 40
0.1476736326475401
  0
CIRCLE
  8
_1-0_
  6
CONTINUOUS
 62
    7
 10
264.47588121568833
 20
149.06472695840372
 40
0.1476736326475401
  0
CIRCLE
  8
_1-0_
  6
CONTINUOUS
 62
    7
 10
301.56067719330662
 20
131.80222382416596
 40
0.1651024093499055
  0
CIRCLE
  8
_1-0_
  6
CONTINUOUS
 62
    7
 10
303.79567739125844
 20
133.9021466229413
 40
0.1476736326475401
  0
CIRCLE
  8
_1-0_
  6
CONTINUOUS
 62
    7
 10
302.61427595808703
 20
134.7881791398332
 40
0.1476736326475401
  0
CIRCLE
  8
_1-0_
  6
CONTINUOUS
 62
    7
 10
299.95617840741136
 20
135.15737172719597
 40
0.1476736326475401
  0
CIRCLE
  8
_1-0_
  6
CONTINUOUS
 62
    7
 10
301.7282434411951
 20
134.27132683831292
 40
0.1476736326475401
  0
CIRCLE
  8
_1-0_
  6
CONTINUOUS
 62
    7
 10
300.25152257970865
 20
134.56667101061024
 40
0.1476736326475401
  0
CIRCLE
  8
_1-0_
  6
CONTINUOUS
 62
    7
 10
298.55326884501693
 20
135.6003879856419
 40
0.1476736326475401
  0
CIRCLE
  8
_1-0_
  6
CONTINUOUS
 62
    7
 10
296.85501511032521
 20
137.74165797877956
 40
0.1476736326475401
  0
CIRCLE
  8
_1-0_
  6
CONTINUOUS
 62
    7
 10
294.12308151657521
 20
138.03700215107688
 40
0.1476736326475401
  0
CIRCLE
  8
_1-0_
  6
CONTINUOUS
 62
    7
 10
294.93527799039276
 20
136.92944913297086
 40
0.1476736326475401
  0
CIRCLE
  8
_1-0_
  6
CONTINUOUS
 62
    7
 10
291.39109843486068
 20
139.73524351377745
 40
0.1651024093499055
  0
CIRCLE
  8
_1-0_
  6
CONTINUOUS
 62
    7
 10
292.20331965266047
 20
139.80907955685177
 40
0.1651024093499055
  0
CIRCLE
  8
_1-0_
  6
CONTINUOUS
 62
    7
 10
293.16318821262672
 20
138.55386682458825
 40
0.1651024093499055
  0
CIRCLE
  8
_1-0_
  6
CONTINUOUS
 62
    7
 10
289.61903340107688
 20
138.77537495381125
 40
0.1651024093499055
  0
CIRCLE
  8
_1-0_
  6
CONTINUOUS
 62
    7
 10
286.66556693412161
 20
140.10442372914909
 40
0.1651024093499055
  0
CIRCLE
  8
_1-0_
  6
CONTINUOUS
 62
    7
 10
290.87147480732688
 20
137.7520751953125
 40
0.1476736326475401
  0
CIRCLE
  8
_1-0_
  6
CONTINUOUS
 62
    7
 10
288.6563687711149
 20
138.78579217034417
 40
0.1476736326475401
  0
CIRCLE
  8
_1-0_
  6
CONTINUOUS
 62
    7
 10
287.47496733794344
 20
139.67182468723607
 40
0.1476736326475401
  0
CIRCLE
  8
_1-0_
  6
CONTINUOUS
 62
    7
 10
290.42845854888094
 20
140.2625254038218
 40
0.1476736326475401
  0
CIRCLE
  8
_1-0_
  6
CONTINUOUS
 62
    7
 10
290.13311437658365
 20
140.33636144689612
 40
0.1476736326475401
  0
CIRCLE
  8
_1-0_
  6
CONTINUOUS
 62
    7
 10
285.62906626108531
 20
141.73925863729943
 40
0.1476736326475401
  0
CIRCLE
  8
_1-0_
  6
CONTINUOUS
 62
    7
 10
286.81044295027453
 20
141.81309468037375
 40
0.1476736326475401
  0
CIRCLE
  8
_1-0_
  6
CONTINUOUS
 62
    7
 10
286.66277086412583
 20
141.00089820655617
 40
0.1476736326475401
  0
CIRCLE
  8
_1-0_
  6
CONTINUOUS
 62
    7
 10
284.81686978726776
 20
140.04101727459883
 40
0.1476736326475401
  0
CIRCLE
  8
_1-0_
  6
CONTINUOUS
 62
    7
 10
286.58893482105151
 20
139.15497238571581
 40
0.1476736326475401
  0
CIRCLE
  8
_1-0_
  6
CONTINUOUS
 62
    7
 10
285.11221395956505
 20
139.4503165580131
 40
0.1476736326475401
  0
CIRCLE
  8
_1-0_
  6
CONTINUOUS
 62
    7
 10
283.41396022487334
 20
140.48403353304477
 40
0.1476736326475401
  0
CIRCLE
  8
_1-0_
  6
CONTINUOUS
 62
    7
 10
284.74303374419344
 20
141.73925863729943
 40
0.1476736326475401
  0
CIRCLE
  8
_1-0_
  6
CONTINUOUS
 62
    7
 10
318.40925062024917
 20
122.76747832427155
 40
0.1651024093499055
  0
CIRCLE
  8
_1-0_
  6
CONTINUOUS
 62
    7
 10
320.64425081820104
 20
124.86740112304687
 40
0.1476736326475401
  0
CIRCLE
  8
_1-0_
  6
CONTINUOUS
 62
    7
 10
319.46284938502959
 20
125.75343363993878
 40
0.1476736326475401
  0
CIRCLE
  8
_1-0_
  6
CONTINUOUS
 62
    7
 10
317.61694830817146
 20
127.82086759000212
 40
0.1476736326475401
  0
CIRCLE
  8
_1-0_
  6
CONTINUOUS
 62
    7
 10
318.79832499736068
 20
127.89470363307645
 40
0.1476736326475401
  0
CIRCLE
  8
_1-0_
  6
CONTINUOUS
 62
    7
 10
318.65065291121203
 20
127.08250715925888
 40
0.1476736326475401
  0
CIRCLE
  8
_1-0_
  6
CONTINUOUS
 62
    7
 10
316.80475183435391
 20
126.12262622730152
 40
0.1476736326475401
  0
CIRCLE
  8
_1-0_
  6
CONTINUOUS
 62
    7
 10
318.57681686813771
 20
125.2365813384185
 40
0.1476736326475401
  0
CIRCLE
  8
_1-0_
  6
CONTINUOUS
 62
    7
 10
317.1000960066512
 20
125.53192551071579
 40
0.1476736326475401
  0
CIRCLE
  8
_1-0_
  6
CONTINUOUS
 62
    7
 10
315.40184227195948
 20
126.56564248574747
 40
0.1476736326475401
  0
CIRCLE
  8
_1-0_
  6
CONTINUOUS
 62
    7
 10
316.73091579127959
 20
127.82086759000212
 40
0.1476736326475401
  0
CIRCLE
  8
_1-0_
  6
CONTINUOUS
 62
    7
 10
317.02625996357688
 20
129.44527290962839
 40
0.1476736326475401
  0
CIRCLE
  8
_1-0_
  6
CONTINUOUS
 62
    7
 10
313.70358853726776
 20
128.70691247888513
 40
0.1476736326475401
  0
CIRCLE
  8
_1-0_
  6
CONTINUOUS
 62
    7
 10
310.97165494351776
 20
129.00225665118245
 40
0.1476736326475401
  0
CIRCLE
  8
_1-0_
  6
CONTINUOUS
 62
    7
 10
311.78385141733531
 20
127.89470363307645
 40
0.1476736326475401
  0
CIRCLE
  8
_1-0_
  6
CONTINUOUS
 62
    7
 10
308.23967186180323
 20
130.70049801388302
 40
0.1651024093499055
  0
CIRCLE
  8
_1-0_
  6
CONTINUOUS
 62
    7
 10
309.05189307960308
 20
130.77433405695734
 40
0.1651024093499055
  0
CIRCLE
  8
_1-0_
  6
CONTINUOUS
 62
    7
 10
311.26699911581505
 20
131.14351427232899
 40
0.1651024093499055
  0
CIRCLE
  8
_1-0_
  6
CONTINUOUS
 62
    7
 10
312.3745397619299
 20
130.6266619708087
 40
0.1651024093499055
  0
CIRCLE
  8
_1-0_
  6
CONTINUOUS
 62
    7
 10
310.01176163956927
 20
129.51912132469383
 40
0.1651024093499055
  0
CIRCLE
  8
_1-0_
  6
CONTINUOUS
 62
    7
 10
306.46760682801943
 20
129.74062945391682
 40
0.1651024093499055
  0
CIRCLE
  8
_1-0_
  6
CONTINUOUS
 62
    7
 10
303.51414036106422
 20
131.06967822925466
 40
0.1651024093499055
  0
CIRCLE
  8
_1-0_
  6
CONTINUOUS
 62
    7
 10
307.72004823426943
 20
128.71732969541807
 40
0.1476736326475401
  0
CIRCLE
  8
_1-0_
  6
CONTINUOUS
 62
    7
 10
305.50494219805745
 20
129.75104667044977
 40
0.1476736326475401
  0
CIRCLE
  8
_1-0_
  6
CONTINUOUS
 62
    7
 10
304.32354076488599
 20
130.63707918734164
 40
0.1476736326475401
  0
CIRCLE
  8
_1-0_
  6
CONTINUOUS
 62
    7
 10
307.27703197582349
 20
131.22777990392737
 40
0.1476736326475401
  0
CIRCLE
  8
_1-0_
  6
CONTINUOUS
 62
    7
 10
306.9816878035262
 20
131.30161594700169
 40
0.1476736326475401
  0
CIRCLE
  8
_1-0_
  6
CONTINUOUS
 62
    7
 10
302.47763968802786
 20
132.704513137405
 40
0.1476736326475401
  0
CIRCLE
  8
_1-0_
  6
CONTINUOUS
 62
    7
 10
303.65901637721709
 20
132.77834918047932
 40
0.1476736326475401
  0
CIRCLE
  8
_1-0_
  6
CONTINUOUS
 62
    7
 10
303.51134429106844
 20
131.96615270666175
 40
0.1476736326475401
  0
CIRCLE
  8
_1-0_
  6
CONTINUOUS
 62
    7
 10
301.66544321421031
 20
131.0062717747044
 40
0.1476736326475401
  0
CIRCLE
  8
_1-0_
  6
CONTINUOUS
 62
    7
 10
303.43750824799412
 20
130.12022688582138
 40
0.1476736326475401
  0
CIRCLE
  8
_1-0_
  6
CONTINUOUS
 62
    7
 10
301.9607873865076
 20
130.41557105811867
 40
0.1476736326475401
  0
CIRCLE
  8
_1-0_
  6
CONTINUOUS
 62
    7
 10
300.26253365181589
 20
131.44928803315034
 40
0.1476736326475401
  0
CIRCLE
  8
_1-0_
  6
CONTINUOUS
 62
    7
 10
301.59160717113599
 20
132.704513137405
 40
0.1476736326475401
  0
CIRCLE
  8
_1-0_
  6
CONTINUOUS
 62
    7
 10
335.99039438608531
 20
115.68618362014358
 40
0.1651024093499055
  0
CIRCLE
  8
_1-0_
  6
CONTINUOUS
 62
    7
 10
338.22539458403719
 20
117.78610641891892
 40
0.1476736326475401
  0
CIRCLE
  8
_1-0_
  6
CONTINUOUS
 62
    7
 10
337.04399315086573
 20
118.67213893581082
 40
0.1476736326475401
  0
CIRCLE
  8
_1-0_
  6
CONTINUOUS
 62
    7
 10
335.1980920740076
 20
120.73957288587417
 40
0.1476736326475401
  0
CIRCLE
  8
_1-0_
  6
CONTINUOUS
 62
    7
 10
336.37946876319683
 20
120.81340892894849
 40
0.1476736326475401
  0
CIRCLE
  8
_1-0_
  6
CONTINUOUS
 62
    7
 10
336.23179667704818
 20
120.00121245513093
 40
0.1476736326475401
  0
CIRCLE
  8
_1-0_
  6
CONTINUOUS
 62
    7
 10
334.38589560019005
 20
119.04133152317357
 40
0.1476736326475401
  0
CIRCLE
  8
_1-0_
  6
CONTINUOUS
 62
    7
 10
336.15796063397386
 20
118.15528663429055
 40
0.1476736326475401
  0
CIRCLE
  8
_1-0_
  6
CONTINUOUS
 62
    7
 10
334.68123977248734
 20
118.45063080658784
 40
0.1476736326475401
  0
CIRCLE
  8
_1-0_
  6
CONTINUOUS
 62
    7
 10
332.98298603779563
 20
119.48434778161952
 40
0.1476736326475401
  0
CIRCLE
  8
_1-0_
  6
CONTINUOUS
 62
    7
 10
334.31205955711573
 20
120.73957288587417
 40
0.1476736326475401
  0
CIRCLE
  8
_1-0_
  6
CONTINUOUS
 62
    7
 10
334.60740372941302
 20
122.36397820550043
 40
0.1476736326475401
  0
CIRCLE
  8
_1-0_
  6
CONTINUOUS
 62
    7
 10
331.28473230310391
 20
121.62561777475719
 40
0.1476736326475401
  0
CIRCLE
  8
_1-0_
  6
CONTINUOUS
 62
    7
 10
328.55279870935391
 20
121.92096194705448
 40
0.1476736326475401
  0
CIRCLE
  8
_1-0_
  6
CONTINUOUS
 62
    7
 10
329.36499518317146
 20
120.81340892894849
 40
0.1476736326475401
  0
CIRCLE
  8
_1-0_
  6
CONTINUOUS
 62
    7
 10
325.82081562763938
 20
123.61920330975508
 40
0.1651024093499055
  0
CIRCLE
  8
_1-0_
  6
CONTINUOUS
 62
    7
 10
326.63303684543922
 20
123.6930393528294
 40
0.1651024093499055
  0
CIRCLE
  8
_1-0_
  6
CONTINUOUS
 62
    7
 10
328.8481428816512
 20
124.06221956820102
 40
0.1651024093499055
  0
CIRCLE
  8
_1-0_
  6
CONTINUOUS
 62
    7
 10
329.95568352776604
 20
123.54536726668076
 40
0.1651024093499055
  0
CIRCLE
  8
_1-0_
  6
CONTINUOUS
 62
    7
 10
327.59290540540542
 20
122.43782662056589
 40
0.1651024093499055
  0
CIRCLE
  8
_1-0_
  6
CONTINUOUS
 62
    7
 10
324.04875059385557
 20
122.65933474978885
 40
0.1651024093499055
  0
CIRCLE
  8
_1-0_
  6
CONTINUOUS
 62
    7
 10
321.09528412690037
 20
123.98838352512669
 40
0.1651024093499055
  0
CIRCLE
  8
_1-0_
  6
CONTINUOUS
 62
    7
 10
325.30119200010557
 20
121.63603499129013
 40
0.1476736326475401
  0
CIRCLE
  8
_1-0_
  6
CONTINUOUS
 62
    7
 10
323.08608596389359
 20
122.6697519663218
 40
0.1476736326475401
  0
CIRCLE
  8
_1-0_
  6
CONTINUOUS
 62
    7
 10
321.90468453072214
 20
123.55578448321369
 40
0.1476736326475401
  0
CIRCLE
  8
_1-0_
  6
CONTINUOUS
 62
    7
 10
324.85817574165964
 20
124.14648519979941
 40
0.1476736326475401
  0
CIRCLE
  8
_1-0_
  6
CONTINUOUS
 62
    7
 10
324.56283156936234
 20
124.22032124287374
 40
0.1476736326475401
  0
CIRCLE
  8
_1-0_
  6
CONTINUOUS
 62
    7
 10
320.05878345386407
 20
125.62321843327703
 40
0.1476736326475401
  0
CIRCLE
  8
_1-0_
  6
CONTINUOUS
 62
    7
 10
321.24016014305323
 20
125.69705447635135
 40
0.1476736326475401
  0
CIRCLE
  8
_1-0_
  6
CONTINUOUS
 62
    7
 10
321.09248805690459
 20
124.88485800253379
 40
0.1476736326475401
  0
CIRCLE
  8
_1-0_
  6
CONTINUOUS
 62
    7
 10
319.24658698004646
 20
123.92497707057645
 40
0.1476736326475401
  0
CIRCLE
  8
_1-0_
  6
CONTINUOUS
 62
    7
 10
321.01865201383026
 20
123.03893218169343
 40
0.1476736326475401
  0
CIRCLE
  8
_1-0_
  6
CONTINUOUS
 62
    7
 10
319.54193115234375
 20
123.33427635399072
 40
0.1476736326475401
  0
CIRCLE
  8
_1-0_
  6
CONTINUOUS
 62
    7
 10
317.84367741765203
 20
124.36799332902238
 40
0.1476736326475401
  0
CIRCLE
  8
_1-0_
  6
CONTINUOUS
 62
    7
 10
319.17275093697214
 20
125.62321843327703
 40
0.1476736326475401
  0
CIRCLE
  8
_1-0_
  6
CONTINUOUS
 62
    7
 10
354.79243098078547
 20
106.89561173722551
 40
0.1651024093499055
  0
CIRCLE
  8
_1-0_
  6
CONTINUOUS
 62
    7
 10
357.02743117873734
 20
108.99553453600085
 40
0.1476736326475401
  0
CIRCLE
  8
_1-0_
  6
CONTINUOUS
 62
    7
 10
355.84602974556589
 20
109.88156705289275
 40
0.1476736326475401
  0
CIRCLE
  8
_1-0_
  6
CONTINUOUS
 62
    7
 10
354.00012866870782
 20
111.94900100295608
 40
0.1476736326475401
  0
CIRCLE
  8
_1-0_
  6
CONTINUOUS
 62
    7
 10
355.18150535789698
 20
112.02283704603042
 40
0.1476736326475401
  0
CIRCLE
  8
_1-0_
  6
CONTINUOUS
 62
    7
 10
355.03383327174834
 20
111.21064057221284
 40
0.1476736326475401
  0
CIRCLE
  8
_1-0_
  6
CONTINUOUS
 62
    7
 10
353.18793219489021
 20
110.2507596402555
 40
0.1476736326475401
  0
CIRCLE
  8
_1-0_
  6
CONTINUOUS
 62
    7
 10
354.95999722867401
 20
109.36471475137247
 40
0.1476736326475401
  0
CIRCLE
  8
_1-0_
  6
CONTINUOUS
 62
    7
 10
353.4832763671875
 20
109.66005892366977
 40
0.1476736326475401
  0
CIRCLE
  8
_1-0_
  6
CONTINUOUS
 62
    7
 10
351.78502263249578
 20
110.69377589870145
 40
0.1476736326475401
  0
CIRCLE
  8
_1-0_
  6
CONTINUOUS
 62
    7
 10
353.11409615181589
 20
111.94900100295608
 40
0.1476736326475401
  0
CIRCLE
  8
_1-0_
  6
CONTINUOUS
 62
    7
 10
353.40944032411318
 20
113.57340632258236
 40
0.1476736326475401
  0
CIRCLE
  8
_1-0_
  6
CONTINUOUS
 62
    7
 10
350.08676889780406
 20
112.83504589183912
 40
0.1476736326475401
  0
CIRCLE
  8
_1-0_
  6
CONTINUOUS
 62
    7
 10
347.35483530405406
 20
113.13039006413641
 40
0.1476736326475401
  0
CIRCLE
  8
_1-0_
  6
CONTINUOUS
 62
    7
 10
348.16703177787161
 20
112.02283704603042
 40
0.1476736326475401
  0
CIRCLE
  8
_1-0_
  6
CONTINUOUS
 62
    7
 10
344.62285222233953
 20
114.82863142683701
 40
0.1651024093499055
  0
CIRCLE
  8
_1-0_
  6
CONTINUOUS
 62
    7
 10
345.43507344013938
 20
114.90246746991133
 40
0.1651024093499055
  0
CIRCLE
  8
_1-0_
  6
CONTINUOUS
 62
    7
 10
347.65017947635135
 20
115.27164768528294
 40
0.1651024093499055
  0
CIRCLE
  8
_1-0_
  6
CONTINUOUS
 62
    7
 10
348.75772012246625
 20
114.75479538376267
 40
0.1651024093499055
  0
CIRCLE
  8
_1-0_
  6
CONTINUOUS
 62
    7
 10
346.39494200010557
 20
113.64725473764781
 40
0.1651024093499055
  0
CIRCLE
  8
_1-0_
  6
CONTINUOUS
 62
    7
 10
342.85078718855578
 20
113.86876286687078
 40
0.1651024093499055
  0
CIRCLE
  8
_1-0_
  6
CONTINUOUS
 62
    7
 10
339.89732072160052
 20
115.19781164220862
 40
0.1651024093499055
  0
CIRCLE
  8
_1-0_
  6
CONTINUOUS
 62
    7
 10
344.10322859480578
 20
112.84546310837204
 40
0.1476736326475401
  0
CIRCLE
  8
_1-0_
  6
CONTINUOUS
 62
    7
 10
341.88812255859375
 20
113.87918008340372
 40
0.1476736326475401
  0
CIRCLE
  8
_1-0_
  6
CONTINUOUS
 62
    7
 10
340.70672112542229
 20
114.76521260029561
 40
0.1476736326475401
  0
CIRCLE
  8
_1-0_
  6
CONTINUOUS
 62
    7
 10
343.66021233635979
 20
115.35591331688134
 40
0.1476736326475401
  0
CIRCLE
  8
_1-0_
  6
CONTINUOUS
 62
    7
 10
343.3648681640625
 20
115.42974935995566
 40
0.1476736326475401
  0
CIRCLE
  8
_1-0_
  6
CONTINUOUS
 62
    7
 10
338.86082004856422
 20
116.83264655035896
 40
0.1476736326475401
  0
CIRCLE
  8
_1-0_
  6
CONTINUOUS
 62
    7
 10
340.04219673775339
 20
116.90648259343328
 40
0.1476736326475401
  0
CIRCLE
  8
_1-0_
  6
CONTINUOUS
 62
    7
 10
339.89452465160474
 20
116.09428611961572
 40
0.1476736326475401
  0
CIRCLE
  8
_1-0_
  6
CONTINUOUS
 62
    7
 10
338.04862357474661
 20
115.13440518765837
 40
0.1476736326475401
  0
CIRCLE
  8
_1-0_
  6
CONTINUOUS
 62
    7
 10
339.82068860853042
 20
114.24836029877534
 40
0.1476736326475401
  0
CIRCLE
  8
_1-0_
  6
CONTINUOUS
 62
    7
 10
338.34396774704396
 20
114.54370447107264
 40
0.1476736326475401
  0
CIRCLE
  8
_1-0_
  6
CONTINUOUS
 62
    7
 10
336.64571401235219
 20
115.57742144610431
 40
0.1476736326475401
  0
CIRCLE
  8
_1-0_
  6
CONTINUOUS
 62
    7
 10
337.97478753167229
 20
116.83264655035896
 40
0.1476736326475401
  0
CIRCLE
  8
_1-0_
  6
CONTINUOUS
 62
    7
 10
376.28047633815459
 20
97.860866237331081
 40
0.1651024093499055
  0
CIRCLE
  8
_1-0_
  6
CONTINUOUS
 62
    7
 10
378.51547653610646
 20
99.960789036106419
 40
0.1476736326475401
  0
CIRCLE
  8
_1-0_
  6
CONTINUOUS
 62
    7
 10
377.334075102935
 20
100.84682155299832
 40
0.1476736326475401
  0
CIRCLE
  8
_1-0_
  6
CONTINUOUS
 62
    7
 10
375.48817402607688
 20
102.91425550306167
 40
0.1476736326475401
  0
CIRCLE
  8
_1-0_
  6
CONTINUOUS
 62
    7
 10
376.66955071526604
 20
102.98809154613599
 40
0.1476736326475401
  0
CIRCLE
  8
_1-0_
  6
CONTINUOUS
 62
    7
 10
376.5218786291174
 20
102.17589507231841
 40
0.1476736326475401
  0
CIRCLE
  8
_1-0_
  6
CONTINUOUS
 62
    7
 10
374.67597755225933
 20
101.21601414036107
 40
0.1476736326475401
  0
CIRCLE
  8
_1-0_
  6
CONTINUOUS
 62
    7
 10
376.44804258604307
 20
100.32996925147805
 40
0.1476736326475401
  0
CIRCLE
  8
_1-0_
  6
CONTINUOUS
 62
    7
 10
374.97132172455662
 20
100.62531342377534
 40
0.1476736326475401
  0
CIRCLE
  8
_1-0_
  6
CONTINUOUS
 62
    7
 10
373.2730679898649
 20
101.65903039880702
 40
0.1476736326475401
  0
CIRCLE
  8
_1-0_
  6
CONTINUOUS
 62
    7
 10
374.602141509185
 20
102.91425550306167
 40
0.1476736326475401
  0
CIRCLE
  8
_1-0_
  6
CONTINUOUS
 62
    7
 10
374.89748568148229
 20
104.53866082268793
 40
0.1476736326475401
  0
CIRCLE
  8
_1-0_
  6
CONTINUOUS
 62
    7
 10
371.57481425517318
 20
103.80030039194469
 40
0.1476736326475401
  0
CIRCLE
  8
_1-0_
  6
CONTINUOUS
 62
    7
 10
368.84288066142318
 20
104.09564456424198
 40
0.1476736326475401
  0
CIRCLE
  8
_1-0_
  6
CONTINUOUS
 62
    7
 10
369.65507713524073
 20
102.98809154613599
 40
0.1476736326475401
  0
CIRCLE
  8
_1-0_
  6
CONTINUOUS
 62
    7
 10
366.11089757970865
 20
105.79388592694258
 40
0.1651024093499055
  0
CIRCLE
  8
_1-0_
  6
CONTINUOUS
 62
    7
 10
366.92311879750849
 20
105.8677219700169
 40
0.1651024093499055
  0
CIRCLE
  8
_1-0_
  6
CONTINUOUS
 62
    7
 10
369.13822483372047
 20
106.23690218538852
 40
0.1651024093499055
  0
CIRCLE
  8
_1-0_
  6
CONTINUOUS
 62
    7
 10
370.24576547983531
 20
105.72004988386824
 40
0.1651024093499055
  0
CIRCLE
  8
_1-0_
  6
CONTINUOUS
 62
    7
 10
367.88298735747469
 20
104.61250923775339
 40
0.1651024093499055
  0
CIRCLE
  8
_1-0_
  6
CONTINUOUS
 62
    7
 10
364.33883254592484
 20
104.83401736697635
 40
0.1651024093499055
  0
CIRCLE
  8
_1-0_
  6
CONTINUOUS
 62
    7
 10
361.38536607896964
 20
106.16306614231419
 40
0.1651024093499055
  0
CIRCLE
  8
_1-0_
  6
CONTINUOUS
 62
    7
 10
365.59127395217484
 20
103.81071760847762
 40
0.1476736326475401
  0
CIRCLE
  8
_1-0_
  6
CONTINUOUS
 62
    7
 10
363.37616791596287
 20
104.8444345835093
 40
0.1476736326475401
  0
CIRCLE
  8
_1-0_
  6
CONTINUOUS
 62
    7
 10
362.19476648279141
 20
105.73046710040119
 40
0.1476736326475401
  0
CIRCLE
  8
_1-0_
  6
CONTINUOUS
 62
    7
 10
365.14825769372891
 20
106.32116781698691
 40
0.1476736326475401
  0
CIRCLE
  8
_1-0_
  6
CONTINUOUS
 62
    7
 10
364.85291352143162
 20
106.39500386006124
 40
0.1476736326475401
  0
CIRCLE
  8
_1-0_
  6
CONTINUOUS
 62
    7
 10
360.34886540593328
 20
107.79790105046453
 40
0.1476736326475401
  0
CIRCLE
  8
_1-0_
  6
CONTINUOUS
 62
    7
 10
361.5302420951225
 20
107.87173709353885
 40
0.1476736326475401
  0
CIRCLE
  8
_1-0_
  6
CONTINUOUS
 62
    7
 10
361.38257000897386
 20
107.05954061972129
 40
0.1476736326475401
  0
CIRCLE
  8
_1-0_
  6
CONTINUOUS
 62
    7
 10
359.53666893211573
 20
106.09965968776395
 40
0.1476736326475401
  0
CIRCLE
  8
_1-0_
  6
CONTINUOUS
 62
    7
 10
361.30873396589953
 20
105.21361479888091
 40
0.1476736326475401
  0
CIRCLE
  8
_1-0_
  6
CONTINUOUS
 62
    7
 10
359.83201310441302
 20
105.50895897117822
 40
0.1476736326475401
  0
CIRCLE
  8
_1-0_
  6
CONTINUOUS
 62
    7
 10
358.1337593697213
 20
106.54267594620988
 40
0.1476736326475401
  0
CIRCLE
  8
_1-0_
  6
CONTINUOUS
 62
    7
 10
359.46283288904141
 20
107.79790105046453
 40
0.1476736326475401
  0
CIRCLE
  8
_1-0_
  6
CONTINUOUS
 62
    7
 10
34.122236097181172
 20
97.927186295792865
 40
0.1476736326475401
  0
CIRCLE
  8
_1-0_
  6
CONTINUOUS
 62
    7
 10
35.968155732025963
 20
99.994614059860652
 40
0.1476736326475401
  0
CIRCLE
  8
_1-0_
  6
CONTINUOUS
 62
    7
 10
34.786766670845651
 20
100.06845010293497
 40
0.1476736326475401
  0
CIRCLE
  8
_1-0_
  6
CONTINUOUS
 62
    7
 10
34.934438756994297
 20
99.256247443121836
 40
0.1476736326475401
  0
CIRCLE
  8
_1-0_
  6
CONTINUOUS
 62
    7
 10
36.780358391839115
 20
98.296372697160052
 40
0.1476736326475401
  0
CIRCLE
  8
_1-0_
  6
CONTINUOUS
 62
    7
 10
36.485008033546251
 20
97.705678166569896
 40
0.1476736326475401
  0
CIRCLE
  8
_1-0_
  6
CONTINUOUS
 62
    7
 10
36.854194434913438
 20
99.994614059860652
 40
0.1476736326475401
  0
CIRCLE
  8
_1-0_
  6
CONTINUOUS
 62
    7
 10
28.39646932241078
 20
95.34136591730892
 40
0.1476736326475401
  0
CIRCLE
  8
_1-0_
  6
CONTINUOUS
 62
    7
 10
30.242388957255599
 20
97.408793681376693
 40
0.1476736326475401
  0
CIRCLE
  8
_1-0_
  6
CONTINUOUS
 62
    7
 10
29.060999896075288
 20
97.482629724451016
 40
0.1476736326475401
  0
CIRCLE
  8
_1-0_
  6
CONTINUOUS
 62
    7
 10
29.208671982223933
 20
96.670427064637892
 40
0.1476736326475401
  0
CIRCLE
  8
_1-0_
  6
CONTINUOUS
 62
    7
 10
31.054591617068724
 20
95.710552318676108
 40
0.1476736326475401
  0
CIRCLE
  8
_1-0_
  6
CONTINUOUS
 62
    7
 10
30.759241258775859
 20
95.119857788085938
 40
0.1476736326475401
  0
CIRCLE
  8
_1-0_
  6
CONTINUOUS
 62
    7
 10
31.128427660143046
 20
97.408793681376693
 40
0.1476736326475401
  0
CIRCLE
  8
_1-0_
  6
CONTINUOUS
 62
    7
 10
37.257524438806485
 20
95.10473302892737
 40
0.1476736326475401
  0
CIRCLE
  8
_1-0_
  6
CONTINUOUS
 62
    7
 10
39.98948277653875
 20
96.802974391627956
 40
0.1651024093499055
  0
CIRCLE
  8
_1-0_
  6
CONTINUOUS
 62
    7
 10
39.177280116725626
 20
96.876810434702293
 40
0.1651024093499055
  0
CIRCLE
  8
_1-0_
  6
CONTINUOUS
 62
    7
 10
36.962177173511407
 20
97.24600302206504
 40
0.1651024093499055
  0
CIRCLE
  8
_1-0_
  6
CONTINUOUS
 62
    7
 10
35.854627248403176
 20
96.729138348553633
 40
0.1651024093499055
  0
CIRCLE
  8
_1-0_
  6
CONTINUOUS
 62
    7
 10
38.217402277766041
 20
95.621585330447644
 40
0.1651024093499055
  0
CIRCLE
  8
_1-0_
  6
CONTINUOUS
 62
    7
 10
41.761566368309218
 20
95.843093459670612
 40
0.1651024093499055
  0
CIRCLE
  8
_1-0_
  6
CONTINUOUS
 62
    7
 10
36.131302086082655
 20
97.318614238017318
 40
0.1476736326475401
  0
CIRCLE
  8
_1-0_
  6
CONTINUOUS
 62
    7
 10
37.312691147262996
 20
98.204659126900339
 40
0.1476736326475401
  0
CIRCLE
  8
_1-0_
  6
CONTINUOUS
 62
    7
 10
38.198729850150443
 20
97.687794453388946
 40
0.1476736326475401
  0
CIRCLE
  8
_1-0_
  6
CONTINUOUS
 62
    7
 10
39.675463083628074
 20
97.98315099767737
 40
0.1476736326475401
  0
CIRCLE
  8
_1-0_
  6
CONTINUOUS
 62
    7
 10
33.378781499089428
 20
92.703601734058282
 40
0.1476736326475401
  0
CIRCLE
  8
_1-0_
  6
CONTINUOUS
 62
    7
 10
36.110739836821693
 20
94.401843096758867
 40
0.1651024093499055
  0
CIRCLE
  8
_1-0_
  6
CONTINUOUS
 62
    7
 10
35.298537177008541
 20
94.475679139833204
 40
0.1651024093499055
  0
CIRCLE
  8
_1-0_
  6
CONTINUOUS
 62
    7
 10
33.08343423379435
 20
94.844871727195951
 40
0.1651024093499055
  0
CIRCLE
  8
_1-0_
  6
CONTINUOUS
 62
    7
 10
31.975884308686119
 20
94.328007053684544
 40
0.1651024093499055
  0
CIRCLE
  8
_1-0_
  6
CONTINUOUS
 62
    7
 10
34.338659338048984
 20
93.220454035578555
 40
0.1651024093499055
  0
CIRCLE
  8
_1-0_
  6
CONTINUOUS
 62
    7
 10
32.252559146365599
 20
94.917482943148229
 40
0.1476736326475401
  0
CIRCLE
  8
_1-0_
  6
CONTINUOUS
 62
    7
 10
33.433948207545939
 20
95.80352783203125
 40
0.1476736326475401
  0
CIRCLE
  8
_1-0_
  6
CONTINUOUS
 62
    7
 10
34.319986910433386
 20
95.286663158519858
 40
0.1476736326475401
  0
CIRCLE
  8
_1-0_
  6
CONTINUOUS
 62
    7
 10
35.796720143910989
 20
95.582019702808282
 40
0.1476736326475401
  0
CIRCLE
  8
_1-0_
  6
CONTINUOUS
 62
    7
 10
27.653017817316822
 20
89.194261705553217
 40
0.1476736326475401
  0
CIRCLE
  8
_1-0_
  6
CONTINUOUS
 62
    7
 10
30.384976155049088
 20
90.892503068253802
 40
0.1651024093499055
  0
CIRCLE
  8
_1-0_
  6
CONTINUOUS
 62
    7
 10
29.572773495235964
 20
90.966339111328125
 40
0.1651024093499055
  0
CIRCLE
  8
_1-0_
  6
CONTINUOUS
 62
    7
 10
27.357670552021744
 20
91.335531698690886
 40
0.1651024093499055
  0
CIRCLE
  8
_1-0_
  6
CONTINUOUS
 62
    7
 10
26.250120626913542
 20
90.818667025179479
 40
0.1651024093499055
  0
CIRCLE
  8
_1-0_
  6
CONTINUOUS
 62
    7
 10
28.612895656276407
 20
89.71111400707349
 40
0.1651024093499055
  0
CIRCLE
  8
_1-0_
  6
CONTINUOUS
 62
    7
 10
26.526795464593022
 20
91.408142914643165
 40
0.1476736326475401
  0
CIRCLE
  8
_1-0_
  6
CONTINUOUS
 62
    7
 10
27.708184525773333
 20
92.294187803526185
 40
0.1476736326475401
  0
CIRCLE
  8
_1-0_
  6
CONTINUOUS
 62
    7
 10
28.59422322866078
 20
91.777323130014778
 40
0.1476736326475401
  0
CIRCLE
  8
_1-0_
  6
CONTINUOUS
 62
    7
 10
30.070956462138412
 20
92.072679674303217
 40
0.1476736326475401
  0
CIRCLE
  8
_1-0_
  6
CONTINUOUS
 62
    7
 10
49.039885031210417
 20
98.64998894768793
 40
0.1651024093499055
  0
CIRCLE
  8
_1-0_
  6
CONTINUOUS
 62
    7
 10
48.227682371397293
 20
98.723824990762253
 40
0.1651024093499055
  0
CIRCLE
  8
_1-0_
  6
CONTINUOUS
 62
    7
 10
46.012579428183074
 20
99.093017578125
 40
0.1651024093499055
  0
CIRCLE
  8
_1-0_
  6
CONTINUOUS
 62
    7
 10
44.905029503074843
 20
98.576152904613608
 40
0.1651024093499055
  0
CIRCLE
  8
_1-0_
  6
CONTINUOUS
 62
    7
 10
45.181704340754322
 20
99.165628794077293
 40
0.1476736326475401
  0
CIRCLE
  8
_1-0_
  6
CONTINUOUS
 62
    7
 10
46.363093401934663
 20
100.05167368296031
 40
0.1476736326475401
  0
CIRCLE
  8
_1-0_
  6
CONTINUOUS
 62
    7
 10
47.24913210482211
 20
99.534809009448907
 40
0.1476736326475401
  0
CIRCLE
  8
_1-0_
  6
CONTINUOUS
 62
    7
 10
48.725865338299741
 20
99.830165553737331
 40
0.1476736326475401
  0
CIRCLE
  8
_1-0_
  6
CONTINUOUS
 62
    7
 10
51.848988919644739
 20
100.09168470228042
 40
0.1476736326475401
  0
CIRCLE
  8
_1-0_
  6
CONTINUOUS
 62
    7
 10
54.580944164379218
 20
101.789926064981
 40
0.1651024093499055
  0
CIRCLE
  8
_1-0_
  6
CONTINUOUS
 62
    7
 10
53.768747690561668
 20
101.86376210805533
 40
0.1651024093499055
  0
CIRCLE
  8
_1-0_
  6
CONTINUOUS
 62
    7
 10
51.553641654349661
 20
102.23295469541809
 40
0.1651024093499055
  0
CIRCLE
  8
_1-0_
  6
CONTINUOUS
 62
    7
 10
50.446091729241459
 20
101.71609002190668
 40
0.1651024093499055
  0
CIRCLE
  8
_1-0_
  6
CONTINUOUS
 62
    7
 10
52.808866758604324
 20
100.60853700380068
 40
0.1651024093499055
  0
CIRCLE
  8
_1-0_
  6
CONTINUOUS
 62
    7
 10
50.722766566920939
 20
102.30556591137037
 40
0.1476736326475401
  0
CIRCLE
  8
_1-0_
  6
CONTINUOUS
 62
    7
 10
51.904152535103464
 20
103.19161080025339
 40
0.1476736326475401
  0
CIRCLE
  8
_1-0_
  6
CONTINUOUS
 62
    7
 10
52.790197423986484
 20
102.67474612674198
 40
0.1476736326475401
  0
CIRCLE
  8
_1-0_
  6
CONTINUOUS
 62
    7
 10
54.266930657464115
 20
102.97010267103042
 40
0.1476736326475401
  0
CIRCLE
  8
_1-0_
  6
CONTINUOUS
 62
    7
 10
55.173624399546043
 20
102.3081145415435
 40
0.1476736326475401
  0
CIRCLE
  8
_1-0_
  6
CONTINUOUS
 62
    7
 10
57.90558273727828
 20
104.00635590424409
 40
0.1651024093499055
  0
CIRCLE
  8
_1-0_
  6
CONTINUOUS
 62
    7
 10
57.093373891469582
 20
104.08019194731841
 40
0.1651024093499055
  0
CIRCLE
  8
_1-0_
  6
CONTINUOUS
 62
    7
 10
54.878274041253178
 20
104.44938453468117
 40
0.1651024093499055
  0
CIRCLE
  8
_1-0_
  6
CONTINUOUS
 62
    7
 10
53.770727209142734
 20
103.93251986116977
 40
0.1651024093499055
  0
CIRCLE
  8
_1-0_
  6
CONTINUOUS
 62
    7
 10
56.133499145507813
 20
102.82496684306378
 40
0.1651024093499055
  0
CIRCLE
  8
_1-0_
  6
CONTINUOUS
 62
    7
 10
54.047402046822214
 20
104.52199575063345
 40
0.1476736326475401
  0
CIRCLE
  8
_1-0_
  6
CONTINUOUS
 62
    7
 10
55.228791108002554
 20
105.40804063951647
 40
0.1476736326475401
  0
CIRCLE
  8
_1-0_
  6
CONTINUOUS
 62
    7
 10
56.114823624894427
 20
104.89117596600508
 40
0.1476736326475401
  0
CIRCLE
  8
_1-0_
  6
CONTINUOUS
 62
    7
 10
57.59155685837203
 20
105.1865325102935
 40
0.1476736326475401
  0
CIRCLE
  8
_1-0_
  6
CONTINUOUS
 62
    7
 10
60.714692811708204
 20
105.44803928684544
 40
0.1476736326475401
  0
CIRCLE
  8
_1-0_
  6
CONTINUOUS
 62
    7
 10
63.44665114944047
 20
107.14628064954604
 40
0.1651024093499055
  0
CIRCLE
  8
_1-0_
  6
CONTINUOUS
 62
    7
 10
62.634442303631772
 20
107.22011669262037
 40
0.1651024093499055
  0
CIRCLE
  8
_1-0_
  6
CONTINUOUS
 62
    7
 10
60.419342453415339
 20
107.58930927998311
 40
0.1651024093499055
  0
CIRCLE
  8
_1-0_
  6
CONTINUOUS
 62
    7
 10
59.311795621304896
 20
107.07244460647171
 40
0.1651024093499055
  0
CIRCLE
  8
_1-0_
  6
CONTINUOUS
 62
    7
 10
61.674567557669974
 20
105.96489158836572
 40
0.1651024093499055
  0
CIRCLE
  8
_1-0_
  6
CONTINUOUS
 62
    7
 10
65.218728555215364
 20
106.18639971758869
 40
0.1651024093499055
  0
CIRCLE
  8
_1-0_
  6
CONTINUOUS
 62
    7
 10
59.588470458984375
 20
107.66192049593539
 40
0.1476736326475401
  0
CIRCLE
  8
_1-0_
  6
CONTINUOUS
 62
    7
 10
60.769859520164687
 20
108.54796538481841
 40
0.1476736326475401
  0
CIRCLE
  8
_1-0_
  6
CONTINUOUS
 62
    7
 10
61.655892037056589
 20
108.03110071130702
 40
0.1476736326475401
  0
CIRCLE
  8
_1-0_
  6
CONTINUOUS
 62
    7
 10
63.13262527053422
 20
108.32645725559544
 40
0.1476736326475401
  0
CIRCLE
  8
_1-0_
  6
CONTINUOUS
 62
    7
 10
64.962838662637239
 20
107.29506621489654
 40
0.1476736326475401
  0
CIRCLE
  8
_1-0_
  6
CONTINUOUS
 62
    7
 10
67.694797000369533
 20
108.99330757759714
 40
0.1651024093499055
  0
CIRCLE
  8
_1-0_
  6
CONTINUOUS
 62
    7
 10
66.882588154560835
 20
109.06714362067146
 40
0.1651024093499055
  0
CIRCLE
  8
_1-0_
  6
CONTINUOUS
 62
    7
 10
64.667488304344374
 20
109.43633620803421
 40
0.1651024093499055
  0
CIRCLE
  8
_1-0_
  6
CONTINUOUS
 62
    7
 10
63.559941472233959
 20
108.91947153452281
 40
0.1651024093499055
  0
CIRCLE
  8
_1-0_
  6
CONTINUOUS
 62
    7
 10
65.922713408599037
 20
107.81191851641681
 40
0.1651024093499055
  0
CIRCLE
  8
_1-0_
  6
CONTINUOUS
 62
    7
 10
69.466874406144427
 20
108.03342664563979
 40
0.1651024093499055
  0
CIRCLE
  8
_1-0_
  6
CONTINUOUS
 62
    7
 10
63.836616309913438
 20
109.5089474239865
 40
0.1476736326475401
  0
CIRCLE
  8
_1-0_
  6
CONTINUOUS
 62
    7
 10
65.01800537109375
 20
110.39499231286952
 40
0.1476736326475401
  0
CIRCLE
  8
_1-0_
  6
CONTINUOUS
 62
    7
 10
65.904037887985652
 20
109.87812763935811
 40
0.1476736326475401
  0
CIRCLE
  8
_1-0_
  6
CONTINUOUS
 62
    7
 10
67.380771121463283
 20
110.17348418364654
 40
0.1476736326475401
  0
CIRCLE
  8
_1-0_
  6
CONTINUOUS
 62
    7
 10
72.166220175253386
 20
110.61970478779561
 40
0.1476736326475401
  0
CIRCLE
  8
_1-0_
  6
CONTINUOUS
 62
    7
 10
74.898178512985652
 20
112.31794615049621
 40
0.1651024093499055
  0
CIRCLE
  8
_1-0_
  6
CONTINUOUS
 62
    7
 10
74.085969667176926
 20
112.39178219357053
 40
0.1651024093499055
  0
CIRCLE
  8
_1-0_
  6
CONTINUOUS
 62
    7
 10
71.870869816960521
 20
112.76097478093328
 40
0.1651024093499055
  0
CIRCLE
  8
_1-0_
  6
CONTINUOUS
 62
    7
 10
70.763322984850106
 20
112.24411010742187
 40
0.1651024093499055
  0
CIRCLE
  8
_1-0_
  6
CONTINUOUS
 62
    7
 10
73.126094921215156
 20
111.13655708931589
 40
0.1651024093499055
  0
CIRCLE
  8
_1-0_
  6
CONTINUOUS
 62
    7
 10
76.670255918760574
 20
111.35806521853885
 40
0.1651024093499055
  0
CIRCLE
  8
_1-0_
  6
CONTINUOUS
 62
    7
 10
71.039997822529585
 20
112.83358599688556
 40
0.1476736326475401
  0
CIRCLE
  8
_1-0_
  6
CONTINUOUS
 62
    7
 10
72.221386883709897
 20
113.71963088576858
 40
0.1476736326475401
  0
CIRCLE
  8
_1-0_
  6
CONTINUOUS
 62
    7
 10
73.107419400601771
 20
113.20276621225719
 40
0.1476736326475401
  0
CIRCLE
  8
_1-0_
  6
CONTINUOUS
 62
    7
 10
74.584152634079402
 20
113.49812275654561
 40
0.1476736326475401
  0
CIRCLE
  8
_1-0_
  6
CONTINUOUS
 62
    7
 10
80.477810421505495
 20
113.0208360826647
 40
0.1476736326475401
  0
CIRCLE
  8
_1-0_
  6
CONTINUOUS
 62
    7
 10
83.209768759237761
 20
114.7190774453653
 40
0.1651024093499055
  0
CIRCLE
  8
_1-0_
  6
CONTINUOUS
 62
    7
 10
82.397559913429063
 20
114.79291348843962
 40
0.1651024093499055
  0
CIRCLE
  8
_1-0_
  6
CONTINUOUS
 62
    7
 10
80.182460063212631
 20
115.16210607580237
 40
0.1651024093499055
  0
CIRCLE
  8
_1-0_
  6
CONTINUOUS
 62
    7
 10
79.074913231102187
 20
114.64524140229096
 40
0.1651024093499055
  0
CIRCLE
  8
_1-0_
  6
CONTINUOUS
 62
    7
 10
81.437685167467293
 20
113.53768838418497
 40
0.1651024093499055
  0
CIRCLE
  8
_1-0_
  6
CONTINUOUS
 62
    7
 10
79.351588068781666
 20
115.23471729175465
 40
0.1476736326475401
  0
CIRCLE
  8
_1-0_
  6
CONTINUOUS
 62
    7
 10
80.532977129961978
 20
116.12076218063767
 40
0.1476736326475401
  0
CIRCLE
  8
_1-0_
  6
CONTINUOUS
 62
    7
 10
81.419009646853908
 20
115.60389750712628
 40
0.1476736326475401
  0
CIRCLE
  8
_1-0_
  6
CONTINUOUS
 62
    7
 10
82.895742880331511
 20
115.8992540514147
 40
0.1476736326475401
  0
CIRCLE
  8
_1-0_
  6
CONTINUOUS
 62
    7
 10
86.942386111697644
 20
116.34546228357264
 40
0.1476736326475401
  0
CIRCLE
  8
_1-0_
  6
CONTINUOUS
 62
    7
 10
89.67434444942991
 20
118.04370364627323
 40
0.1651024093499055
  0
CIRCLE
  8
_1-0_
  6
CONTINUOUS
 62
    7
 10
88.862135603621198
 20
118.11753968934755
 40
0.1651024093499055
  0
CIRCLE
  8
_1-0_
  6
CONTINUOUS
 62
    7
 10
86.647035753404779
 20
118.48673227671031
 40
0.1651024093499055
  0
CIRCLE
  8
_1-0_
  6
CONTINUOUS
 62
    7
 10
85.53948892129435
 20
117.96986760319891
 40
0.1651024093499055
  0
CIRCLE
  8
_1-0_
  6
CONTINUOUS
 62
    7
 10
87.902260857659428
 20
116.86231458509292
 40
0.1651024093499055
  0
CIRCLE
  8
_1-0_
  6
CONTINUOUS
 62
    7
 10
85.816163758973829
 20
118.55934349266259
 40
0.1476736326475401
  0
CIRCLE
  8
_1-0_
  6
CONTINUOUS
 62
    7
 10
86.997552820154141
 20
119.44538838154561
 40
0.1476736326475401
  0
CIRCLE
  8
_1-0_
  6
CONTINUOUS
 62
    7
 10
87.883585337046028
 20
118.92852370803421
 40
0.1476736326475401
  0
CIRCLE
  8
_1-0_
  6
CONTINUOUS
 62
    7
 10
89.36031857052366
 20
119.22388025232264
 40
0.1476736326475401
  0
CIRCLE
  8
_1-0_
  6
CONTINUOUS
 62
    7
 10
92.852845063080665
 20
120.03951613967483
 40
0.1476736326475401
  0
CIRCLE
  8
_1-0_
  6
CONTINUOUS
 62
    7
 10
95.58480340081293
 20
121.73775750237543
 40
0.1651024093499055
  0
CIRCLE
  8
_1-0_
  6
CONTINUOUS
 62
    7
 10
94.772606926995365
 20
121.81159354544975
 40
0.1651024093499055
  0
CIRCLE
  8
_1-0_
  6
CONTINUOUS
 62
    7
 10
92.557500890783373
 20
122.1807861328125
 40
0.1651024093499055
  0
CIRCLE
  8
_1-0_
  6
CONTINUOUS
 62
    7
 10
91.44994787267737
 20
121.66392145930111
 40
0.1651024093499055
  0
CIRCLE
  8
_1-0_
  6
CONTINUOUS
 62
    7
 10
93.812725995038008
 20
120.5563684411951
 40
0.1651024093499055
  0
CIRCLE
  8
_1-0_
  6
CONTINUOUS
 62
    7
 10
97.356893178578972
 20
120.77787657041809
 40
0.1651024093499055
  0
CIRCLE
  8
_1-0_
  6
CONTINUOUS
 62
    7
 10
91.72662271035685
 20
122.25339734876479
 40
0.1476736326475401
  0
CIRCLE
  8
_1-0_
  6
CONTINUOUS
 62
    7
 10
92.908011771537161
 20
123.13944223764781
 40
0.1476736326475401
  0
CIRCLE
  8
_1-0_
  6
CONTINUOUS
 62
    7
 10
93.794056660420196
 20
122.62257756413641
 40
0.1476736326475401
  0
CIRCLE
  8
_1-0_
  6
CONTINUOUS
 62
    7
 10
95.270789893897813
 20
122.91793410842484
 40
0.1476736326475401
  0
CIRCLE
  8
_1-0_
  6
CONTINUOUS
 62
    7
 10
97.470393825221706
 20
122.99473942937078
 40
0.1476736326475401
  0
CIRCLE
  8
_1-0_
  6
CONTINUOUS
 62
    7
 10
100.20235216295397
 20
124.69298079207138
 40
0.1651024093499055
  0
CIRCLE
  8
_1-0_
  6
CONTINUOUS
 62
    7
 10
99.390155689136407
 20
124.7668168351457
 40
0.1651024093499055
  0
CIRCLE
  8
_1-0_
  6
CONTINUOUS
 62
    7
 10
97.175049652924415
 20
125.13600942250845
 40
0.1651024093499055
  0
CIRCLE
  8
_1-0_
  6
CONTINUOUS
 62
    7
 10
96.067496634818411
 20
124.61914474899704
 40
0.1651024093499055
  0
CIRCLE
  8
_1-0_
  6
CONTINUOUS
 62
    7
 10
98.430274757179063
 20
123.51159173089106
 40
0.1651024093499055
  0
CIRCLE
  8
_1-0_
  6
CONTINUOUS
 62
    7
 10
101.97444194072003
 20
123.73309986011402
 40
0.1651024093499055
  0
CIRCLE
  8
_1-0_
  6
CONTINUOUS
 62
    7
 10
96.344171472497891
 20
125.20862063846073
 40
0.1476736326475401
  0
CIRCLE
  8
_1-0_
  6
CONTINUOUS
 62
    7
 10
97.525560533678217
 20
126.09466552734375
 40
0.1476736326475401
  0
CIRCLE
  8
_1-0_
  6
CONTINUOUS
 62
    7
 10
98.411605422561237
 20
125.57780085383236
 40
0.1476736326475401
  0
CIRCLE
  8
_1-0_
  6
CONTINUOUS
 62
    7
 10
99.888338656038854
 20
125.87315739812078
 40
0.1476736326475401
  0
CIRCLE
  8
_1-0_
  6
CONTINUOUS
 62
    7
 10
110.21484375
 20
128.35110638592695
 40
0.1476736326475401
  0
CIRCLE
  8
_1-0_
  6
CONTINUOUS
 62
    7
 10
112.94680208773227
 20
130.04934774862755
 40
0.1651024093499055
  0
CIRCLE
  8
_1-0_
  6
CONTINUOUS
 62
    7
 10
112.13459324192357
 20
130.12318379170188
 40
0.1651024093499055
  0
CIRCLE
  8
_1-0_
  6
CONTINUOUS
 62
    7
 10
109.91948720571158
 20
130.49237637906461
 40
0.1651024093499055
  0
CIRCLE
  8
_1-0_
  6
CONTINUOUS
 62
    7
 10
108.81193418760559
 20
129.9755117055532
 40
0.1651024093499055
  0
CIRCLE
  8
_1-0_
  6
CONTINUOUS
 62
    7
 10
111.17471230996622
 20
128.86795868744721
 40
0.1651024093499055
  0
CIRCLE
  8
_1-0_
  6
CONTINUOUS
 62
    7
 10
114.71887949350719
 20
129.08946681667018
 40
0.1651024093499055
  0
CIRCLE
  8
_1-0_
  6
CONTINUOUS
 62
    7
 10
109.08862139727619
 20
130.5649875950169
 40
0.1476736326475401
  0
CIRCLE
  8
_1-0_
  6
CONTINUOUS
 62
    7
 10
110.26999808646538
 20
131.45103248389992
 40
0.1476736326475401
  0
CIRCLE
  8
_1-0_
  6
CONTINUOUS
 62
    7
 10
111.1560429753484
 20
130.93416781038852
 40
0.1476736326475401
  0
CIRCLE
  8
_1-0_
  6
CONTINUOUS
 62
    7
 10
112.63277620882602
 20
131.22952435467695
 40
0.1476736326475401
  0
CIRCLE
  8
_1-0_
  6
CONTINUOUS
 62
    7
 10
90.636427595808698
 20
124.65706490181589
 40
0.1476736326475401
  0
CIRCLE
  8
_1-0_
  6
CONTINUOUS
 62
    7
 10
93.368385933540964
 20
126.35530626451647
 40
0.1651024093499055
  0
CIRCLE
  8
_1-0_
  6
CONTINUOUS
 62
    7
 10
92.556177087732266
 20
126.42914230759079
 40
0.1651024093499055
  0
CIRCLE
  8
_1-0_
  6
CONTINUOUS
 62
    7
 10
90.341077237515847
 20
126.79833489495356
 40
0.1651024093499055
  0
CIRCLE
  8
_1-0_
  6
CONTINUOUS
 62
    7
 10
89.233530405405403
 20
126.28147022144215
 40
0.1651024093499055
  0
CIRCLE
  8
_1-0_
  6
CONTINUOUS
 62
    7
 10
91.596302341770482
 20
125.17391720333616
 40
0.1651024093499055
  0
CIRCLE
  8
_1-0_
  6
CONTINUOUS
 62
    7
 10
95.140463339315886
 20
125.39542533255913
 40
0.1651024093499055
  0
CIRCLE
  8
_1-0_
  6
CONTINUOUS
 62
    7
 10
89.510205243084883
 20
126.87094611090583
 40
0.1476736326475401
  0
CIRCLE
  8
_1-0_
  6
CONTINUOUS
 62
    7
 10
90.691594304265209
 20
127.75699099978885
 40
0.1476736326475401
  0
CIRCLE
  8
_1-0_
  6
CONTINUOUS
 62
    7
 10
91.577626821157097
 20
127.24012632627746
 40
0.1476736326475401
  0
CIRCLE
  8
_1-0_
  6
CONTINUOUS
 62
    7
 10
93.054360054634714
 20
127.53548287056589
 40
0.1476736326475401
  0
CIRCLE
  8
_1-0_
  6
CONTINUOUS
 62
    7
 10
105.41258116026184
 20
125.76527363545186
 40
0.1476736326475401
  0
CIRCLE
  8
_1-0_
  6
CONTINUOUS
 62
    7
 10
108.14453949799409
 20
127.46351499815246
 40
0.1651024093499055
  0
CIRCLE
  8
_1-0_
  6
CONTINUOUS
 62
    7
 10
107.33234302417652
 20
127.53735104122678
 40
0.1651024093499055
  0
CIRCLE
  8
_1-0_
  6
CONTINUOUS
 62
    7
 10
105.11723698796453
 20
127.90654362858953
 40
0.1651024093499055
  0
CIRCLE
  8
_1-0_
  6
CONTINUOUS
 62
    7
 10
104.00969634184966
 20
127.38967895507812
 40
0.1651024093499055
  0
CIRCLE
  8
_1-0_
  6
CONTINUOUS
 62
    7
 10
106.37246209221918
 20
126.28212593697214
 40
0.1651024093499055
  0
CIRCLE
  8
_1-0_
  6
CONTINUOUS
 62
    7
 10
109.91662927576014
 20
126.5036340661951
 40
0.1651024093499055
  0
CIRCLE
  8
_1-0_
  6
CONTINUOUS
 62
    7
 10
104.28635880753801
 20
127.97915484454181
 40
0.1476736326475401
  0
CIRCLE
  8
_1-0_
  6
CONTINUOUS
 62
    7
 10
105.46776024070947
 20
128.86519973342484
 40
0.1476736326475401
  0
CIRCLE
  8
_1-0_
  6
CONTINUOUS
 62
    7
 10
106.35379275760135
 20
128.34833505991344
 40
0.1476736326475401
  0
CIRCLE
  8
_1-0_
  6
CONTINUOUS
 62
    7
 10
107.83052599107897
 20
128.64369160420188
 40
0.1476736326475401
  0
CIRCLE
  8
_1-0_
  6
CONTINUOUS
 62
    7
 10
119.63465510187923
 20
130.93693913640203
 40
0.1476736326475401
  0
CIRCLE
  8
_1-0_
  6
CONTINUOUS
 62
    7
 10
122.3666134396115
 20
132.63518049910263
 40
0.1651024093499055
  0
CIRCLE
  8
_1-0_
  6
CONTINUOUS
 62
    7
 10
121.5544045938028
 20
132.70901654217695
 40
0.1651024093499055
  0
CIRCLE
  8
_1-0_
  6
CONTINUOUS
 62
    7
 10
119.33929855759079
 20
133.07820912953972
 40
0.1651024093499055
  0
CIRCLE
  8
_1-0_
  6
CONTINUOUS
 62
    7
 10
118.23174553948481
 20
132.56134445602831
 40
0.1651024093499055
  0
CIRCLE
  8
_1-0_
  6
CONTINUOUS
 62
    7
 10
120.59452366184544
 20
131.45379143792229
 40
0.1651024093499055
  0
CIRCLE
  8
_1-0_
  6
CONTINUOUS
 62
    7
 10
124.13869084538641
 20
131.67529956714529
 40
0.1651024093499055
  0
CIRCLE
  8
_1-0_
  6
CONTINUOUS
 62
    7
 10
118.50843274915542
 20
133.15082034549198
 40
0.1476736326475401
  0
CIRCLE
  8
_1-0_
  6
CONTINUOUS
 62
    7
 10
119.6898094383446
 20
134.036865234375
 40
0.1476736326475401
  0
CIRCLE
  8
_1-0_
  6
CONTINUOUS
 62
    7
 10
120.57585432722763
 20
133.52000056086359
 40
0.1476736326475401
  0
CIRCLE
  8
_1-0_
  6
CONTINUOUS
 62
    7
 10
122.05258756070525
 20
133.81535710515203
 40
0.1476736326475401
  0
CIRCLE
  8
_1-0_
  6
CONTINUOUS
 62
    7
 10
124.25220386402027
 20
133.89216242609797
 40
0.1476736326475401
  0
CIRCLE
  8
_1-0_
  6
CONTINUOUS
 62
    7
 10
126.98416220175254
 20
135.59040378879857
 40
0.1651024093499055
  0
CIRCLE
  8
_1-0_
  6
CONTINUOUS
 62
    7
 10
126.17195335594384
 20
135.66423983187289
 40
0.1651024093499055
  0
CIRCLE
  8
_1-0_
  6
CONTINUOUS
 62
    7
 10
123.95684731973185
 20
136.03343241923565
 40
0.1651024093499055
  0
CIRCLE
  8
_1-0_
  6
CONTINUOUS
 62
    7
 10
122.84929430162585
 20
135.51656774572425
 40
0.1651024093499055
  0
CIRCLE
  8
_1-0_
  6
CONTINUOUS
 62
    7
 10
125.2120724239865
 20
134.40901472761826
 40
0.1651024093499055
  0
CIRCLE
  8
_1-0_
  6
CONTINUOUS
 62
    7
 10
128.75623960752745
 20
134.63052285684122
 40
0.1651024093499055
  0
CIRCLE
  8
_1-0_
  6
CONTINUOUS
 62
    7
 10
123.12598151129646
 20
136.10604363518792
 40
0.1476736326475401
  0
CIRCLE
  8
_1-0_
  6
CONTINUOUS
 62
    7
 10
124.30735820048565
 20
136.99208852407097
 40
0.1476736326475401
  0
CIRCLE
  8
_1-0_
  6
CONTINUOUS
 62
    7
 10
125.19340308936867
 20
136.47522385055956
 40
0.1476736326475401
  0
CIRCLE
  8
_1-0_
  6
CONTINUOUS
 62
    7
 10
126.67013632284629
 20
136.77058039484797
 40
0.1476736326475401
  0
CIRCLE
  8
_1-0_
  6
CONTINUOUS
 62
    7
 10
125.91452933646538
 20
136.66269663217906
 40
0.1476736326475401
  0
CIRCLE
  8
_1-0_
  6
CONTINUOUS
 62
    7
 10
128.64648767419763
 20
138.36093799487966
 40
0.1651024093499055
  0
CIRCLE
  8
_1-0_
  6
CONTINUOUS
 62
    7
 10
127.83427882838895
 20
138.43477403795399
 40
0.1651024093499055
  0
CIRCLE
  8
_1-0_
  6
CONTINUOUS
 62
    7
 10
125.61917279217695
 20
138.80396662531672
 40
0.1651024093499055
  0
CIRCLE
  8
_1-0_
  6
CONTINUOUS
 62
    7
 10
124.51161977407095
 20
138.28710195180534
 40
0.1651024093499055
  0
CIRCLE
  8
_1-0_
  6
CONTINUOUS
 62
    7
 10
126.87439789643159
 20
137.17954893369932
 40
0.1651024093499055
  0
CIRCLE
  8
_1-0_
  6
CONTINUOUS
 62
    7
 10
130.41856507997255
 20
137.40105706292229
 40
0.1651024093499055
  0
CIRCLE
  8
_1-0_
  6
CONTINUOUS
 62
    7
 10
124.78830698374156
 20
138.87657784126901
 40
0.1476736326475401
  0
CIRCLE
  8
_1-0_
  6
CONTINUOUS
 62
    7
 10
125.96968367293076
 20
139.76262273015203
 40
0.1476736326475401
  0
CIRCLE
  8
_1-0_
  6
CONTINUOUS
 62
    7
 10
126.85572856181378
 20
139.24575805664062
 40
0.1476736326475401
  0
CIRCLE
  8
_1-0_
  6
CONTINUOUS
 62
    7
 10
128.33246179529138
 20
139.54111460092906
 40
0.1476736326475401
  0
CIRCLE
  8
_1-0_
  6
CONTINUOUS
 62
    7
 10
134.22610721072635
 20
138.69442501583615
 40
0.1476736326475401
  0
CIRCLE
  8
_1-0_
  6
CONTINUOUS
 62
    7
 10
136.95806554845862
 20
140.39266637853675
 40
0.1651024093499055
  0
CIRCLE
  8
_1-0_
  6
CONTINUOUS
 62
    7
 10
136.14585670264992
 20
140.46650242161107
 40
0.1651024093499055
  0
CIRCLE
  8
_1-0_
  6
CONTINUOUS
 62
    7
 10
133.93075066643792
 20
140.83569500897383
 40
0.1651024093499055
  0
CIRCLE
  8
_1-0_
  6
CONTINUOUS
 62
    7
 10
132.82319764833193
 20
140.31883033546242
 40
0.1651024093499055
  0
CIRCLE
  8
_1-0_
  6
CONTINUOUS
 62
    7
 10
135.18597577069258
 20
139.21127731735643
 40
0.1651024093499055
  0
CIRCLE
  8
_1-0_
  6
CONTINUOUS
 62
    7
 10
138.73014295423354
 20
139.4327854465794
 40
0.1651024093499055
  0
CIRCLE
  8
_1-0_
  6
CONTINUOUS
 62
    7
 10
133.09988485800255
 20
140.90830622492609
 40
0.1476736326475401
  0
CIRCLE
  8
_1-0_
  6
CONTINUOUS
 62
    7
 10
134.28126154719172
 20
141.79435111380914
 40
0.1476736326475401
  0
CIRCLE
  8
_1-0_
  6
CONTINUOUS
 62
    7
 10
135.16730643607477
 20
141.27748644029774
 40
0.1476736326475401
  0
CIRCLE
  8
_1-0_
  6
CONTINUOUS
 62
    7
 10
136.64403966955237
 20
141.57284298458615
 40
0.1476736326475401
  0
CIRCLE
  8
_1-0_
  6
CONTINUOUS
 62
    7
 10
140.32129236169763
 20
141.46495922191724
 40
0.1476736326475401
  0
CIRCLE
  8
_1-0_
  6
CONTINUOUS
 62
    7
 10
143.0532506994299
 20
143.16320058461784
 40
0.1651024093499055
  0
CIRCLE
  8
_1-0_
  6
CONTINUOUS
 62
    7
 10
142.2410418536212
 20
143.23703662769216
 40
0.1651024093499055
  0
CIRCLE
  8
_1-0_
  6
CONTINUOUS
 62
    7
 10
140.02593581740922
 20
143.6062292150549
 40
0.1651024093499055
  0
CIRCLE
  8
_1-0_
  6
CONTINUOUS
 62
    7
 10
138.91838279930323
 20
143.08936454154352
 40
0.1651024093499055
  0
CIRCLE
  8
_1-0_
  6
CONTINUOUS
 62
    7
 10
141.28116092166385
 20
141.9818115234375
 40
0.1651024093499055
  0
CIRCLE
  8
_1-0_
  6
CONTINUOUS
 62
    7
 10
144.82532810520482
 20
142.20331965266047
 40
0.1651024093499055
  0
CIRCLE
  8
_1-0_
  6
CONTINUOUS
 62
    7
 10
139.19507000897383
 20
143.67884043100719
 40
0.1476736326475401
  0
CIRCLE
  8
_1-0_
  6
CONTINUOUS
 62
    7
 10
140.37644669816302
 20
144.56488531989021
 40
0.1476736326475401
  0
CIRCLE
  8
_1-0_
  6
CONTINUOUS
 62
    7
 10
141.26249158704604
 20
144.0480206463788
 40
0.1476736326475401
  0
CIRCLE
  8
_1-0_
  6
CONTINUOUS
 62
    7
 10
142.73922482052365
 20
144.34337719066724
 40
0.1476736326475401
  0
CIRCLE
  8
_1-0_
  6
CONTINUOUS
 62
    7
 10
147.70937532991977
 20
144.78958542282518
 40
0.1476736326475401
  0
CIRCLE
  8
_1-0_
  6
CONTINUOUS
 62
    7
 10
150.44133366765203
 20
146.48782678552575
 40
0.1651024093499055
  0
CIRCLE
  8
_1-0_
  6
CONTINUOUS
 62
    7
 10
149.62912482184333
 20
146.56166282860011
 40
0.1651024093499055
  0
CIRCLE
  8
_1-0_
  6
CONTINUOUS
 62
    7
 10
147.41401878563136
 20
146.93085541596284
 40
0.1651024093499055
  0
CIRCLE
  8
_1-0_
  6
CONTINUOUS
 62
    7
 10
146.30646576752534
 20
146.41399074245143
 40
0.1651024093499055
  0
CIRCLE
  8
_1-0_
  6
CONTINUOUS
 62
    7
 10
148.66924388988599
 20
145.30643772434544
 40
0.1651024093499055
  0
CIRCLE
  8
_1-0_
  6
CONTINUOUS
 62
    7
 10
152.21341107342695
 20
145.52794585356841
 40
0.1651024093499055
  0
CIRCLE
  8
_1-0_
  6
CONTINUOUS
 62
    7
 10
146.58315297719597
 20
147.00346663191513
 40
0.1476736326475401
  0
CIRCLE
  8
_1-0_
  6
CONTINUOUS
 62
    7
 10
147.76452966638513
 20
147.88951152079815
 40
0.1476736326475401
  0
CIRCLE
  8
_1-0_
  6
CONTINUOUS
 62
    7
 10
148.65057455526818
 20
147.37264684728675
 40
0.1476736326475401
  0
CIRCLE
  8
_1-0_
  6
CONTINUOUS
 62
    7
 10
150.12730778874578
 20
147.66800339157518
 40
0.1476736326475401
  0
CIRCLE
  8
_1-0_
  6
CONTINUOUS
 62
    7
 10
150.84928770323057
 20
146.82131380648227
 40
0.1476736326475401
  0
CIRCLE
  8
_1-0_
  6
CONTINUOUS
 62
    7
 10
153.58124604096284
 20
148.51955516918287
 40
0.1651024093499055
  0
CIRCLE
  8
_1-0_
  6
CONTINUOUS
 62
    7
 10
152.76904956714529
 20
148.59339121225719
 40
0.1651024093499055
  0
CIRCLE
  8
_1-0_
  6
CONTINUOUS
 62
    7
 10
150.55394353093328
 20
148.96258379961995
 40
0.1651024093499055
  0
CIRCLE
  8
_1-0_
  6
CONTINUOUS
 62
    7
 10
149.44640288481841
 20
148.44571912610854
 40
0.1651024093499055
  0
CIRCLE
  8
_1-0_
  6
CONTINUOUS
 62
    7
 10
151.80916863518794
 20
147.33816610800255
 40
0.1651024093499055
  0
CIRCLE
  8
_1-0_
  6
CONTINUOUS
 62
    7
 10
155.35333581872888
 20
147.55967423722552
 40
0.1651024093499055
  0
CIRCLE
  8
_1-0_
  6
CONTINUOUS
 62
    7
 10
149.72306535050677
 20
149.03519501557221
 40
0.1476736326475401
  0
CIRCLE
  8
_1-0_
  6
CONTINUOUS
 62
    7
 10
150.90446678367823
 20
149.92123990445523
 40
0.1476736326475401
  0
CIRCLE
  8
_1-0_
  6
CONTINUOUS
 62
    7
 10
151.7904993005701
 20
149.40437523094386
 40
0.1476736326475401
  0
CIRCLE
  8
_1-0_
  6
CONTINUOUS
 62
    7
 10
153.26723253404774
 20
149.69973177523227
 40
0.1476736326475401
  0
CIRCLE
  8
_1-0_
  6
CONTINUOUS
 62
    7
 10
167.28777911211995
 20
154.02468294710727
 40
0.1476736326475401
  0
CIRCLE
  8
_1-0_
  6
CONTINUOUS
 62
    7
 10
170.01973744985222
 20
155.72292430980787
 40
0.1651024093499055
  0
CIRCLE
  8
_1-0_
  6
CONTINUOUS
 62
    7
 10
169.20754097603464
 20
155.79676035288219
 40
0.1651024093499055
  0
CIRCLE
  8
_1-0_
  6
CONTINUOUS
 62
    7
 10
166.99243493982266
 20
156.16595294024495
 40
0.1651024093499055
  0
CIRCLE
  8
_1-0_
  6
CONTINUOUS
 62
    7
 10
165.88489429370779
 20
155.64908826673354
 40
0.1651024093499055
  0
CIRCLE
  8
_1-0_
  6
CONTINUOUS
 62
    7
 10
168.24766004407729
 20
154.54153524862755
 40
0.1651024093499055
  0
CIRCLE
  8
_1-0_
  6
CONTINUOUS
 62
    7
 10
171.79182722761826
 20
154.76304337785052
 40
0.1651024093499055
  0
CIRCLE
  8
_1-0_
  6
CONTINUOUS
 62
    7
 10
166.16155675939612
 20
156.23856415619721
 40
0.1476736326475401
  0
CIRCLE
  8
_1-0_
  6
CONTINUOUS
 62
    7
 10
167.34295819256758
 20
157.12460904508023
 40
0.1476736326475401
  0
CIRCLE
  8
_1-0_
  6
CONTINUOUS
 62
    7
 10
168.22899070945948
 20
156.60774437156886
 40
0.1476736326475401
  0
CIRCLE
  8
_1-0_
  6
CONTINUOUS
 62
    7
 10
169.70572394293708
 20
156.90310091585727
 40
0.1476736326475401
  0
CIRCLE
  8
_1-0_
  6
CONTINUOUS
 62
    7
 10
159.34560414907097
 20
151.43886256862331
 40
0.1476736326475401
  0
CIRCLE
  8
_1-0_
  6
CONTINUOUS
 62
    7
 10
162.07756248680323
 20
153.13710393132391
 40
0.1651024093499055
  0
CIRCLE
  8
_1-0_
  6
CONTINUOUS
 62
    7
 10
161.26535364099453
 20
153.21093997439823
 40
0.1651024093499055
  0
CIRCLE
  8
_1-0_
  6
CONTINUOUS
 62
    7
 10
159.05024760478253
 20
153.58013256176099
 40
0.1651024093499055
  0
CIRCLE
  8
_1-0_
  6
CONTINUOUS
 62
    7
 10
157.94269458667654
 20
153.06326788824958
 40
0.1651024093499055
  0
CIRCLE
  8
_1-0_
  6
CONTINUOUS
 62
    7
 10
160.30547270903716
 20
151.95571487014359
 40
0.1651024093499055
  0
CIRCLE
  8
_1-0_
  6
CONTINUOUS
 62
    7
 10
163.84963989257812
 20
152.17722299936656
 40
0.1651024093499055
  0
CIRCLE
  8
_1-0_
  6
CONTINUOUS
 62
    7
 10
158.21938179634714
 20
153.65274377771325
 40
0.1476736326475401
  0
CIRCLE
  8
_1-0_
  6
CONTINUOUS
 62
    7
 10
159.40075848553633
 20
154.5387886665963
 40
0.1476736326475401
  0
CIRCLE
  8
_1-0_
  6
CONTINUOUS
 62
    7
 10
160.28680337441935
 20
154.0219239930849
 40
0.1476736326475401
  0
CIRCLE
  8
_1-0_
  6
CONTINUOUS
 62
    7
 10
161.76353660789698
 20
154.31728053737331
 40
0.1476736326475401
  0
CIRCLE
  8
_1-0_
  6
CONTINUOUS
 62
    7
 10
176.89227954761404
 20
158.82694553684544
 40
0.1476736326475401
  0
CIRCLE
  8
_1-0_
  6
CONTINUOUS
 62
    7
 10
179.6242378853463
 20
160.52518689954604
 40
0.1651024093499055
  0
CIRCLE
  8
_1-0_
  6
CONTINUOUS
 62
    7
 10
178.81204141152872
 20
160.59902294262037
 40
0.1651024093499055
  0
CIRCLE
  8
_1-0_
  6
CONTINUOUS
 62
    7
 10
176.59693537531675
 20
160.96821552998313
 40
0.1651024093499055
  0
CIRCLE
  8
_1-0_
  6
CONTINUOUS
 62
    7
 10
175.48939472920188
 20
160.45135085647172
 40
0.1651024093499055
  0
CIRCLE
  8
_1-0_
  6
CONTINUOUS
 62
    7
 10
177.85216047957138
 20
159.34379783836573
 40
0.1651024093499055
  0
CIRCLE
  8
_1-0_
  6
CONTINUOUS
 62
    7
 10
181.39632766311234
 20
159.5653059675887
 40
0.1651024093499055
  0
CIRCLE
  8
_1-0_
  6
CONTINUOUS
 62
    7
 10
175.76605719489021
 20
161.04082674593539
 40
0.1476736326475401
  0
CIRCLE
  8
_1-0_
  6
CONTINUOUS
 62
    7
 10
176.94745862806167
 20
161.92687163481841
 40
0.1476736326475401
  0
CIRCLE
  8
_1-0_
  6
CONTINUOUS
 62
    7
 10
177.83349114495357
 20
161.41000696130703
 40
0.1476736326475401
  0
CIRCLE
  8
_1-0_
  6
CONTINUOUS
 62
    7
 10
179.31022437843117
 20
161.70536350559544
 40
0.1476736326475401
  0
CIRCLE
  8
_1-0_
  6
CONTINUOUS
 62
    7
 10
181.69454213735222
 20
160.67396009290542
 40
0.1476736326475401
  0
CIRCLE
  8
_1-0_
  6
CONTINUOUS
 62
    7
 10
184.42650047508448
 20
162.37220145560602
 40
0.1651024093499055
  0
CIRCLE
  8
_1-0_
  6
CONTINUOUS
 62
    7
 10
183.61429162927578
 20
162.44603749868034
 40
0.1651024093499055
  0
CIRCLE
  8
_1-0_
  6
CONTINUOUS
 62
    7
 10
181.39918559306378
 20
162.81523008604307
 40
0.1651024093499055
  0
CIRCLE
  8
_1-0_
  6
CONTINUOUS
 62
    7
 10
180.29163257495779
 20
162.29836541253169
 40
0.1651024093499055
  0
CIRCLE
  8
_1-0_
  6
CONTINUOUS
 62
    7
 10
182.65441069731841
 20
161.19081239442568
 40
0.1651024093499055
  0
CIRCLE
  8
_1-0_
  6
CONTINUOUS
 62
    7
 10
186.19857788085937
 20
161.41232052364865
 40
0.1651024093499055
  0
CIRCLE
  8
_1-0_
  6
CONTINUOUS
 62
    7
 10
180.56831978462839
 20
162.88784130199537
 40
0.1476736326475401
  0
CIRCLE
  8
_1-0_
  6
CONTINUOUS
 62
    7
 10
181.74969647381758
 20
163.77388619087839
 40
0.1476736326475401
  0
CIRCLE
  8
_1-0_
  6
CONTINUOUS
 62
    7
 10
182.6357413627006
 20
163.25702151736698
 40
0.1476736326475401
  0
CIRCLE
  8
_1-0_
  6
CONTINUOUS
 62
    7
 10
184.11247459617823
 20
163.55237806165542
 40
0.1476736326475401
  0
CIRCLE
  8
_1-0_
  6
CONTINUOUS
 62
    7
 10
191.11435348923143
 20
165.10681977143159
 40
0.1476736326475401
  0
CIRCLE
  8
_1-0_
  6
CONTINUOUS
 62
    7
 10
193.8463118269637
 20
166.80506113413219
 40
0.1651024093499055
  0
CIRCLE
  8
_1-0_
  6
CONTINUOUS
 62
    7
 10
193.034102981155
 20
166.87889717720651
 40
0.1651024093499055
  0
CIRCLE
  8
_1-0_
  6
CONTINUOUS
 62
    7
 10
190.818996944943
 20
167.24808976456927
 40
0.1651024093499055
  0
CIRCLE
  8
_1-0_
  6
CONTINUOUS
 62
    7
 10
189.71144392683701
 20
166.73122509105787
 40
0.1651024093499055
  0
CIRCLE
  8
_1-0_
  6
CONTINUOUS
 62
    7
 10
192.07422204919766
 20
165.62367207295188
 40
0.1651024093499055
  0
CIRCLE
  8
_1-0_
  6
CONTINUOUS
 62
    7
 10
195.61838923273862
 20
165.84518020217484
 40
0.1651024093499055
  0
CIRCLE
  8
_1-0_
  6
CONTINUOUS
 62
    7
 10
189.9881311365076
 20
167.32070098052154
 40
0.1476736326475401
  0
CIRCLE
  8
_1-0_
  6
CONTINUOUS
 62
    7
 10
191.1695078256968
 20
168.20674586940456
 40
0.1476736326475401
  0
CIRCLE
  8
_1-0_
  6
CONTINUOUS
 62
    7
 10
192.05555271457982
 20
167.68988119589318
 40
0.1476736326475401
  0
CIRCLE
  8
_1-0_
  6
CONTINUOUS
 62
    7
 10
193.53228594805745
 20
167.98523774018159
 40
0.1476736326475401
  0
CIRCLE
  8
_1-0_
  6
CONTINUOUS
 62
    7
 10
198.31772262985643
 20
168.24674451673354
 40
0.1476736326475401
  0
CIRCLE
  8
_1-0_
  6
CONTINUOUS
 62
    7
 10
201.0496809675887
 20
169.94498587943414
 40
0.1651024093499055
  0
CIRCLE
  8
_1-0_
  6
CONTINUOUS
 62
    7
 10
200.23748449377112
 20
170.01882192250847
 40
0.1651024093499055
  0
CIRCLE
  8
_1-0_
  6
CONTINUOUS
 62
    7
 10
198.02237845755914
 20
170.3880145098712
 40
0.1651024093499055
  0
CIRCLE
  8
_1-0_
  6
CONTINUOUS
 62
    7
 10
196.91483781144427
 20
169.87114983635982
 40
0.1651024093499055
  0
CIRCLE
  8
_1-0_
  6
CONTINUOUS
 62
    7
 10
199.27760356181378
 20
168.7635968182538
 40
0.1651024093499055
  0
CIRCLE
  8
_1-0_
  6
CONTINUOUS
 62
    7
 10
202.82177074535474
 20
168.98510494747677
 40
0.1651024093499055
  0
CIRCLE
  8
_1-0_
  6
CONTINUOUS
 62
    7
 10
197.1915002771326
 20
170.46062572582349
 40
0.1476736326475401
  0
CIRCLE
  8
_1-0_
  6
CONTINUOUS
 62
    7
 10
198.37290171030406
 20
171.34667061470651
 40
0.1476736326475401
  0
CIRCLE
  8
_1-0_
  6
CONTINUOUS
 62
    7
 10
199.25893422719597
 20
170.8298059411951
 40
0.1476736326475401
  0
CIRCLE
  8
_1-0_
  6
CONTINUOUS
 62
    7
 10
200.73566746067357
 20
171.12516248548354
 40
0.1476736326475401
  0
CIRCLE
  8
_1-0_
  6
CONTINUOUS
 62
    7
 10
187.42029963312925
 20
162.15157173775339
 40
0.1476736326475401
  0
CIRCLE
  8
_1-0_
  6
CONTINUOUS
 62
    7
 10
190.15225797086148
 20
163.84981310045399
 40
0.1651024093499055
  0
CIRCLE
  8
_1-0_
  6
CONTINUOUS
 62
    7
 10
189.34006149704393
 20
163.92364914352831
 40
0.1651024093499055
  0
CIRCLE
  8
_1-0_
  6
CONTINUOUS
 62
    7
 10
187.12495546083193
 20
164.29284173089107
 40
0.1651024093499055
  0
CIRCLE
  8
_1-0_
  6
CONTINUOUS
 62
    7
 10
186.01741481471706
 20
163.77597705737966
 40
0.1651024093499055
  0
CIRCLE
  8
_1-0_
  6
CONTINUOUS
 62
    7
 10
188.38018056508659
 20
162.66842403927365
 40
0.1651024093499055
  0
CIRCLE
  8
_1-0_
  6
CONTINUOUS
 62
    7
 10
191.92434774862755
 20
162.88993216849664
 40
0.1651024093499055
  0
CIRCLE
  8
_1-0_
  6
CONTINUOUS
 62
    7
 10
186.29407728040542
 20
164.36545294684333
 40
0.1476736326475401
  0
CIRCLE
  8
_1-0_
  6
CONTINUOUS
 62
    7
 10
187.47547871357688
 20
165.25149783572635
 40
0.1476736326475401
  0
CIRCLE
  8
_1-0_
  6
CONTINUOUS
 62
    7
 10
188.36151123046875
 20
164.73463316221495
 40
0.1476736326475401
  0
CIRCLE
  8
_1-0_
  6
CONTINUOUS
 62
    7
 10
189.83824446394638
 20
165.02998970650339
 40
0.1476736326475401
  0
CIRCLE
  8
_1-0_
  6
CONTINUOUS
 62
    7
 10
171.90532787426099
 20
156.97991860879435
 40
0.1476736326475401
  0
CIRCLE
  8
_1-0_
  6
CONTINUOUS
 62
    7
 10
174.63728621199326
 20
158.67815997149495
 40
0.1651024093499055
  0
CIRCLE
  8
_1-0_
  6
CONTINUOUS
 62
    7
 10
173.82508973817568
 20
158.75199601456927
 40
0.1651024093499055
  0
CIRCLE
  8
_1-0_
  6
CONTINUOUS
 62
    7
 10
171.6099837019637
 20
159.121188601932
 40
0.1651024093499055
  0
CIRCLE
  8
_1-0_
  6
CONTINUOUS
 62
    7
 10
170.50244305584883
 20
158.60432392842063
 40
0.1651024093499055
  0
CIRCLE
  8
_1-0_
  6
CONTINUOUS
 62
    7
 10
172.86520880621833
 20
157.49677091031461
 40
0.1651024093499055
  0
CIRCLE
  8
_1-0_
  6
CONTINUOUS
 62
    7
 10
176.4093759897593
 20
157.71827903953761
 40
0.1651024093499055
  0
CIRCLE
  8
_1-0_
  6
CONTINUOUS
 62
    7
 10
170.77910552153716
 20
159.1937998178843
 40
0.1476736326475401
  0
CIRCLE
  8
_1-0_
  6
CONTINUOUS
 62
    7
 10
171.96050695470862
 20
160.07984470676732
 40
0.1476736326475401
  0
CIRCLE
  8
_1-0_
  6
CONTINUOUS
 62
    7
 10
172.84653947160052
 20
159.56298003325591
 40
0.1476736326475401
  0
CIRCLE
  8
_1-0_
  6
CONTINUOUS
 62
    7
 10
174.32327270507812
 20
159.85833657754435
 40
0.1476736326475401
  0
CIRCLE
  8
_1-0_
  6
CONTINUOUS
 62
    7
 10
214.44545436549834
 20
169.58184319573482
 40
0.1651024093499055
  0
CIRCLE
  8
_1-0_
  6
CONTINUOUS
 62
    7
 10
212.67338933171453
 20
168.62197463576859
 40
0.1651024093499055
  0
CIRCLE
  8
_1-0_
  6
CONTINUOUS
 62
    7
 10
209.7199228647593
 20
169.95102341110643
 40
0.1651024093499055
  0
CIRCLE
  8
_1-0_
  6
CONTINUOUS
 62
    7
 10
213.92583073796453
 20
167.59867487726984
 40
0.1476736326475401
  0
CIRCLE
  8
_1-0_
  6
CONTINUOUS
 62
    7
 10
211.71072470175255
 20
168.63239185230154
 40
0.1476736326475401
  0
CIRCLE
  8
_1-0_
  6
CONTINUOUS
 62
    7
 10
210.52932326858109
 20
169.51842436919341
 40
0.1476736326475401
  0
CIRCLE
  8
_1-0_
  6
CONTINUOUS
 62
    7
 10
213.48281447951859
 20
170.10912508577914
 40
0.1476736326475401
  0
CIRCLE
  8
_1-0_
  6
CONTINUOUS
 62
    7
 10
213.1874703072213
 20
170.18296112885346
 40
0.1476736326475401
  0
CIRCLE
  8
_1-0_
  6
CONTINUOUS
 62
    7
 10
208.683422191723
 20
171.58585831925677
 40
0.1476736326475401
  0
CIRCLE
  8
_1-0_
  6
CONTINUOUS
 62
    7
 10
209.86479888091216
 20
171.65969436233109
 40
0.1476736326475401
  0
CIRCLE
  8
_1-0_
  6
CONTINUOUS
 62
    7
 10
209.71712679476352
 20
170.84749788851352
 40
0.1476736326475401
  0
CIRCLE
  8
_1-0_
  6
CONTINUOUS
 62
    7
 10
207.87122571790542
 20
169.88761695655617
 40
0.1476736326475401
  0
CIRCLE
  8
_1-0_
  6
CONTINUOUS
 62
    7
 10
209.64329075168919
 20
169.00157206767315
 40
0.1476736326475401
  0
CIRCLE
  8
_1-0_
  6
CONTINUOUS
 62
    7
 10
208.16656989020271
 20
169.29691623997044
 40
0.1476736326475401
  0
CIRCLE
  8
_1-0_
  6
CONTINUOUS
 62
    7
 10
206.46831615551099
 20
170.33063321500211
 40
0.1476736326475401
  0
CIRCLE
  8
_1-0_
  6
CONTINUOUS
 62
    7
 10
207.79738967483109
 20
171.58585831925677
 40
0.1476736326475401
  0
CIRCLE
  8
_1-0_
  6
CONTINUOUS
 62
    7
 10
212.89427886138091
 20
168.4859322212838
 40
0.1651024093499055
  0
CIRCLE
  8
_1-0_
  6
CONTINUOUS
 62
    7
 10
213.94787762616133
 20
171.47188753695102
 40
0.1476736326475401
  0
CIRCLE
  8
_1-0_
  6
CONTINUOUS
 62
    7
 10
211.28978007548565
 20
171.84108012431378
 40
0.1476736326475401
  0
CIRCLE
  8
_1-0_
  6
CONTINUOUS
 62
    7
 10
213.06184510926943
 20
170.95503523543076
 40
0.1476736326475401
  0
CIRCLE
  8
_1-0_
  6
CONTINUOUS
 62
    7
 10
211.58512424778294
 20
171.25037940772805
 40
0.1476736326475401
  0
CIRCLE
  8
_1-0_
  6
CONTINUOUS
 62
    7
 10
209.88687051309122
 20
172.28409638275971
 40
0.1476736326475401
  0
CIRCLE
  8
_1-0_
  6
CONTINUOUS
 62
    7
 10
217.77163943728885
 20
166.25564575195312
 40
0.1651024093499055
  0
CIRCLE
  8
_1-0_
  6
CONTINUOUS
 62
    7
 10
215.99957440350508
 20
165.29577719198693
 40
0.1651024093499055
  0
CIRCLE
  8
_1-0_
  6
CONTINUOUS
 62
    7
 10
213.04610793654984
 20
166.62482596732477
 40
0.1651024093499055
  0
CIRCLE
  8
_1-0_
  6
CONTINUOUS
 62
    7
 10
217.25201580975508
 20
164.27247743348818
 40
0.1476736326475401
  0
CIRCLE
  8
_1-0_
  6
CONTINUOUS
 62
    7
 10
215.03690977354307
 20
165.30619440851984
 40
0.1476736326475401
  0
CIRCLE
  8
_1-0_
  6
CONTINUOUS
 62
    7
 10
213.85550834037164
 20
166.19222692541175
 40
0.1476736326475401
  0
CIRCLE
  8
_1-0_
  6
CONTINUOUS
 62
    7
 10
216.80899955130914
 20
166.78292764199747
 40
0.1476736326475401
  0
CIRCLE
  8
_1-0_
  6
CONTINUOUS
 62
    7
 10
216.51365537901182
 20
166.8567636850718
 40
0.1476736326475401
  0
CIRCLE
  8
_1-0_
  6
CONTINUOUS
 62
    7
 10
212.00960726351352
 20
168.25966087547511
 40
0.1476736326475401
  0
CIRCLE
  8
_1-0_
  6
CONTINUOUS
 62
    7
 10
213.19098395270271
 20
168.33349691854943
 40
0.1476736326475401
  0
CIRCLE
  8
_1-0_
  6
CONTINUOUS
 62
    7
 10
213.04331186655406
 20
167.52130044473185
 40
0.1476736326475401
  0
CIRCLE
  8
_1-0_
  6
CONTINUOUS
 62
    7
 10
211.19741078969597
 20
166.56141951277451
 40
0.1476736326475401
  0
CIRCLE
  8
_1-0_
  6
CONTINUOUS
 62
    7
 10
212.96947582347974
 20
165.67537462389149
 40
0.1476736326475401
  0
CIRCLE
  8
_1-0_
  6
CONTINUOUS
 62
    7
 10
211.49275496199326
 20
165.97071879618878
 40
0.1476736326475401
  0
CIRCLE
  8
_1-0_
  6
CONTINUOUS
 62
    7
 10
209.79450122730154
 20
167.00443577122044
 40
0.1476736326475401
  0
CIRCLE
  8
_1-0_
  6
CONTINUOUS
 62
    7
 10
211.12357474662164
 20
168.25966087547511
 40
0.1476736326475401
  0
CIRCLE
  8
_1-0_
  6
CONTINUOUS
 62
    7
 10
216.22046393317146
 20
165.15973477750211
 40
0.1651024093499055
  0
CIRCLE
  8
_1-0_
  6
CONTINUOUS
 62
    7
 10
217.27406269795188
 20
168.14569009316935
 40
0.1476736326475401
  0
CIRCLE
  8
_1-0_
  6
CONTINUOUS
 62
    7
 10
214.6159651472762
 20
168.51488268053211
 40
0.1476736326475401
  0
CIRCLE
  8
_1-0_
  6
CONTINUOUS
 62
    7
 10
216.38803018105997
 20
167.62883779164909
 40
0.1476736326475401
  0
CIRCLE
  8
_1-0_
  6
CONTINUOUS
 62
    7
 10
214.91130931957349
 20
167.92418196394638
 40
0.1476736326475401
  0
CIRCLE
  8
_1-0_
  6
CONTINUOUS
 62
    7
 10
213.21305558488177
 20
168.95789893897805
 40
0.1476736326475401
  0
CIRCLE
  8
_1-0_
  6
CONTINUOUS
 62
    7
 10
225.20668648384714
 20
163.32074964368667
 40
0.1651024093499055
  0
CIRCLE
  8
_1-0_
  6
CONTINUOUS
 62
    7
 10
223.43462145006336
 20
162.36088108372044
 40
0.1651024093499055
  0
CIRCLE
  8
_1-0_
  6
CONTINUOUS
 62
    7
 10
220.48115498310813
 20
163.68992985905828
 40
0.1651024093499055
  0
CIRCLE
  8
_1-0_
  6
CONTINUOUS
 62
    7
 10
224.68706285631336
 20
161.33758132522172
 40
0.1476736326475401
  0
CIRCLE
  8
_1-0_
  6
CONTINUOUS
 62
    7
 10
222.47195682010135
 20
162.37129830025339
 40
0.1476736326475401
  0
CIRCLE
  8
_1-0_
  6
CONTINUOUS
 62
    7
 10
221.29055538692992
 20
163.25733081714529
 40
0.1476736326475401
  0
CIRCLE
  8
_1-0_
  6
CONTINUOUS
 62
    7
 10
224.24404659786742
 20
163.84803153373102
 40
0.1476736326475401
  0
CIRCLE
  8
_1-0_
  6
CONTINUOUS
 62
    7
 10
223.9487024255701
 20
163.92186757680534
 40
0.1476736326475401
  0
CIRCLE
  8
_1-0_
  6
CONTINUOUS
 62
    7
 10
219.4446543100718
 20
165.32476476720862
 40
0.1476736326475401
  0
CIRCLE
  8
_1-0_
  6
CONTINUOUS
 62
    7
 10
220.62603099926099
 20
165.39860081028294
 40
0.1476736326475401
  0
CIRCLE
  8
_1-0_
  6
CONTINUOUS
 62
    7
 10
220.47835891311234
 20
164.58640433646539
 40
0.1476736326475401
  0
CIRCLE
  8
_1-0_
  6
CONTINUOUS
 62
    7
 10
218.63245783625425
 20
163.62652340450802
 40
0.1476736326475401
  0
CIRCLE
  8
_1-0_
  6
CONTINUOUS
 62
    7
 10
220.40452287003802
 20
162.740478515625
 40
0.1476736326475401
  0
CIRCLE
  8
_1-0_
  6
CONTINUOUS
 62
    7
 10
218.92780200855154
 20
163.03582268792232
 40
0.1476736326475401
  0
CIRCLE
  8
_1-0_
  6
CONTINUOUS
 62
    7
 10
217.22954827385982
 20
164.06953966295399
 40
0.1476736326475401
  0
CIRCLE
  8
_1-0_
  6
CONTINUOUS
 62
    7
 10
218.55862179317992
 20
165.32476476720862
 40
0.1476736326475401
  0
CIRCLE
  8
_1-0_
  6
CONTINUOUS
 62
    7
 10
223.65551097972974
 20
162.22483866923565
 40
0.1651024093499055
  0
CIRCLE
  8
_1-0_
  6
CONTINUOUS
 62
    7
 10
224.70910974451016
 20
165.21079398490289
 40
0.1476736326475401
  0
CIRCLE
  8
_1-0_
  6
CONTINUOUS
 62
    7
 10
222.05101219383448
 20
165.57998657226562
 40
0.1476736326475401
  0
CIRCLE
  8
_1-0_
  6
CONTINUOUS
 62
    7
 10
223.82307722761826
 20
164.6939416833826
 40
0.1476736326475401
  0
CIRCLE
  8
_1-0_
  6
CONTINUOUS
 62
    7
 10
222.34635636613177
 20
164.9892858556799
 40
0.1476736326475401
  0
CIRCLE
  8
_1-0_
  6
CONTINUOUS
 62
    7
 10
220.64810263144005
 20
166.02300283071159
 40
0.1476736326475401
  0
CIRCLE
  8
_1-0_
  6
CONTINUOUS
 62
    7
 10
231.85910611539276
 20
160.97284265466641
 40
0.1651024093499055
  0
CIRCLE
  8
_1-0_
  6
CONTINUOUS
 62
    7
 10
230.08704108160896
 20
160.01297409470018
 40
0.1651024093499055
  0
CIRCLE
  8
_1-0_
  6
CONTINUOUS
 62
    7
 10
227.13357461465372
 20
161.34202287003802
 40
0.1651024093499055
  0
CIRCLE
  8
_1-0_
  6
CONTINUOUS
 62
    7
 10
231.33948248785896
 20
158.98967433620143
 40
0.1476736326475401
  0
CIRCLE
  8
_1-0_
  6
CONTINUOUS
 62
    7
 10
229.12437645164698
 20
160.02339131123313
 40
0.1476736326475401
  0
CIRCLE
  8
_1-0_
  6
CONTINUOUS
 62
    7
 10
227.94297501847552
 20
160.909423828125
 40
0.1476736326475401
  0
CIRCLE
  8
_1-0_
  6
CONTINUOUS
 62
    7
 10
230.89646622941302
 20
161.50012454471073
 40
0.1476736326475401
  0
CIRCLE
  8
_1-0_
  6
CONTINUOUS
 62
    7
 10
230.60112205711573
 20
161.57396058778505
 40
0.1476736326475401
  0
CIRCLE
  8
_1-0_
  6
CONTINUOUS
 62
    7
 10
226.09707394161742
 20
162.97685777818836
 40
0.1476736326475401
  0
CIRCLE
  8
_1-0_
  6
CONTINUOUS
 62
    7
 10
227.27845063080659
 20
163.05069382126268
 40
0.1476736326475401
  0
CIRCLE
  8
_1-0_
  6
CONTINUOUS
 62
    7
 10
227.13077854465794
 20
162.2384973474451
 40
0.1476736326475401
  0
CIRCLE
  8
_1-0_
  6
CONTINUOUS
 62
    7
 10
225.28487746779984
 20
161.27861641548776
 40
0.1476736326475401
  0
CIRCLE
  8
_1-0_
  6
CONTINUOUS
 62
    7
 10
227.05694250158362
 20
160.39257152660474
 40
0.1476736326475401
  0
CIRCLE
  8
_1-0_
  6
CONTINUOUS
 62
    7
 10
225.58022164009714
 20
160.68791569890203
 40
0.1476736326475401
  0
CIRCLE
  8
_1-0_
  6
CONTINUOUS
 62
    7
 10
223.88196790540542
 20
161.7216326739337
 40
0.1476736326475401
  0
CIRCLE
  8
_1-0_
  6
CONTINUOUS
 62
    7
 10
225.21104142472552
 20
162.97685777818836
 40
0.1476736326475401
  0
CIRCLE
  8
_1-0_
  6
CONTINUOUS
 62
    7
 10
230.30793061127534
 20
159.87693168021539
 40
0.1651024093499055
  0
CIRCLE
  8
_1-0_
  6
CONTINUOUS
 62
    7
 10
231.36152937605576
 20
162.8628869958826
 40
0.1476736326475401
  0
CIRCLE
  8
_1-0_
  6
CONTINUOUS
 62
    7
 10
228.70343182538008
 20
163.23207958324537
 40
0.1476736326475401
  0
CIRCLE
  8
_1-0_
  6
CONTINUOUS
 62
    7
 10
230.47549685916385
 20
162.34603469436234
 40
0.1476736326475401
  0
CIRCLE
  8
_1-0_
  6
CONTINUOUS
 62
    7
 10
228.99877599767737
 20
162.64137886665964
 40
0.1476736326475401
  0
CIRCLE
  8
_1-0_
  6
CONTINUOUS
 62
    7
 10
227.30052226298565
 20
163.6750958416913
 40
0.1476736326475401
  0
CIRCLE
  8
_1-0_
  6
CONTINUOUS
 62
    7
 10
238.51150100295609
 20
157.45098217113599
 40
0.1651024093499055
  0
CIRCLE
  8
_1-0_
  6
CONTINUOUS
 62
    7
 10
236.73943596917232
 20
156.49111361116977
 40
0.1651024093499055
  0
CIRCLE
  8
_1-0_
  6
CONTINUOUS
 62
    7
 10
233.78596950221709
 20
157.8201623865076
 40
0.1651024093499055
  0
CIRCLE
  8
_1-0_
  6
CONTINUOUS
 62
    7
 10
237.99187737542232
 20
155.46781385267104
 40
0.1476736326475401
  0
CIRCLE
  8
_1-0_
  6
CONTINUOUS
 62
    7
 10
235.77677133921031
 20
156.50153082770271
 40
0.1476736326475401
  0
CIRCLE
  8
_1-0_
  6
CONTINUOUS
 62
    7
 10
234.59536990603885
 20
157.38756334459461
 40
0.1476736326475401
  0
CIRCLE
  8
_1-0_
  6
CONTINUOUS
 62
    7
 10
237.54886111697635
 20
157.97826406118034
 40
0.1476736326475401
  0
CIRCLE
  8
_1-0_
  6
CONTINUOUS
 62
    7
 10
237.25351694467906
 20
158.05210010425466
 40
0.1476736326475401
  0
CIRCLE
  8
_1-0_
  6
CONTINUOUS
 62
    7
 10
232.74946882918076
 20
159.45499729465794
 40
0.1476736326475401
  0
CIRCLE
  8
_1-0_
  6
CONTINUOUS
 62
    7
 10
233.93084551836995
 20
159.52883333773227
 40
0.1476736326475401
  0
CIRCLE
  8
_1-0_
  6
CONTINUOUS
 62
    7
 10
233.7831734322213
 20
158.71663686391472
 40
0.1476736326475401
  0
CIRCLE
  8
_1-0_
  6
CONTINUOUS
 62
    7
 10
231.93727235536318
 20
157.75675593195734
 40
0.1476736326475401
  0
CIRCLE
  8
_1-0_
  6
CONTINUOUS
 62
    7
 10
233.70933738914698
 20
156.87071104307432
 40
0.1476736326475401
  0
CIRCLE
  8
_1-0_
  6
CONTINUOUS
 62
    7
 10
232.2326165276605
 20
157.16605521537164
 40
0.1476736326475401
  0
CIRCLE
  8
_1-0_
  6
CONTINUOUS
 62
    7
 10
230.53436279296875
 20
158.19977219040331
 40
0.1476736326475401
  0
CIRCLE
  8
_1-0_
  6
CONTINUOUS
 62
    7
 10
231.86343631228885
 20
159.45499729465794
 40
0.1476736326475401
  0
CIRCLE
  8
_1-0_
  6
CONTINUOUS
 62
    7
 10
236.9603254988387
 20
156.35507119668497
 40
0.1651024093499055
  0
CIRCLE
  8
_1-0_
  6
CONTINUOUS
 62
    7
 10
238.01392426361909
 20
159.34102651235222
 40
0.1476736326475401
  0
CIRCLE
  8
_1-0_
  6
CONTINUOUS
 62
    7
 10
235.35582671294341
 20
159.71021909971495
 40
0.1476736326475401
  0
CIRCLE
  8
_1-0_
  6
CONTINUOUS
 62
    7
 10
237.12789174672722
 20
158.82417421083193
 40
0.1476736326475401
  0
CIRCLE
  8
_1-0_
  6
CONTINUOUS
 62
    7
 10
235.65117088524073
 20
159.11951838312922
 40
0.1476736326475401
  0
CIRCLE
  8
_1-0_
  6
CONTINUOUS
 62
    7
 10
233.95291715054901
 20
160.15323535816091
 40
0.1476736326475401
  0
CIRCLE
  8
_1-0_
  6
CONTINUOUS
 62
    7
 10
244.77259455500425
 20
153.34214494035052
 40
0.1651024093499055
  0
CIRCLE
  8
_1-0_
  6
CONTINUOUS
 62
    7
 10
243.00052952122044
 20
152.3822763803843
 40
0.1651024093499055
  0
CIRCLE
  8
_1-0_
  6
CONTINUOUS
 62
    7
 10
240.04706305426521
 20
153.71132515572214
 40
0.1651024093499055
  0
CIRCLE
  8
_1-0_
  6
CONTINUOUS
 62
    7
 10
244.25297092747044
 20
151.35897662188557
 40
0.1476736326475401
  0
CIRCLE
  8
_1-0_
  6
CONTINUOUS
 62
    7
 10
242.03786489125847
 20
152.39269359691724
 40
0.1476736326475401
  0
CIRCLE
  8
_1-0_
  6
CONTINUOUS
 62
    7
 10
240.85646345808701
 20
153.27872611380914
 40
0.1476736326475401
  0
CIRCLE
  8
_1-0_
  6
CONTINUOUS
 62
    7
 10
243.80995466902451
 20
153.86942683039484
 40
0.1476736326475401
  0
CIRCLE
  8
_1-0_
  6
CONTINUOUS
 62
    7
 10
243.51461049672722
 20
153.94326287346919
 40
0.1476736326475401
  0
CIRCLE
  8
_1-0_
  6
CONTINUOUS
 62
    7
 10
239.01056238122891
 20
155.34616006387247
 40
0.1476736326475401
  0
CIRCLE
  8
_1-0_
  6
CONTINUOUS
 62
    7
 10
240.1919390704181
 20
155.4199961069468
 40
0.1476736326475401
  0
CIRCLE
  8
_1-0_
  6
CONTINUOUS
 62
    7
 10
240.04426698426943
 20
154.60779963312922
 40
0.1476736326475401
  0
CIRCLE
  8
_1-0_
  6
CONTINUOUS
 62
    7
 10
238.19836590741133
 20
153.64791870117187
 40
0.1476736326475401
  0
CIRCLE
  8
_1-0_
  6
CONTINUOUS
 62
    7
 10
239.9704309411951
 20
152.76187381228885
 40
0.1476736326475401
  0
CIRCLE
  8
_1-0_
  6
CONTINUOUS
 62
    7
 10
238.49371007970862
 20
153.05721798458615
 40
0.1476736326475401
  0
CIRCLE
  8
_1-0_
  6
CONTINUOUS
 62
    7
 10
236.7954563450169
 20
154.09093495961784
 40
0.1476736326475401
  0
CIRCLE
  8
_1-0_
  6
CONTINUOUS
 62
    7
 10
238.12452986433701
 20
155.34616006387247
 40
0.1476736326475401
  0
CIRCLE
  8
_1-0_
  6
CONTINUOUS
 62
    7
 10
243.22141905088685
 20
152.24623396589951
 40
0.1651024093499055
  0
CIRCLE
  8
_1-0_
  6
CONTINUOUS
 62
    7
 10
244.27501781566724
 20
155.23218928156672
 40
0.1476736326475401
  0
CIRCLE
  8
_1-0_
  6
CONTINUOUS
 62
    7
 10
241.61692026499156
 20
155.60138186892948
 40
0.1476736326475401
  0
CIRCLE
  8
_1-0_
  6
CONTINUOUS
 62
    7
 10
243.38898529877534
 20
154.71533698004646
 40
0.1476736326475401
  0
CIRCLE
  8
_1-0_
  6
CONTINUOUS
 62
    7
 10
241.91226443728885
 20
155.01068115234375
 40
0.1476736326475401
  0
CIRCLE
  8
_1-0_
  6
CONTINUOUS
 62
    7
 10
240.21401070259714
 20
156.04439812737544
 40
0.1476736326475401
  0
CIRCLE
  8
_1-0_
  6
CONTINUOUS
 62
    7
 10
253.77289643158784
 20
153.14648190060177
 40
0.1651024093499055
  0
CIRCLE
  8
_1-0_
  6
CONTINUOUS
 62
    7
 10
252.00083139780406
 20
152.18661334063557
 40
0.1651024093499055
  0
CIRCLE
  8
_1-0_
  6
CONTINUOUS
 62
    7
 10
249.04736493084883
 20
153.51566211597341
 40
0.1651024093499055
  0
CIRCLE
  8
_1-0_
  6
CONTINUOUS
 62
    7
 10
253.25327280405406
 20
151.16331358213682
 40
0.1476736326475401
  0
CIRCLE
  8
_1-0_
  6
CONTINUOUS
 62
    7
 10
251.03816676784209
 20
152.19703055716852
 40
0.1476736326475401
  0
CIRCLE
  8
_1-0_
  6
CONTINUOUS
 62
    7
 10
249.85676533467063
 20
153.08306307406039
 40
0.1476736326475401
  0
CIRCLE
  8
_1-0_
  6
CONTINUOUS
 62
    7
 10
252.81025654560813
 20
153.67376379064612
 40
0.1476736326475401
  0
CIRCLE
  8
_1-0_
  6
CONTINUOUS
 62
    7
 10
252.51491237331084
 20
153.74759983372044
 40
0.1476736326475401
  0
CIRCLE
  8
_1-0_
  6
CONTINUOUS
 62
    7
 10
248.0108642578125
 20
155.15049702412375
 40
0.1476736326475401
  0
CIRCLE
  8
_1-0_
  6
CONTINUOUS
 62
    7
 10
249.19224094700169
 20
155.22433306719807
 40
0.1476736326475401
  0
CIRCLE
  8
_1-0_
  6
CONTINUOUS
 62
    7
 10
249.04456886085305
 20
154.4121365933805
 40
0.1476736326475401
  0
CIRCLE
  8
_1-0_
  6
CONTINUOUS
 62
    7
 10
247.19866778399495
 20
153.45225566142315
 40
0.1476736326475401
  0
CIRCLE
  8
_1-0_
  6
CONTINUOUS
 62
    7
 10
248.97073281777872
 20
152.56621077254013
 40
0.1476736326475401
  0
CIRCLE
  8
_1-0_
  6
CONTINUOUS
 62
    7
 10
247.49401195629224
 20
152.86155494483742
 40
0.1476736326475401
  0
CIRCLE
  8
_1-0_
  6
CONTINUOUS
 62
    7
 10
245.79575822160052
 20
153.89527191986909
 40
0.1476736326475401
  0
CIRCLE
  8
_1-0_
  6
CONTINUOUS
 62
    7
 10
247.12483174092063
 20
155.15049702412375
 40
0.1476736326475401
  0
CIRCLE
  8
_1-0_
  6
CONTINUOUS
 62
    7
 10
252.22172092747044
 20
152.05057092615075
 40
0.1651024093499055
  0
CIRCLE
  8
_1-0_
  6
CONTINUOUS
 62
    7
 10
253.27531969225086
 20
155.036526241818
 40
0.1476736326475401
  0
CIRCLE
  8
_1-0_
  6
CONTINUOUS
 62
    7
 10
250.61722214157518
 20
155.40571882918076
 40
0.1476736326475401
  0
CIRCLE
  8
_1-0_
  6
CONTINUOUS
 62
    7
 10
252.38928717535896
 20
154.51967394029774
 40
0.1476736326475401
  0
CIRCLE
  8
_1-0_
  6
CONTINUOUS
 62
    7
 10
250.91256631387247
 20
154.81501811259503
 40
0.1476736326475401
  0
CIRCLE
  8
_1-0_
  6
CONTINUOUS
 62
    7
 10
249.21431257918076
 20
155.84873508762669
 40
0.1476736326475401
  0
CIRCLE
  8
_1-0_
  6
CONTINUOUS
 62
    7
 10
256.90345557960308
 20
149.8202844568201
 40
0.1651024093499055
  0
CIRCLE
  8
_1-0_
  6
CONTINUOUS
 62
    7
 10
255.13139054581927
 20
148.86041589685388
 40
0.1651024093499055
  0
CIRCLE
  8
_1-0_
  6
CONTINUOUS
 62
    7
 10
252.17792407886404
 20
150.18946467219172
 40
0.1651024093499055
  0
CIRCLE
  8
_1-0_
  6
CONTINUOUS
 62
    7
 10
256.38383195206927
 20
147.83711613835516
 40
0.1476736326475401
  0
CIRCLE
  8
_1-0_
  6
CONTINUOUS
 62
    7
 10
254.16872591585727
 20
148.87083311338682
 40
0.1476736326475401
  0
CIRCLE
  8
_1-0_
  6
CONTINUOUS
 62
    7
 10
252.98732448268584
 20
149.75686563027872
 40
0.1476736326475401
  0
CIRCLE
  8
_1-0_
  6
CONTINUOUS
 62
    7
 10
255.94081569362334
 20
150.34756634686445
 40
0.1476736326475401
  0
CIRCLE
  8
_1-0_
  6
CONTINUOUS
 62
    7
 10
255.64547152132602
 20
150.42140238993878
 40
0.1476736326475401
  0
CIRCLE
  8
_1-0_
  6
CONTINUOUS
 62
    7
 10
251.14142340582771
 20
151.82429958034206
 40
0.1476736326475401
  0
CIRCLE
  8
_1-0_
  6
CONTINUOUS
 62
    7
 10
252.3228000950169
 20
151.89813562341638
 40
0.1476736326475401
  0
CIRCLE
  8
_1-0_
  6
CONTINUOUS
 62
    7
 10
252.17512800886826
 20
151.08593914959883
 40
0.1476736326475401
  0
CIRCLE
  8
_1-0_
  6
CONTINUOUS
 62
    7
 10
250.32922693201016
 20
150.12605821764149
 40
0.1476736326475401
  0
CIRCLE
  8
_1-0_
  6
CONTINUOUS
 62
    7
 10
252.10129196579393
 20
149.24001332875847
 40
0.1476736326475401
  0
CIRCLE
  8
_1-0_
  6
CONTINUOUS
 62
    7
 10
250.62457110430745
 20
149.53535750105576
 40
0.1476736326475401
  0
CIRCLE
  8
_1-0_
  6
CONTINUOUS
 62
    7
 10
248.92631736961573
 20
150.56907447608742
 40
0.1476736326475401
  0
CIRCLE
  8
_1-0_
  6
CONTINUOUS
 62
    7
 10
250.25539088893584
 20
151.82429958034206
 40
0.1476736326475401
  0
CIRCLE
  8
_1-0_
  6
CONTINUOUS
 62
    7
 10
255.35228007548565
 20
148.72437348236909
 40
0.1651024093499055
  0
CIRCLE
  8
_1-0_
  6
CONTINUOUS
 62
    7
 10
256.40587884026604
 20
151.71032879803633
 40
0.1476736326475401
  0
CIRCLE
  8
_1-0_
  6
CONTINUOUS
 62
    7
 10
253.74778128959039
 20
152.07952138539909
 40
0.1476736326475401
  0
CIRCLE
  8
_1-0_
  6
CONTINUOUS
 62
    7
 10
255.51984632337417
 20
151.19347649651607
 40
0.1476736326475401
  0
CIRCLE
  8
_1-0_
  6
CONTINUOUS
 62
    7
 10
254.04312546188768
 20
151.48882066881336
 40
0.1476736326475401
  0
CIRCLE
  8
_1-0_
  6
CONTINUOUS
 62
    7
 10
252.34487172719597
 20
152.52253764384503
 40
0.1476736326475401
  0
CIRCLE
  8
_1-0_
  6
CONTINUOUS
 62
    7
 10
272.3605016759924
 20
142.18958674250422
 40
0.1651024093499055
  0
CIRCLE
  8
_1-0_
  6
CONTINUOUS
 62
    7
 10
270.58843664220865
 20
141.22971818253802
 40
0.1651024093499055
  0
CIRCLE
  8
_1-0_
  6
CONTINUOUS
 62
    7
 10
267.63497017525339
 20
142.55876695787586
 40
0.1651024093499055
  0
CIRCLE
  8
_1-0_
  6
CONTINUOUS
 62
    7
 10
271.84087804845865
 20
140.20641842403927
 40
0.1476736326475401
  0
CIRCLE
  8
_1-0_
  6
CONTINUOUS
 62
    7
 10
269.62577201224661
 20
141.24013539907097
 40
0.1476736326475401
  0
CIRCLE
  8
_1-0_
  6
CONTINUOUS
 62
    7
 10
268.44437057907521
 20
142.12616791596284
 40
0.1476736326475401
  0
CIRCLE
  8
_1-0_
  6
CONTINUOUS
 62
    7
 10
271.39786179001271
 20
142.71686863254857
 40
0.1476736326475401
  0
CIRCLE
  8
_1-0_
  6
CONTINUOUS
 62
    7
 10
271.10251761771536
 20
142.79070467562289
 40
0.1476736326475401
  0
CIRCLE
  8
_1-0_
  6
CONTINUOUS
 62
    7
 10
266.59846950221709
 20
144.1936018660262
 40
0.1476736326475401
  0
CIRCLE
  8
_1-0_
  6
CONTINUOUS
 62
    7
 10
267.77984619140625
 20
144.26743790910052
 40
0.1476736326475401
  0
CIRCLE
  8
_1-0_
  6
CONTINUOUS
 62
    7
 10
267.6321741052576
 20
143.45524143528294
 40
0.1476736326475401
  0
CIRCLE
  8
_1-0_
  6
CONTINUOUS
 62
    7
 10
265.78627302839953
 20
142.4953605033256
 40
0.1476736326475401
  0
CIRCLE
  8
_1-0_
  6
CONTINUOUS
 62
    7
 10
267.55833806218328
 20
141.60931561444258
 40
0.1476736326475401
  0
CIRCLE
  8
_1-0_
  6
CONTINUOUS
 62
    7
 10
266.08161720069683
 20
141.90465978673987
 40
0.1476736326475401
  0
CIRCLE
  8
_1-0_
  6
CONTINUOUS
 62
    7
 10
264.38336346600511
 20
142.93837676177154
 40
0.1476736326475401
  0
CIRCLE
  8
_1-0_
  6
CONTINUOUS
 62
    7
 10
265.71243698532521
 20
144.1936018660262
 40
0.1476736326475401
  0
CIRCLE
  8
_1-0_
  6
CONTINUOUS
 62
    7
 10
270.809326171875
 20
141.09367576805323
 40
0.1651024093499055
  0
CIRCLE
  8
_1-0_
  6
CONTINUOUS
 62
    7
 10
271.86292493665542
 20
144.07963108372044
 40
0.1476736326475401
  0
CIRCLE
  8
_1-0_
  6
CONTINUOUS
 62
    7
 10
269.20482738597974
 20
144.4488236710832
 40
0.1476736326475401
  0
CIRCLE
  8
_1-0_
  6
CONTINUOUS
 62
    7
 10
270.97689241976354
 20
143.56277878220018
 40
0.1476736326475401
  0
CIRCLE
  8
_1-0_
  6
CONTINUOUS
 62
    7
 10
269.50017155827703
 20
143.85812295449747
 40
0.1476736326475401
  0
CIRCLE
  8
_1-0_
  6
CONTINUOUS
 62
    7
 10
267.80191782358531
 20
144.89183992952914
 40
0.1476736326475401
  0
CIRCLE
  8
_1-0_
  6
CONTINUOUS
 62
    7
 10
262.18624630489865
 20
147.47237746779984
 40
0.1651024093499055
  0
CIRCLE
  8
_1-0_
  6
CONTINUOUS
 62
    7
 10
260.4141812711149
 20
146.51250890783362
 40
0.1651024093499055
  0
CIRCLE
  8
_1-0_
  6
CONTINUOUS
 62
    7
 10
257.46071480415964
 20
147.84155768317146
 40
0.1651024093499055
  0
CIRCLE
  8
_1-0_
  6
CONTINUOUS
 62
    7
 10
261.6666226773649
 20
145.4892091493349
 40
0.1476736326475401
  0
CIRCLE
  8
_1-0_
  6
CONTINUOUS
 62
    7
 10
259.45151664115286
 20
146.52292612436656
 40
0.1476736326475401
  0
CIRCLE
  8
_1-0_
  6
CONTINUOUS
 62
    7
 10
258.27011520798141
 20
147.40895864125847
 40
0.1476736326475401
  0
CIRCLE
  8
_1-0_
  6
CONTINUOUS
 62
    7
 10
261.22360641891891
 20
147.99965935784419
 40
0.1476736326475401
  0
CIRCLE
  8
_1-0_
  6
CONTINUOUS
 62
    7
 10
260.92826224662161
 20
148.07349540091852
 40
0.1476736326475401
  0
CIRCLE
  8
_1-0_
  6
CONTINUOUS
 62
    7
 10
256.42421413112334
 20
149.4763925913218
 40
0.1476736326475401
  0
CIRCLE
  8
_1-0_
  6
CONTINUOUS
 62
    7
 10
257.6055908203125
 20
149.55022863439612
 40
0.1476736326475401
  0
CIRCLE
  8
_1-0_
  6
CONTINUOUS
 62
    7
 10
257.45791873416385
 20
148.73803216057857
 40
0.1476736326475401
  0
CIRCLE
  8
_1-0_
  6
CONTINUOUS
 62
    7
 10
255.61201765730576
 20
147.7781512286212
 40
0.1476736326475401
  0
CIRCLE
  8
_1-0_
  6
CONTINUOUS
 62
    7
 10
257.38408269108953
 20
146.89210633973818
 40
0.1476736326475401
  0
CIRCLE
  8
_1-0_
  6
CONTINUOUS
 62
    7
 10
255.90736182960305
 20
147.18745051203547
 40
0.1476736326475401
  0
CIRCLE
  8
_1-0_
  6
CONTINUOUS
 62
    7
 10
254.20910809491133
 20
148.22116748706716
 40
0.1476736326475401
  0
CIRCLE
  8
_1-0_
  6
CONTINUOUS
 62
    7
 10
255.53818161423143
 20
149.4763925913218
 40
0.1476736326475401
  0
CIRCLE
  8
_1-0_
  6
CONTINUOUS
 62
    7
 10
260.63507080078125
 20
146.37646649334883
 40
0.1651024093499055
  0
CIRCLE
  8
_1-0_
  6
CONTINUOUS
 62
    7
 10
261.68866956556167
 20
149.36242180901607
 40
0.1476736326475401
  0
CIRCLE
  8
_1-0_
  6
CONTINUOUS
 62
    7
 10
259.03057201488599
 20
149.7316143963788
 40
0.1476736326475401
  0
CIRCLE
  8
_1-0_
  6
CONTINUOUS
 62
    7
 10
260.80263704866979
 20
148.84556950749578
 40
0.1476736326475401
  0
CIRCLE
  8
_1-0_
  6
CONTINUOUS
 62
    7
 10
259.32591618718328
 20
149.14091367979307
 40
0.1476736326475401
  0
CIRCLE
  8
_1-0_
  6
CONTINUOUS
 62
    7
 10
257.62766245249156
 20
150.17463065482477
 40
0.1476736326475401
  0
CIRCLE
  8
_1-0_
  6
CONTINUOUS
 62
    7
 10
282.14345571157094
 20
138.86338929872255
 40
0.1651024093499055
  0
CIRCLE
  8
_1-0_
  6
CONTINUOUS
 62
    7
 10
280.37139067778719
 20
137.90352073875636
 40
0.1651024093499055
  0
CIRCLE
  8
_1-0_
  6
CONTINUOUS
 62
    7
 10
277.41792421083193
 20
139.23256951409417
 40
0.1651024093499055
  0
CIRCLE
  8
_1-0_
  6
CONTINUOUS
 62
    7
 10
281.62383208403719
 20
136.8802209802576
 40
0.1476736326475401
  0
CIRCLE
  8
_1-0_
  6
CONTINUOUS
 62
    7
 10
279.40872604782521
 20
137.91393795528927
 40
0.1476736326475401
  0
CIRCLE
  8
_1-0_
  6
CONTINUOUS
 62
    7
 10
278.22732461465375
 20
138.79997047218117
 40
0.1476736326475401
  0
CIRCLE
  8
_1-0_
  6
CONTINUOUS
 62
    7
 10
281.18081582559125
 20
139.3906711887669
 40
0.1476736326475401
  0
CIRCLE
  8
_1-0_
  6
CONTINUOUS
 62
    7
 10
280.88547165329396
 20
139.46450723184122
 40
0.1476736326475401
  0
CIRCLE
  8
_1-0_
  6
CONTINUOUS
 62
    7
 10
276.38142353779563
 20
140.8674044222445
 40
0.1476736326475401
  0
CIRCLE
  8
_1-0_
  6
CONTINUOUS
 62
    7
 10
277.56280022698479
 20
140.94124046531886
 40
0.1476736326475401
  0
CIRCLE
  8
_1-0_
  6
CONTINUOUS
 62
    7
 10
277.41512814083615
 20
140.12904399150128
 40
0.1476736326475401
  0
CIRCLE
  8
_1-0_
  6
CONTINUOUS
 62
    7
 10
275.56922706397808
 20
139.16916305954393
 40
0.1476736326475401
  0
CIRCLE
  8
_1-0_
  6
CONTINUOUS
 62
    7
 10
277.34129209776182
 20
138.28311817066091
 40
0.1476736326475401
  0
CIRCLE
  8
_1-0_
  6
CONTINUOUS
 62
    7
 10
275.86457123627537
 20
138.5784623429582
 40
0.1476736326475401
  0
CIRCLE
  8
_1-0_
  6
CONTINUOUS
 62
    7
 10
274.16631750158365
 20
139.61217931798987
 40
0.1476736326475401
  0
CIRCLE
  8
_1-0_
  6
CONTINUOUS
 62
    7
 10
275.49539102090375
 20
140.8674044222445
 40
0.1476736326475401
  0
CIRCLE
  8
_1-0_
  6
CONTINUOUS
 62
    7
 10
280.59228020745354
 20
137.76747832427154
 40
0.1651024093499055
  0
CIRCLE
  8
_1-0_
  6
CONTINUOUS
 62
    7
 10
281.64587897223396
 20
140.75343363993878
 40
0.1476736326475401
  0
CIRCLE
  8
_1-0_
  6
CONTINUOUS
 62
    7
 10
278.98778142155828
 20
141.12262622730154
 40
0.1476736326475401
  0
CIRCLE
  8
_1-0_
  6
CONTINUOUS
 62
    7
 10
280.75984645534209
 20
140.23658133841852
 40
0.1476736326475401
  0
CIRCLE
  8
_1-0_
  6
CONTINUOUS
 62
    7
 10
279.28312559385557
 20
140.53192551071581
 40
0.1476736326475401
  0
CIRCLE
  8
_1-0_
  6
CONTINUOUS
 62
    7
 10
277.58487185916385
 20
141.56564248574747
 40
0.1476736326475401
  0
CIRCLE
  8
_1-0_
  6
CONTINUOUS
 62
    7
 10
275.68671149176521
 20
142.58090045001057
 40
0.1651024093499055
  0
CIRCLE
  8
_1-0_
  6
CONTINUOUS
 62
    7
 10
273.91464645798146
 20
141.62103189004435
 40
0.1651024093499055
  0
CIRCLE
  8
_1-0_
  6
CONTINUOUS
 62
    7
 10
270.9611799910262
 20
142.95008066538219
 40
0.1651024093499055
  0
CIRCLE
  8
_1-0_
  6
CONTINUOUS
 62
    7
 10
275.16708786423146
 20
140.59773213154563
 40
0.1476736326475401
  0
CIRCLE
  8
_1-0_
  6
CONTINUOUS
 62
    7
 10
272.95198182801943
 20
141.63144910657729
 40
0.1476736326475401
  0
CIRCLE
  8
_1-0_
  6
CONTINUOUS
 62
    7
 10
271.77058039484797
 20
142.51748162346917
 40
0.1476736326475401
  0
CIRCLE
  8
_1-0_
  6
CONTINUOUS
 62
    7
 10
274.72407160578547
 20
143.1081823400549
 40
0.1476736326475401
  0
CIRCLE
  8
_1-0_
  6
CONTINUOUS
 62
    7
 10
274.42872743348818
 20
143.18201838312922
 40
0.1476736326475401
  0
CIRCLE
  8
_1-0_
  6
CONTINUOUS
 62
    7
 10
269.9246793179899
 20
144.58491557353253
 40
0.1476736326475401
  0
CIRCLE
  8
_1-0_
  6
CONTINUOUS
 62
    7
 10
271.10605600717906
 20
144.65875161660685
 40
0.1476736326475401
  0
CIRCLE
  8
_1-0_
  6
CONTINUOUS
 62
    7
 10
270.95838392103042
 20
143.84655514278927
 40
0.1476736326475401
  0
CIRCLE
  8
_1-0_
  6
CONTINUOUS
 62
    7
 10
269.11248284417229
 20
142.88667421083193
 40
0.1476736326475401
  0
CIRCLE
  8
_1-0_
  6
CONTINUOUS
 62
    7
 10
270.88454787795609
 20
142.00062932194891
 40
0.1476736326475401
  0
CIRCLE
  8
_1-0_
  6
CONTINUOUS
 62
    7
 10
269.40782701646958
 20
142.2959734942462
 40
0.1476736326475401
  0
CIRCLE
  8
_1-0_
  6
CONTINUOUS
 62
    7
 10
267.70957328177786
 20
143.32969046927789
 40
0.1476736326475401
  0
CIRCLE
  8
_1-0_
  6
CONTINUOUS
 62
    7
 10
269.03864680109797
 20
144.58491557353253
 40
0.1476736326475401
  0
CIRCLE
  8
_1-0_
  6
CONTINUOUS
 62
    7
 10
274.13553598764781
 20
141.48498947555956
 40
0.1651024093499055
  0
CIRCLE
  8
_1-0_
  6
CONTINUOUS
 62
    7
 10
275.18913475242823
 20
144.47094479122677
 40
0.1476736326475401
  0
CIRCLE
  8
_1-0_
  6
CONTINUOUS
 62
    7
 10
272.53103720175255
 20
144.84013737858953
 40
0.1476736326475401
  0
CIRCLE
  8
_1-0_
  6
CONTINUOUS
 62
    7
 10
274.30310223553636
 20
143.95409248970651
 40
0.1476736326475401
  0
CIRCLE
  8
_1-0_
  6
CONTINUOUS
 62
    7
 10
272.82638137404984
 20
144.2494366620038
 40
0.1476736326475401
  0
CIRCLE
  8
_1-0_
  6
CONTINUOUS
 62
    7
 10
271.12812763935813
 20
145.28315363703547
 40
0.1476736326475401
  0
CIRCLE
  8
_1-0_
  6
CONTINUOUS
 62
    7
 10
294.4699674039274
 20
132.21098203916807
 40
0.1651024093499055
  0
CIRCLE
  8
_1-0_
  6
CONTINUOUS
 62
    7
 10
292.69790237014359
 20
131.25111347920188
 40
0.1651024093499055
  0
CIRCLE
  8
_1-0_
  6
CONTINUOUS
 62
    7
 10
289.74443590318833
 20
132.58016225453972
 40
0.1651024093499055
  0
CIRCLE
  8
_1-0_
  6
CONTINUOUS
 62
    7
 10
293.95034377639359
 20
130.22781372070312
 40
0.1476736326475401
  0
CIRCLE
  8
_1-0_
  6
CONTINUOUS
 62
    7
 10
291.73523774018162
 20
131.26153069573479
 40
0.1476736326475401
  0
CIRCLE
  8
_1-0_
  6
CONTINUOUS
 62
    7
 10
290.55383630701016
 20
132.14756321262669
 40
0.1476736326475401
  0
CIRCLE
  8
_1-0_
  6
CONTINUOUS
 62
    7
 10
293.50732751794766
 20
132.73826392921242
 40
0.1476736326475401
  0
CIRCLE
  8
_1-0_
  6
CONTINUOUS
 62
    7
 10
293.21198334565037
 20
132.81209997228675
 40
0.1476736326475401
  0
CIRCLE
  8
_1-0_
  6
CONTINUOUS
 62
    7
 10
288.70793523015203
 20
134.21499716269005
 40
0.1476736326475401
  0
CIRCLE
  8
_1-0_
  6
CONTINUOUS
 62
    7
 10
289.88931191934125
 20
134.28883320576438
 40
0.1476736326475401
  0
CIRCLE
  8
_1-0_
  6
CONTINUOUS
 62
    7
 10
289.74163983319261
 20
133.4766367319468
 40
0.1476736326475401
  0
CIRCLE
  8
_1-0_
  6
CONTINUOUS
 62
    7
 10
287.89573875633448
 20
132.51675579998945
 40
0.1476736326475401
  0
CIRCLE
  8
_1-0_
  6
CONTINUOUS
 62
    7
 10
289.66780379011828
 20
131.63071091110643
 40
0.1476736326475401
  0
CIRCLE
  8
_1-0_
  6
CONTINUOUS
 62
    7
 10
288.19108292863177
 20
131.92605508340372
 40
0.1476736326475401
  0
CIRCLE
  8
_1-0_
  6
CONTINUOUS
 62
    7
 10
286.49282919394005
 20
132.95977205843539
 40
0.1476736326475401
  0
CIRCLE
  8
_1-0_
  6
CONTINUOUS
 62
    7
 10
287.82190271326016
 20
134.21499716269005
 40
0.1476736326475401
  0
CIRCLE
  8
_1-0_
  6
CONTINUOUS
 62
    7
 10
292.91879189981
 20
131.11507106471706
 40
0.1651024093499055
  0
CIRCLE
  8
_1-0_
  6
CONTINUOUS
 62
    7
 10
293.97239066459036
 20
134.1010263803843
 40
0.1476736326475401
  0
CIRCLE
  8
_1-0_
  6
CONTINUOUS
 62
    7
 10
291.31429311391469
 20
134.47021896774706
 40
0.1476736326475401
  0
CIRCLE
  8
_1-0_
  6
CONTINUOUS
 62
    7
 10
293.08635814769849
 20
133.58417407886404
 40
0.1476736326475401
  0
CIRCLE
  8
_1-0_
  6
CONTINUOUS
 62
    7
 10
291.60963728621203
 20
133.87951825116133
 40
0.1476736326475401
  0
CIRCLE
  8
_1-0_
  6
CONTINUOUS
 62
    7
 10
289.91138355152026
 20
134.913235226193
 40
0.1476736326475401
  0
CIRCLE
  8
_1-0_
  6
CONTINUOUS
 62
    7
 10
286.83926968961151
 20
135.73284252269849
 40
0.1651024093499055
  0
CIRCLE
  8
_1-0_
  6
CONTINUOUS
 62
    7
 10
285.06720465582771
 20
134.77297396273227
 40
0.1651024093499055
  0
CIRCLE
  8
_1-0_
  6
CONTINUOUS
 62
    7
 10
282.1137381888725
 20
136.1020227380701
 40
0.1651024093499055
  0
CIRCLE
  8
_1-0_
  6
CONTINUOUS
 62
    7
 10
286.31964606207771
 20
133.74967420423354
 40
0.1476736326475401
  0
CIRCLE
  8
_1-0_
  6
CONTINUOUS
 62
    7
 10
284.10454002586573
 20
134.78339117926521
 40
0.1476736326475401
  0
CIRCLE
  8
_1-0_
  6
CONTINUOUS
 62
    7
 10
282.92313859269427
 20
135.66942369615711
 40
0.1476736326475401
  0
CIRCLE
  8
_1-0_
  6
CONTINUOUS
 62
    7
 10
285.87662980363177
 20
136.26012441274284
 40
0.1476736326475401
  0
CIRCLE
  8
_1-0_
  6
CONTINUOUS
 62
    7
 10
285.58128563133448
 20
136.33396045581716
 40
0.1476736326475401
  0
CIRCLE
  8
_1-0_
  6
CONTINUOUS
 62
    7
 10
281.07723751583615
 20
137.73685764622044
 40
0.1476736326475401
  0
CIRCLE
  8
_1-0_
  6
CONTINUOUS
 62
    7
 10
282.25861420502537
 20
137.81069368929477
 40
0.1476736326475401
  0
CIRCLE
  8
_1-0_
  6
CONTINUOUS
 62
    7
 10
282.11094211887672
 20
136.99849721547722
 40
0.1476736326475401
  0
CIRCLE
  8
_1-0_
  6
CONTINUOUS
 62
    7
 10
280.26504104201859
 20
136.03861628351984
 40
0.1476736326475401
  0
CIRCLE
  8
_1-0_
  6
CONTINUOUS
 62
    7
 10
282.0371060758024
 20
135.15257139463682
 40
0.1476736326475401
  0
CIRCLE
  8
_1-0_
  6
CONTINUOUS
 62
    7
 10
280.56038521431589
 20
135.44791556693414
 40
0.1476736326475401
  0
CIRCLE
  8
_1-0_
  6
CONTINUOUS
 62
    7
 10
278.86213147962417
 20
136.48163254196581
 40
0.1476736326475401
  0
CIRCLE
  8
_1-0_
  6
CONTINUOUS
 62
    7
 10
280.19120499894427
 20
137.73685764622044
 40
0.1476736326475401
  0
CIRCLE
  8
_1-0_
  6
CONTINUOUS
 62
    7
 10
285.28809418549412
 20
134.63693154824747
 40
0.1651024093499055
  0
CIRCLE
  8
_1-0_
  6
CONTINUOUS
 62
    7
 10
286.34169295027453
 20
137.62288686391472
 40
0.1476736326475401
  0
CIRCLE
  8
_1-0_
  6
CONTINUOUS
 62
    7
 10
283.68359539959886
 20
137.99207945127745
 40
0.1476736326475401
  0
CIRCLE
  8
_1-0_
  6
CONTINUOUS
 62
    7
 10
285.4556604333826
 20
137.10603456239443
 40
0.1476736326475401
  0
CIRCLE
  8
_1-0_
  6
CONTINUOUS
 62
    7
 10
283.97893957189615
 20
137.40137873469172
 40
0.1476736326475401
  0
CIRCLE
  8
_1-0_
  6
CONTINUOUS
 62
    7
 10
282.28068583720443
 20
138.43509570972341
 40
0.1476736326475401
  0
CIRCLE
  8
_1-0_
  6
CONTINUOUS
 62
    7
 10
302.29631578600089
 20
129.27609830289273
 40
0.1651024093499055
  0
CIRCLE
  8
_1-0_
  6
CONTINUOUS
 62
    7
 10
300.52425075221709
 20
128.31622974292654
 40
0.1651024093499055
  0
CIRCLE
  8
_1-0_
  6
CONTINUOUS
 62
    7
 10
297.57078428526182
 20
129.64527851826438
 40
0.1651024093499055
  0
CIRCLE
  8
_1-0_
  6
CONTINUOUS
 62
    7
 10
301.77669215846709
 20
127.2929299844278
 40
0.1476736326475401
  0
CIRCLE
  8
_1-0_
  6
CONTINUOUS
 62
    7
 10
299.56158612225511
 20
128.32664695945945
 40
0.1476736326475401
  0
CIRCLE
  8
_1-0_
  6
CONTINUOUS
 62
    7
 10
298.38018468908365
 20
129.21267947635135
 40
0.1476736326475401
  0
CIRCLE
  8
_1-0_
  6
CONTINUOUS
 62
    7
 10
301.33367590002115
 20
129.80338019293708
 40
0.1476736326475401
  0
CIRCLE
  8
_1-0_
  6
CONTINUOUS
 62
    7
 10
301.03833172772386
 20
129.87721623601141
 40
0.1476736326475401
  0
CIRCLE
  8
_1-0_
  6
CONTINUOUS
 62
    7
 10
296.53428361222552
 20
131.28011342641472
 40
0.1476736326475401
  0
CIRCLE
  8
_1-0_
  6
CONTINUOUS
 62
    7
 10
297.71566030141469
 20
131.35394946948904
 40
0.1476736326475401
  0
CIRCLE
  8
_1-0_
  6
CONTINUOUS
 62
    7
 10
297.56798821526604
 20
130.54175299567146
 40
0.1476736326475401
  0
CIRCLE
  8
_1-0_
  6
CONTINUOUS
 62
    7
 10
295.72208713840797
 20
129.58187206371412
 40
0.1476736326475401
  0
CIRCLE
  8
_1-0_
  6
CONTINUOUS
 62
    7
 10
297.49415217219172
 20
128.69582717483109
 40
0.1476736326475401
  0
CIRCLE
  8
_1-0_
  6
CONTINUOUS
 62
    7
 10
296.01743131070526
 20
128.99117134712839
 40
0.1476736326475401
  0
CIRCLE
  8
_1-0_
  6
CONTINUOUS
 62
    7
 10
294.31917757601354
 20
130.02488832216005
 40
0.1476736326475401
  0
CIRCLE
  8
_1-0_
  6
CONTINUOUS
 62
    7
 10
295.64825109533365
 20
131.28011342641472
 40
0.1476736326475401
  0
CIRCLE
  8
_1-0_
  6
CONTINUOUS
 62
    7
 10
300.74514028188344
 20
128.18018732844172
 40
0.1651024093499055
  0
CIRCLE
  8
_1-0_
  6
CONTINUOUS
 62
    7
 10
301.79873904666385
 20
131.16614264410896
 40
0.1476736326475401
  0
CIRCLE
  8
_1-0_
  6
CONTINUOUS
 62
    7
 10
299.14064149598818
 20
131.53533523147172
 40
0.1476736326475401
  0
CIRCLE
  8
_1-0_
  6
CONTINUOUS
 62
    7
 10
300.91270652977198
 20
130.6492903425887
 40
0.1476736326475401
  0
CIRCLE
  8
_1-0_
  6
CONTINUOUS
 62
    7
 10
299.43598566828547
 20
130.94463451488599
 40
0.1476736326475401
  0
CIRCLE
  8
_1-0_
  6
CONTINUOUS
 62
    7
 10
297.73773193359375
 20
131.97835148991766
 40
0.1476736326475401
  0
CIRCLE
  8
_1-0_
  6
CONTINUOUS
 62
    7
 10
308.55740933804901
 20
126.14555152686867
 40
0.1651024093499055
  0
CIRCLE
  8
_1-0_
  6
CONTINUOUS
 62
    7
 10
306.78534430426521
 20
125.18568296690246
 40
0.1651024093499055
  0
CIRCLE
  8
_1-0_
  6
CONTINUOUS
 62
    7
 10
303.83187783731
 20
126.5147317422403
 40
0.1651024093499055
  0
CIRCLE
  8
_1-0_
  6
CONTINUOUS
 62
    7
 10
308.03778571051521
 20
124.16238320840372
 40
0.1476736326475401
  0
CIRCLE
  8
_1-0_
  6
CONTINUOUS
 62
    7
 10
305.82267967430323
 20
125.19610018343539
 40
0.1476736326475401
  0
CIRCLE
  8
_1-0_
  6
CONTINUOUS
 62
    7
 10
304.64127824113177
 20
126.08213270032729
 40
0.1476736326475401
  0
CIRCLE
  8
_1-0_
  6
CONTINUOUS
 62
    7
 10
307.59476945206927
 20
126.67283341691301
 40
0.1476736326475401
  0
CIRCLE
  8
_1-0_
  6
CONTINUOUS
 62
    7
 10
307.29942527977198
 20
126.74666945998734
 40
0.1476736326475401
  0
CIRCLE
  8
_1-0_
  6
CONTINUOUS
 62
    7
 10
302.79537716427365
 20
128.14956665039062
 40
0.1476736326475401
  0
CIRCLE
  8
_1-0_
  6
CONTINUOUS
 62
    7
 10
303.97675385346287
 20
128.22340269346495
 40
0.1476736326475401
  0
CIRCLE
  8
_1-0_
  6
CONTINUOUS
 62
    7
 10
303.82908176731422
 20
127.41120621964738
 40
0.1476736326475401
  0
CIRCLE
  8
_1-0_
  6
CONTINUOUS
 62
    7
 10
301.98318069045609
 20
126.45132528769004
 40
0.1476736326475401
  0
CIRCLE
  8
_1-0_
  6
CONTINUOUS
 62
    7
 10
303.7552457242399
 20
125.56528039880702
 40
0.1476736326475401
  0
CIRCLE
  8
_1-0_
  6
CONTINUOUS
 62
    7
 10
302.27852486275339
 20
125.86062457110431
 40
0.1476736326475401
  0
CIRCLE
  8
_1-0_
  6
CONTINUOUS
 62
    7
 10
300.58027112806167
 20
126.89434154613599
 40
0.1476736326475401
  0
CIRCLE
  8
_1-0_
  6
CONTINUOUS
 62
    7
 10
301.90934464738177
 20
128.14956665039062
 40
0.1476736326475401
  0
CIRCLE
  8
_1-0_
  6
CONTINUOUS
 62
    7
 10
307.00623383393162
 20
125.04964055241766
 40
0.1651024093499055
  0
CIRCLE
  8
_1-0_
  6
CONTINUOUS
 62
    7
 10
308.05983259871203
 20
128.0355958680849
 40
0.1476736326475401
  0
CIRCLE
  8
_1-0_
  6
CONTINUOUS
 62
    7
 10
305.40173504803636
 20
128.40478845544763
 40
0.1476736326475401
  0
CIRCLE
  8
_1-0_
  6
CONTINUOUS
 62
    7
 10
307.1738000818201
 20
127.51874356656462
 40
0.1476736326475401
  0
CIRCLE
  8
_1-0_
  6
CONTINUOUS
 62
    7
 10
305.69707922033365
 20
127.81408773886191
 40
0.1476736326475401
  0
CIRCLE
  8
_1-0_
  6
CONTINUOUS
 62
    7
 10
303.99882548564193
 20
128.84780471389359
 40
0.1476736326475401
  0
CIRCLE
  8
_1-0_
  6
CONTINUOUS
 62
    7
 10
317.5577112146326
 20
121.64540058857686
 40
0.1651024093499055
  0
CIRCLE
  8
_1-0_
  6
CONTINUOUS
 62
    7
 10
315.78564618084886
 20
120.68553202861065
 40
0.1651024093499055
  0
CIRCLE
  8
_1-0_
  6
CONTINUOUS
 62
    7
 10
312.83217971389359
 20
122.01458080394849
 40
0.1651024093499055
  0
CIRCLE
  8
_1-0_
  6
CONTINUOUS
 62
    7
 10
317.03808758709886
 20
119.66223227011191
 40
0.1476736326475401
  0
CIRCLE
  8
_1-0_
  6
CONTINUOUS
 62
    7
 10
314.82298155088682
 20
120.69594924514358
 40
0.1476736326475401
  0
CIRCLE
  8
_1-0_
  6
CONTINUOUS
 62
    7
 10
313.64158011771536
 20
121.58198176203548
 40
0.1476736326475401
  0
CIRCLE
  8
_1-0_
  6
CONTINUOUS
 62
    7
 10
316.59507132865286
 20
122.17268247862121
 40
0.1476736326475401
  0
CIRCLE
  8
_1-0_
  6
CONTINUOUS
 62
    7
 10
316.29972715635557
 20
122.24651852169553
 40
0.1476736326475401
  0
CIRCLE
  8
_1-0_
  6
CONTINUOUS
 62
    7
 10
311.79567904085729
 20
123.64941571209883
 40
0.1476736326475401
  0
CIRCLE
  8
_1-0_
  6
CONTINUOUS
 62
    7
 10
312.97705573004646
 20
123.72325175517315
 40
0.1476736326475401
  0
CIRCLE
  8
_1-0_
  6
CONTINUOUS
 62
    7
 10
312.82938364389781
 20
122.91105528135559
 40
0.1476736326475401
  0
CIRCLE
  8
_1-0_
  6
CONTINUOUS
 62
    7
 10
310.98348256703969
 20
121.95117434939823
 40
0.1476736326475401
  0
CIRCLE
  8
_1-0_
  6
CONTINUOUS
 62
    7
 10
312.75554760082349
 20
121.06512946051521
 40
0.1476736326475401
  0
CIRCLE
  8
_1-0_
  6
CONTINUOUS
 62
    7
 10
311.27882673933703
 20
121.3604736328125
 40
0.1476736326475401
  0
CIRCLE
  8
_1-0_
  6
CONTINUOUS
 62
    7
 10
309.58057300464526
 20
122.39419060784418
 40
0.1476736326475401
  0
CIRCLE
  8
_1-0_
  6
CONTINUOUS
 62
    7
 10
310.90964652396536
 20
123.64941571209883
 40
0.1476736326475401
  0
CIRCLE
  8
_1-0_
  6
CONTINUOUS
 62
    7
 10
316.00653571051521
 20
120.54948961412585
 40
0.1651024093499055
  0
CIRCLE
  8
_1-0_
  6
CONTINUOUS
 62
    7
 10
317.06013447529563
 20
123.53544492979309
 40
0.1476736326475401
  0
CIRCLE
  8
_1-0_
  6
CONTINUOUS
 62
    7
 10
314.40203692461995
 20
123.90463751715583
 40
0.1476736326475401
  0
CIRCLE
  8
_1-0_
  6
CONTINUOUS
 62
    7
 10
316.17410195840375
 20
123.01859262827281
 40
0.1476736326475401
  0
CIRCLE
  8
_1-0_
  6
CONTINUOUS
 62
    7
 10
314.69738109691724
 20
123.3139368005701
 40
0.1476736326475401
  0
CIRCLE
  8
_1-0_
  6
CONTINUOUS
 62
    7
 10
312.99912736222552
 20
124.34765377560178
 40
0.1476736326475401
  0
CIRCLE
  8
_1-0_
  6
CONTINUOUS
 62
    7
 10
330.66685032200172
 20
117.53655098580026
 40
0.1651024093499055
  0
CIRCLE
  8
_1-0_
  6
CONTINUOUS
 62
    7
 10
328.89478528821792
 20
116.57668242583405
 40
0.1651024093499055
  0
CIRCLE
  8
_1-0_
  6
CONTINUOUS
 62
    7
 10
325.94131882126271
 20
117.90573120117187
 40
0.1651024093499055
  0
CIRCLE
  8
_1-0_
  6
CONTINUOUS
 62
    7
 10
330.14722669446792
 20
115.55338266733531
 40
0.1476736326475401
  0
CIRCLE
  8
_1-0_
  6
CONTINUOUS
 62
    7
 10
327.93212065825594
 20
116.58709964236698
 40
0.1476736326475401
  0
CIRCLE
  8
_1-0_
  6
CONTINUOUS
 62
    7
 10
326.75071922508448
 20
117.47313215925888
 40
0.1476736326475401
  0
CIRCLE
  8
_1-0_
  6
CONTINUOUS
 62
    7
 10
329.70421043602198
 20
118.0638328758446
 40
0.1476736326475401
  0
CIRCLE
  8
_1-0_
  6
CONTINUOUS
 62
    7
 10
329.40886626372469
 20
118.13766891891892
 40
0.1476736326475401
  0
CIRCLE
  8
_1-0_
  6
CONTINUOUS
 62
    7
 10
324.90481814822635
 20
119.54056610932221
 40
0.1476736326475401
  0
CIRCLE
  8
_1-0_
  6
CONTINUOUS
 62
    7
 10
326.08619483741558
 20
119.61440215239655
 40
0.1476736326475401
  0
CIRCLE
  8
_1-0_
  6
CONTINUOUS
 62
    7
 10
325.93852275126693
 20
118.80220567857897
 40
0.1476736326475401
  0
CIRCLE
  8
_1-0_
  6
CONTINUOUS
 62
    7
 10
324.0926216744088
 20
117.84232474662163
 40
0.1476736326475401
  0
CIRCLE
  8
_1-0_
  6
CONTINUOUS
 62
    7
 10
325.86468670819261
 20
116.95627985773861
 40
0.1476736326475401
  0
CIRCLE
  8
_1-0_
  6
CONTINUOUS
 62
    7
 10
324.38796584670609
 20
117.2516240300359
 40
0.1476736326475401
  0
CIRCLE
  8
_1-0_
  6
CONTINUOUS
 62
    7
 10
322.68971211201438
 20
118.28534100506758
 40
0.1476736326475401
  0
CIRCLE
  8
_1-0_
  6
CONTINUOUS
 62
    7
 10
324.01878563133448
 20
119.54056610932221
 40
0.1476736326475401
  0
CIRCLE
  8
_1-0_
  6
CONTINUOUS
 62
    7
 10
329.11567481788433
 20
116.44064001134925
 40
0.1651024093499055
  0
CIRCLE
  8
_1-0_
  6
CONTINUOUS
 62
    7
 10
330.16927358266469
 20
119.42659532701647
 40
0.1476736326475401
  0
CIRCLE
  8
_1-0_
  6
CONTINUOUS
 62
    7
 10
327.51117603198907
 20
119.79578791437923
 40
0.1476736326475401
  0
CIRCLE
  8
_1-0_
  6
CONTINUOUS
 62
    7
 10
329.28324106577281
 20
118.90974302549621
 40
0.1476736326475401
  0
CIRCLE
  8
_1-0_
  6
CONTINUOUS
 62
    7
 10
327.80652020428636
 20
119.2050871977935
 40
0.1476736326475401
  0
CIRCLE
  8
_1-0_
  6
CONTINUOUS
 62
    7
 10
326.10826646959464
 20
120.23880417282517
 40
0.1476736326475401
  0
CIRCLE
  8
_1-0_
  6
CONTINUOUS
 62
    7
 10
324.99275826119089
 20
118.5148538125528
 40
0.1651024093499055
  0
CIRCLE
  8
_1-0_
  6
CONTINUOUS
 62
    7
 10
323.22069322740714
 20
117.55498525258658
 40
0.1651024093499055
  0
CIRCLE
  8
_1-0_
  6
CONTINUOUS
 62
    7
 10
320.26722676045188
 20
118.88403402792441
 40
0.1651024093499055
  0
CIRCLE
  8
_1-0_
  6
CONTINUOUS
 62
    7
 10
324.47313463365714
 20
116.53168549408784
 40
0.1476736326475401
  0
CIRCLE
  8
_1-0_
  6
CONTINUOUS
 62
    7
 10
322.2580285974451
 20
117.56540246911952
 40
0.1476736326475401
  0
CIRCLE
  8
_1-0_
  6
CONTINUOUS
 62
    7
 10
321.07662716427365
 20
118.45143498601141
 40
0.1476736326475401
  0
CIRCLE
  8
_1-0_
  6
CONTINUOUS
 62
    7
 10
324.03011837521115
 20
119.04213570259714
 40
0.1476736326475401
  0
CIRCLE
  8
_1-0_
  6
CONTINUOUS
 62
    7
 10
323.73477420291385
 20
119.11597174567146
 40
0.1476736326475401
  0
CIRCLE
  8
_1-0_
  6
CONTINUOUS
 62
    7
 10
319.23072608741558
 20
120.51886893607475
 40
0.1476736326475401
  0
CIRCLE
  8
_1-0_
  6
CONTINUOUS
 62
    7
 10
320.41210277660474
 20
120.59270497914908
 40
0.1476736326475401
  0
CIRCLE
  8
_1-0_
  6
CONTINUOUS
 62
    7
 10
320.26443069045609
 20
119.78050850533151
 40
0.1476736326475401
  0
CIRCLE
  8
_1-0_
  6
CONTINUOUS
 62
    7
 10
318.41852961359797
 20
118.82062757337417
 40
0.1476736326475401
  0
CIRCLE
  8
_1-0_
  6
CONTINUOUS
 62
    7
 10
320.19059464738177
 20
117.93458268449113
 40
0.1476736326475401
  0
CIRCLE
  8
_1-0_
  6
CONTINUOUS
 62
    7
 10
318.71387378589532
 20
118.22992685678844
 40
0.1476736326475401
  0
CIRCLE
  8
_1-0_
  6
CONTINUOUS
 62
    7
 10
317.01562005120354
 20
119.2636438318201
 40
0.1476736326475401
  0
CIRCLE
  8
_1-0_
  6
CONTINUOUS
 62
    7
 10
318.34469357052365
 20
120.51886893607475
 40
0.1476736326475401
  0
CIRCLE
  8
_1-0_
  6
CONTINUOUS
 62
    7
 10
323.44158275707349
 20
117.41894283810178
 40
0.1651024093499055
  0
CIRCLE
  8
_1-0_
  6
CONTINUOUS
 62
    7
 10
324.49518152185391
 20
120.40489815376901
 40
0.1476736326475401
  0
CIRCLE
  8
_1-0_
  6
CONTINUOUS
 62
    7
 10
321.83708397117823
 20
120.77409074113176
 40
0.1476736326475401
  0
CIRCLE
  8
_1-0_
  6
CONTINUOUS
 62
    7
 10
323.60914900496203
 20
119.88804585224874
 40
0.1476736326475401
  0
CIRCLE
  8
_1-0_
  6
CONTINUOUS
 62
    7
 10
322.13242814347552
 20
120.18339002454604
 40
0.1476736326475401
  0
CIRCLE
  8
_1-0_
  6
CONTINUOUS
 62
    7
 10
320.4341744087838
 20
121.21710699957771
 40
0.1476736326475401
  0
CIRCLE
  8
_1-0_
  6
CONTINUOUS
 62
    7
 10
342.60206067884292
 20
110.68849305848818
 40
0.1651024093499055
  0
CIRCLE
  8
_1-0_
  6
CONTINUOUS
 62
    7
 10
340.82999564505911
 20
109.72862449852197
 40
0.1651024093499055
  0
CIRCLE
  8
_1-0_
  6
CONTINUOUS
 62
    7
 10
337.87652917810391
 20
111.05767327385981
 40
0.1651024093499055
  0
CIRCLE
  8
_1-0_
  6
CONTINUOUS
 62
    7
 10
342.08243705130911
 20
108.70532474002323
 40
0.1476736326475401
  0
CIRCLE
  8
_1-0_
  6
CONTINUOUS
 62
    7
 10
339.86733101509714
 20
109.73904171505491
 40
0.1476736326475401
  0
CIRCLE
  8
_1-0_
  6
CONTINUOUS
 62
    7
 10
338.68592958192568
 20
110.6250742319468
 40
0.1476736326475401
  0
CIRCLE
  8
_1-0_
  6
CONTINUOUS
 62
    7
 10
341.63942079286318
 20
111.21577494853253
 40
0.1476736326475401
  0
CIRCLE
  8
_1-0_
  6
CONTINUOUS
 62
    7
 10
341.34407662056589
 20
111.28961099160685
 40
0.1476736326475401
  0
CIRCLE
  8
_1-0_
  6
CONTINUOUS
 62
    7
 10
336.84002850506761
 20
112.69250818201014
 40
0.1476736326475401
  0
CIRCLE
  8
_1-0_
  6
CONTINUOUS
 62
    7
 10
338.02140519425677
 20
112.76634422508447
 40
0.1476736326475401
  0
CIRCLE
  8
_1-0_
  6
CONTINUOUS
 62
    7
 10
337.87373310810813
 20
111.9541477512669
 40
0.1476736326475401
  0
CIRCLE
  8
_1-0_
  6
CONTINUOUS
 62
    7
 10
336.02783203125
 20
110.99426681930954
 40
0.1476736326475401
  0
CIRCLE
  8
_1-0_
  6
CONTINUOUS
 62
    7
 10
337.7998970650338
 20
110.10822193042652
 40
0.1476736326475401
  0
CIRCLE
  8
_1-0_
  6
CONTINUOUS
 62
    7
 10
336.32317620354729
 20
110.40356610272383
 40
0.1476736326475401
  0
CIRCLE
  8
_1-0_
  6
CONTINUOUS
 62
    7
 10
334.62492246885557
 20
111.4372830777555
 40
0.1476736326475401
  0
CIRCLE
  8
_1-0_
  6
CONTINUOUS
 62
    7
 10
335.95399598817568
 20
112.69250818201014
 40
0.1476736326475401
  0
CIRCLE
  8
_1-0_
  6
CONTINUOUS
 62
    7
 10
341.05088517472552
 20
109.59258208403716
 40
0.1651024093499055
  0
CIRCLE
  8
_1-0_
  6
CONTINUOUS
 62
    7
 10
342.10448393950594
 20
112.5785373997044
 40
0.1476736326475401
  0
CIRCLE
  8
_1-0_
  6
CONTINUOUS
 62
    7
 10
339.44638638883026
 20
112.94772998706715
 40
0.1476736326475401
  0
CIRCLE
  8
_1-0_
  6
CONTINUOUS
 62
    7
 10
341.21845142261407
 20
112.06168509818413
 40
0.1476736326475401
  0
CIRCLE
  8
_1-0_
  6
CONTINUOUS
 62
    7
 10
339.74173056112755
 20
112.35702927048142
 40
0.1476736326475401
  0
CIRCLE
  8
_1-0_
  6
CONTINUOUS
 62
    7
 10
338.04347682643584
 20
113.3907462455131
 40
0.1476736326475401
  0
CIRCLE
  8
_1-0_
  6
CONTINUOUS
 62
    7
 10
334.77568755278719
 20
114.21035354201858
 40
0.1651024093499055
  0
CIRCLE
  8
_1-0_
  6
CONTINUOUS
 62
    7
 10
333.00362251900339
 20
113.25048498205237
 40
0.1651024093499055
  0
CIRCLE
  8
_1-0_
  6
CONTINUOUS
 62
    7
 10
330.05015605204818
 20
114.57953375739021
 40
0.1651024093499055
  0
CIRCLE
  8
_1-0_
  6
CONTINUOUS
 62
    7
 10
334.25606392525339
 20
112.22718522355363
 40
0.1476736326475401
  0
CIRCLE
  8
_1-0_
  6
CONTINUOUS
 62
    7
 10
332.04095788904141
 20
113.26090219858531
 40
0.1476736326475401
  0
CIRCLE
  8
_1-0_
  6
CONTINUOUS
 62
    7
 10
330.85955645586995
 20
114.1469347154772
 40
0.1476736326475401
  0
CIRCLE
  8
_1-0_
  6
CONTINUOUS
 62
    7
 10
333.81304766680745
 20
114.73763543206293
 40
0.1476736326475401
  0
CIRCLE
  8
_1-0_
  6
CONTINUOUS
 62
    7
 10
333.51770349451016
 20
114.81147147513725
 40
0.1476736326475401
  0
CIRCLE
  8
_1-0_
  6
CONTINUOUS
 62
    7
 10
329.01365537901182
 20
116.21436866554055
 40
0.1476736326475401
  0
CIRCLE
  8
_1-0_
  6
CONTINUOUS
 62
    7
 10
330.19503206820104
 20
116.28820470861487
 40
0.1476736326475401
  0
CIRCLE
  8
_1-0_
  6
CONTINUOUS
 62
    7
 10
330.0473599820524
 20
115.47600823479731
 40
0.1476736326475401
  0
CIRCLE
  8
_1-0_
  6
CONTINUOUS
 62
    7
 10
328.20145890519427
 20
114.51612730283996
 40
0.1476736326475401
  0
CIRCLE
  8
_1-0_
  6
CONTINUOUS
 62
    7
 10
329.97352393897808
 20
113.63008241395693
 40
0.1476736326475401
  0
CIRCLE
  8
_1-0_
  6
CONTINUOUS
 62
    7
 10
328.49680307749156
 20
113.92542658625423
 40
0.1476736326475401
  0
CIRCLE
  8
_1-0_
  6
CONTINUOUS
 62
    7
 10
326.79854934279984
 20
114.9591435612859
 40
0.1476736326475401
  0
CIRCLE
  8
_1-0_
  6
CONTINUOUS
 62
    7
 10
328.12762286211995
 20
116.21436866554055
 40
0.1476736326475401
  0
CIRCLE
  8
_1-0_
  6
CONTINUOUS
 62
    7
 10
333.22451204866979
 20
113.11444256756758
 40
0.1651024093499055
  0
CIRCLE
  8
_1-0_
  6
CONTINUOUS
 62
    7
 10
334.27811081345021
 20
116.10039788323481
 40
0.1476736326475401
  0
CIRCLE
  8
_1-0_
  6
CONTINUOUS
 62
    7
 10
331.62001326277453
 20
116.46959047059755
 40
0.1476736326475401
  0
CIRCLE
  8
_1-0_
  6
CONTINUOUS
 62
    7
 10
333.39207829655828
 20
115.58354558171453
 40
0.1476736326475401
  0
CIRCLE
  8
_1-0_
  6
CONTINUOUS
 62
    7
 10
331.91535743507183
 20
115.87888975401184
 40
0.1476736326475401
  0
CIRCLE
  8
_1-0_
  6
CONTINUOUS
 62
    7
 10
330.21710370038011
 20
116.9126067290435
 40
0.1476736326475401
  0
CIRCLE
  8
_1-0_
  6
CONTINUOUS
 62
    7
 10
351.40671188766896
 20
108.34058606946792
 40
0.1651024093499055
  0
CIRCLE
  8
_1-0_
  6
CONTINUOUS
 62
    7
 10
349.63464685388516
 20
107.38071750950169
 40
0.1651024093499055
  0
CIRCLE
  8
_1-0_
  6
CONTINUOUS
 62
    7
 10
346.6811803869299
 20
108.70976628483953
 40
0.1651024093499055
  0
CIRCLE
  8
_1-0_
  6
CONTINUOUS
 62
    7
 10
350.88708826013516
 20
106.35741775100296
 40
0.1476736326475401
  0
CIRCLE
  8
_1-0_
  6
CONTINUOUS
 62
    7
 10
348.67198222392318
 20
107.39113472603464
 40
0.1476736326475401
  0
CIRCLE
  8
_1-0_
  6
CONTINUOUS
 62
    7
 10
347.49058079075172
 20
108.27716724292652
 40
0.1476736326475401
  0
CIRCLE
  8
_1-0_
  6
CONTINUOUS
 62
    7
 10
350.44407200168922
 20
108.86786795951225
 40
0.1476736326475401
  0
CIRCLE
  8
_1-0_
  6
CONTINUOUS
 62
    7
 10
350.14872782939193
 20
108.94170400258658
 40
0.1476736326475401
  0
CIRCLE
  8
_1-0_
  6
CONTINUOUS
 62
    7
 10
345.64467971389359
 20
110.34460119298987
 40
0.1476736326475401
  0
CIRCLE
  8
_1-0_
  6
CONTINUOUS
 62
    7
 10
346.82605640308282
 20
110.41843723606419
 40
0.1476736326475401
  0
CIRCLE
  8
_1-0_
  6
CONTINUOUS
 62
    7
 10
346.67838431693411
 20
109.60624076224663
 40
0.1476736326475401
  0
CIRCLE
  8
_1-0_
  6
CONTINUOUS
 62
    7
 10
344.83248324007604
 20
108.64635983028928
 40
0.1476736326475401
  0
CIRCLE
  8
_1-0_
  6
CONTINUOUS
 62
    7
 10
346.60454827385979
 20
107.76031494140625
 40
0.1476736326475401
  0
CIRCLE
  8
_1-0_
  6
CONTINUOUS
 62
    7
 10
345.12782741237334
 20
108.05565911370356
 40
0.1476736326475401
  0
CIRCLE
  8
_1-0_
  6
CONTINUOUS
 62
    7
 10
343.42957367768162
 20
109.08937608873522
 40
0.1476736326475401
  0
CIRCLE
  8
_1-0_
  6
CONTINUOUS
 62
    7
 10
344.75864719700172
 20
110.34460119298987
 40
0.1476736326475401
  0
CIRCLE
  8
_1-0_
  6
CONTINUOUS
 62
    7
 10
349.85553638355157
 20
107.2446750950169
 40
0.1651024093499055
  0
CIRCLE
  8
_1-0_
  6
CONTINUOUS
 62
    7
 10
350.90913514833193
 20
110.23063041068413
 40
0.1476736326475401
  0
CIRCLE
  8
_1-0_
  6
CONTINUOUS
 62
    7
 10
348.25103759765625
 20
110.59982299804687
 40
0.1476736326475401
  0
CIRCLE
  8
_1-0_
  6
CONTINUOUS
 62
    7
 10
350.02310263144005
 20
109.71377810916385
 40
0.1476736326475401
  0
CIRCLE
  8
_1-0_
  6
CONTINUOUS
 62
    7
 10
348.54638176995354
 20
110.00912228146116
 40
0.1476736326475401
  0
CIRCLE
  8
_1-0_
  6
CONTINUOUS
 62
    7
 10
346.84812803526182
 20
111.04283925649283
 40
0.1476736326475401
  0
CIRCLE
  8
_1-0_
  6
CONTINUOUS
 62
    7
 10
357.08080394847974
 20
104.23174883868244
 40
0.1651024093499055
  0
CIRCLE
  8
_1-0_
  6
CONTINUOUS
 62
    7
 10
355.30873891469599
 20
103.27188027871622
 40
0.1651024093499055
  0
CIRCLE
  8
_1-0_
  6
CONTINUOUS
 62
    7
 10
352.35527244774073
 20
104.60092905405406
 40
0.1651024093499055
  0
CIRCLE
  8
_1-0_
  6
CONTINUOUS
 62
    7
 10
356.56118032094599
 20
102.24858052021749
 40
0.1476736326475401
  0
CIRCLE
  8
_1-0_
  6
CONTINUOUS
 62
    7
 10
354.34607428473396
 20
103.28229749524917
 40
0.1476736326475401
  0
CIRCLE
  8
_1-0_
  6
CONTINUOUS
 62
    7
 10
353.1646728515625
 20
104.16833001214106
 40
0.1476736326475401
  0
CIRCLE
  8
_1-0_
  6
CONTINUOUS
 62
    7
 10
356.1181640625
 20
104.75903072872678
 40
0.1476736326475401
  0
CIRCLE
  8
_1-0_
  6
CONTINUOUS
 62
    7
 10
355.82281989020271
 20
104.83286677180111
 40
0.1476736326475401
  0
CIRCLE
  8
_1-0_
  6
CONTINUOUS
 62
    7
 10
351.31877177470443
 20
106.2357639622044
 40
0.1476736326475401
  0
CIRCLE
  8
_1-0_
  6
CONTINUOUS
 62
    7
 10
352.50014846389359
 20
106.30960000527872
 40
0.1476736326475401
  0
CIRCLE
  8
_1-0_
  6
CONTINUOUS
 62
    7
 10
352.35247637774495
 20
105.49740353146116
 40
0.1476736326475401
  0
CIRCLE
  8
_1-0_
  6
CONTINUOUS
 62
    7
 10
350.50657530088682
 20
104.5375225995038
 40
0.1476736326475401
  0
CIRCLE
  8
_1-0_
  6
CONTINUOUS
 62
    7
 10
352.27864033467063
 20
103.65147771062078
 40
0.1476736326475401
  0
CIRCLE
  8
_1-0_
  6
CONTINUOUS
 62
    7
 10
350.80191947318411
 20
103.94682188291809
 40
0.1476736326475401
  0
CIRCLE
  8
_1-0_
  6
CONTINUOUS
 62
    7
 10
349.1036657384924
 20
104.98053885794975
 40
0.1476736326475401
  0
CIRCLE
  8
_1-0_
  6
CONTINUOUS
 62
    7
 10
350.4327392578125
 20
106.2357639622044
 40
0.1476736326475401
  0
CIRCLE
  8
_1-0_
  6
CONTINUOUS
 62
    7
 10
355.52962844436234
 20
103.13583786423142
 40
0.1651024093499055
  0
CIRCLE
  8
_1-0_
  6
CONTINUOUS
 62
    7
 10
356.58322720914276
 20
106.12179317989866
 40
0.1476736326475401
  0
CIRCLE
  8
_1-0_
  6
CONTINUOUS
 62
    7
 10
353.92512965846709
 20
106.49098576726141
 40
0.1476736326475401
  0
CIRCLE
  8
_1-0_
  6
CONTINUOUS
 62
    7
 10
355.69719469225089
 20
105.60494087837839
 40
0.1476736326475401
  0
CIRCLE
  8
_1-0_
  6
CONTINUOUS
 62
    7
 10
354.22047383076438
 20
105.90028505067568
 40
0.1476736326475401
  0
CIRCLE
  8
_1-0_
  6
CONTINUOUS
 62
    7
 10
352.52222009607266
 20
106.93400202570736
 40
0.1476736326475401
  0
CIRCLE
  8
_1-0_
  6
CONTINUOUS
 62
    7
 10
374.29880503061656
 20
97.188027871621628
 40
0.1651024093499055
  0
CIRCLE
  8
_1-0_
  6
CONTINUOUS
 62
    7
 10
372.52673999683282
 20
96.228159311655418
 40
0.1651024093499055
  0
CIRCLE
  8
_1-0_
  6
CONTINUOUS
 62
    7
 10
369.57327352987755
 20
97.557208086993242
 40
0.1651024093499055
  0
CIRCLE
  8
_1-0_
  6
CONTINUOUS
 62
    7
 10
373.77918140308282
 20
95.20485955315668
 40
0.1476736326475401
  0
CIRCLE
  8
_1-0_
  6
CONTINUOUS
 62
    7
 10
371.56407536687078
 20
96.238576528188347
 40
0.1476736326475401
  0
CIRCLE
  8
_1-0_
  6
CONTINUOUS
 62
    7
 10
370.38267393369932
 20
97.124609045080248
 40
0.1476736326475401
  0
CIRCLE
  8
_1-0_
  6
CONTINUOUS
 62
    7
 10
373.33616514463682
 20
97.715309761665964
 40
0.1476736326475401
  0
CIRCLE
  8
_1-0_
  6
CONTINUOUS
 62
    7
 10
373.04082097233953
 20
97.789145804740286
 40
0.1476736326475401
  0
CIRCLE
  8
_1-0_
  6
CONTINUOUS
 62
    7
 10
368.53677285684125
 20
99.192042995143581
 40
0.1476736326475401
  0
CIRCLE
  8
_1-0_
  6
CONTINUOUS
 62
    7
 10
369.71814954603042
 20
99.265879038217918
 40
0.1476736326475401
  0
CIRCLE
  8
_1-0_
  6
CONTINUOUS
 62
    7
 10
369.57047745988177
 20
98.453682564400339
 40
0.1476736326475401
  0
CIRCLE
  8
_1-0_
  6
CONTINUOUS
 62
    7
 10
367.72457638302365
 20
97.493801632442995
 40
0.1476736326475401
  0
CIRCLE
  8
_1-0_
  6
CONTINUOUS
 62
    7
 10
369.49664141680745
 20
96.607756743559975
 40
0.1476736326475401
  0
CIRCLE
  8
_1-0_
  6
CONTINUOUS
 62
    7
 10
368.01992055532099
 20
96.903100915857266
 40
0.1476736326475401
  0
CIRCLE
  8
_1-0_
  6
CONTINUOUS
 62
    7
 10
366.32166682062922
 20
97.936817890888946
 40
0.1476736326475401
  0
CIRCLE
  8
_1-0_
  6
CONTINUOUS
 62
    7
 10
367.65074033994932
 20
99.192042995143581
 40
0.1476736326475401
  0
CIRCLE
  8
_1-0_
  6
CONTINUOUS
 62
    7
 10
372.74762952649917
 20
96.092116897170612
 40
0.1651024093499055
  0
CIRCLE
  8
_1-0_
  6
CONTINUOUS
 62
    7
 10
373.80122829127959
 20
99.078072212837839
 40
0.1476736326475401
  0
CIRCLE
  8
_1-0_
  6
CONTINUOUS
 62
    7
 10
371.14313074060391
 20
99.4472648002006
 40
0.1476736326475401
  0
CIRCLE
  8
_1-0_
  6
CONTINUOUS
 62
    7
 10
372.91519577438771
 20
98.561219911317579
 40
0.1476736326475401
  0
CIRCLE
  8
_1-0_
  6
CONTINUOUS
 62
    7
 10
371.4384749129012
 20
98.85656408361487
 40
0.1476736326475401
  0
CIRCLE
  8
_1-0_
  6
CONTINUOUS
 62
    7
 10
369.74022117820948
 20
99.890281058646536
 40
0.1476736326475401
  0
CIRCLE
  8
_1-0_
  6
CONTINUOUS
 62
    7
 10
365.10282774229307
 20
100.90555139490077
 40
0.1651024093499055
  0
CIRCLE
  8
_1-0_
  6
CONTINUOUS
 62
    7
 10
363.33076270850933
 20
99.945682834934544
 40
0.1651024093499055
  0
CIRCLE
  8
_1-0_
  6
CONTINUOUS
 62
    7
 10
360.37729624155406
 20
101.27473161027238
 40
0.1651024093499055
  0
CIRCLE
  8
_1-0_
  6
CONTINUOUS
 62
    7
 10
364.58320411475933
 20
98.922383076435821
 40
0.1476736326475401
  0
CIRCLE
  8
_1-0_
  6
CONTINUOUS
 62
    7
 10
362.36809807854729
 20
99.956100051467487
 40
0.1476736326475401
  0
CIRCLE
  8
_1-0_
  6
CONTINUOUS
 62
    7
 10
361.18669664537589
 20
100.84213256835937
 40
0.1476736326475401
  0
CIRCLE
  8
_1-0_
  6
CONTINUOUS
 62
    7
 10
364.14018785631339
 20
101.4328332849451
 40
0.1476736326475401
  0
CIRCLE
  8
_1-0_
  6
CONTINUOUS
 62
    7
 10
363.84484368401604
 20
101.50666932801943
 40
0.1476736326475401
  0
CIRCLE
  8
_1-0_
  6
CONTINUOUS
 62
    7
 10
359.34079556851776
 20
102.90956651842272
 40
0.1476736326475401
  0
CIRCLE
  8
_1-0_
  6
CONTINUOUS
 62
    7
 10
360.52217225770693
 20
102.98340256149704
 40
0.1476736326475401
  0
CIRCLE
  8
_1-0_
  6
CONTINUOUS
 62
    7
 10
360.37450017155828
 20
102.17120608767948
 40
0.1476736326475401
  0
CIRCLE
  8
_1-0_
  6
CONTINUOUS
 62
    7
 10
358.52859909470021
 20
101.21132515572214
 40
0.1476736326475401
  0
CIRCLE
  8
_1-0_
  6
CONTINUOUS
 62
    7
 10
360.30066412848396
 20
100.32528026683912
 40
0.1476736326475401
  0
CIRCLE
  8
_1-0_
  6
CONTINUOUS
 62
    7
 10
358.8239432669975
 20
100.62062443913641
 40
0.1476736326475401
  0
CIRCLE
  8
_1-0_
  6
CONTINUOUS
 62
    7
 10
357.12568953230578
 20
101.65434141416809
 40
0.1476736326475401
  0
CIRCLE
  8
_1-0_
  6
CONTINUOUS
 62
    7
 10
358.45476305162589
 20
102.90956651842272
 40
0.1476736326475401
  0
CIRCLE
  8
_1-0_
  6
CONTINUOUS
 62
    7
 10
363.55165223817568
 20
99.809640420449753
 40
0.1651024093499055
  0
CIRCLE
  8
_1-0_
  6
CONTINUOUS
 62
    7
 10
364.60525100295609
 20
102.79559573611698
 40
0.1476736326475401
  0
CIRCLE
  8
_1-0_
  6
CONTINUOUS
 62
    7
 10
361.94715345228042
 20
103.16478832347974
 40
0.1476736326475401
  0
CIRCLE
  8
_1-0_
  6
CONTINUOUS
 62
    7
 10
363.71921848606422
 20
102.27874343459671
 40
0.1476736326475401
  0
CIRCLE
  8
_1-0_
  6
CONTINUOUS
 62
    7
 10
362.24249762457771
 20
102.57408760689401
 40
0.1476736326475401
  0
CIRCLE
  8
_1-0_
  6
CONTINUOUS
 62
    7
 10
360.54424388988599
 20
103.60780458192568
 40
0.1476736326475401
  0
CIRCLE
  8
_1-0_
  6
CONTINUOUS
 62
    7
 10
381.92950274493245
 20
93.861818055848829
 40
0.1651024093499055
  0
CIRCLE
  8
_1-0_
  6
CONTINUOUS
 62
    7
 10
380.15743771114865
 20
92.901949495882604
 40
0.1651024093499055
  0
CIRCLE
  8
_1-0_
  6
CONTINUOUS
 62
    7
 10
377.20397124419344
 20
94.230998271220443
 40
0.1651024093499055
  0
CIRCLE
  8
_1-0_
  6
CONTINUOUS
 62
    7
 10
381.40987911739865
 20
91.878649737383867
 40
0.1476736326475401
  0
CIRCLE
  8
_1-0_
  6
CONTINUOUS
 62
    7
 10
379.19477308118667
 20
92.912366712415547
 40
0.1476736326475401
  0
CIRCLE
  8
_1-0_
  6
CONTINUOUS
 62
    7
 10
378.01337164801521
 20
93.798399229307435
 40
0.1476736326475401
  0
CIRCLE
  8
_1-0_
  6
CONTINUOUS
 62
    7
 10
380.96686285895271
 20
94.389099945893165
 40
0.1476736326475401
  0
CIRCLE
  8
_1-0_
  6
CONTINUOUS
 62
    7
 10
380.67151868665542
 20
94.462935988967487
 40
0.1476736326475401
  0
CIRCLE
  8
_1-0_
  6
CONTINUOUS
 62
    7
 10
376.16747057115714
 20
95.865833179370782
 40
0.1476736326475401
  0
CIRCLE
  8
_1-0_
  6
CONTINUOUS
 62
    7
 10
377.3488472603463
 20
95.939669222445104
 40
0.1476736326475401
  0
CIRCLE
  8
_1-0_
  6
CONTINUOUS
 62
    7
 10
377.20117517419766
 20
95.12747274862754
 40
0.1476736326475401
  0
CIRCLE
  8
_1-0_
  6
CONTINUOUS
 62
    7
 10
375.35527409733953
 20
94.167591816670196
 40
0.1476736326475401
  0
CIRCLE
  8
_1-0_
  6
CONTINUOUS
 62
    7
 10
377.12733913112334
 20
93.281546927787161
 40
0.1476736326475401
  0
CIRCLE
  8
_1-0_
  6
CONTINUOUS
 62
    7
 10
375.65061826963682
 20
93.576891100084467
 40
0.1476736326475401
  0
CIRCLE
  8
_1-0_
  6
CONTINUOUS
 62
    7
 10
373.9523645349451
 20
94.610608075116133
 40
0.1476736326475401
  0
CIRCLE
  8
_1-0_
  6
CONTINUOUS
 62
    7
 10
375.28143805426521
 20
95.865833179370782
 40
0.1476736326475401
  0
CIRCLE
  8
_1-0_
  6
CONTINUOUS
 62
    7
 10
380.37832724081505
 20
92.765907081397813
 40
0.1651024093499055
  0
CIRCLE
  8
_1-0_
  6
CONTINUOUS
 62
    7
 10
381.43192600559547
 20
95.75186239706504
 40
0.1476736326475401
  0
CIRCLE
  8
_1-0_
  6
CONTINUOUS
 62
    7
 10
378.77382845491979
 20
96.121054984427786
 40
0.1476736326475401
  0
CIRCLE
  8
_1-0_
  6
CONTINUOUS
 62
    7
 10
380.54589348870354
 20
95.235010095544766
 40
0.1476736326475401
  0
CIRCLE
  8
_1-0_
  6
CONTINUOUS
 62
    7
 10
379.06917262721709
 20
95.530354267842071
 40
0.1476736326475401
  0
CIRCLE
  8
_1-0_
  6
CONTINUOUS
 62
    7
 10
377.37091889252537
 20
96.564071242873737
 40
0.1476736326475401
  0
TEXT
  8
_0-0_
 62
    7
 10
147.56756962956609
 20
22.702702702702709
 40
2.5
 41
1
 50
0
  1
図名
  0
TEXT
  8
_0-0_
 62
    7
 10
147.56756962956609
 20
12.972972972972968
 40
2.5
 41
1
 50
0
  1
縮尺
  0
TEXT
  8
_0-0_
 62
    7
 10
382.77784605284
 20
21.243871740392734
 40
2.5
 41
1
 50
0
  1
ＮＯ
  0
TEXT
  8
_0-0_
 62
    7
 10
20.270270012520456
 20
22.702702702702709
 40
2.5
 41
1
 50
0
  1
Ｆ形
  0
TEXT
  8
_0-0_
 62
    7
 10
389.99062615471917
 20
16.178650211643514
 40
2.5
 41
1
 50
0
  1
Ｆ
  0
TEXT
  8
_0-0_
 62
    7
 10
171.37221877639359
 20
12.362518826046511
 40
2.5
 41
1
 50
0
  1
1/5
  0
TEXT
  8
_0-1_
 62
    7
 10
41.891723323512736
 20
146.17057181693414
 40
2.5
 41
1
 50
0
  1
桟瓦
  0
TEXT
  8
_0-1_
 62
    7
 10
131.82751423603781
 20
83.615916484111068
 40
2.5
 41
1
 50
0
  1
瓦桟
  0
TEXT
  8
_1-3_
 62
    7
 10
31.231870393495313
 20
18.589955922719582
 40
2.5
 41
1
 50
0
  1
ＲＣ
  0
TEXT
  8
_1-0_
 62
    7
 10
131.33519353093328
 20
62.833687034813138
 40
2.5
 41
1
 50
0
  1
パーライト系モルタル　　ｔ＝50
  0
TEXT
  8
_1-3_
 62
    7
 10
398.95336666622677
 20
14.330065959208724
 40
2.5
 41
1
 50
0
  1
25
  0
LINE
  8
_1-0_
  6
DASHED1
 62
    7
 10
22.155204979149062
 20
98.239028518264362
 11
204.32433669631547
 21
180.21514892578125
  0
LINE
  8
_1-0_
  6
DASHED1
 62
    7
 10
204.32433669631547
 20
180.21514892578125
 11
249.92041207251469
 21
159.69691532032783
  0
LINE
  8
_1-0_
  6
DASHED1
 62
    7
 10
204.20122729468275
 20
179.94157247352405
 11
249.79730267088198
 21
159.42333886807063
  0
LINE
  8
_1-0_
  6
DASHED1
 62
    7
 10
249.79730267088198
 20
159.42333886807063
 11
386.31618606731604
 21
97.989842279330105
  0
LINE
  8
_1-0_
  6
DASHED1
 62
    7
 10
204.20122729468275
 20
179.94157247352405
 11
158.60515348342756
 21
159.42333539041752
  0
POINT
  8
_1-2_
 62
    7
 10
178.46103339918724
 20
115.29914473631328
  0
POINT
  8
_1-2_
 62
    7
 10
224.05711093121209
 20
135.81737355104036
  0
LINE
  8
_1-2_
  6
CONTINUOUS
 62
    7
 10
178.46103339918724
 20
115.29914473631328
 11
161.58002443916973
 21
152.81250908710473
  0
LINE
  8
_1-2_
  6
CONTINUOUS
 62
    7
 10
224.05711093121209
 20
135.81737355104036
 11
207.17610197119456
 21
173.33073790183181
  0
POINT
  8
_1-2_
 62
    7
 10
185.97132030157101
 20
138.7727833000346
  0
POINT
  8
_1-2_
 62
    7
 10
231.32120168133054
 20
118.36533667719561
  0
LINE
  8
_1-2_
  6
CONTINUOUS
 62
    7
 10
185.97132030157101
 20
138.7727833000346
 11
202.44610081280968
 21
175.38340665484949
  0
LINE
  8
_1-2_
  6
CONTINUOUS
 62
    7
 10
231.32120168133054
 20
118.36533667719561
 11
247.79598219256923
 21
154.97596003201051
  0
LINE
  8
_1-2_
  6
CONTINUOUS
 62
    7
 10
178.46103339918724
 20
115.29914473631328
 11
224.05711093121209
 21
135.81737355104036
  0
TEXT
  8
_1-2_
 62
    7
 10
199.34403696960143
 20
125.24478633844481
 40
2.5
 41
1
 50
24.227738970000019
  1
250
  0
LINE
  8
_1-2_
  6
CONTINUOUS
 62
    7
 10
185.97132030157101
 20
138.7727833000346
 11
231.32120168133054
 21
118.36533667719561
  0
TEXT
  8
_1-2_
 62
    7
 10
212.10282966110603
 20
127.31168511299907
 40
2.5
 41
1
 50
-24.227745320000011
  1
250
  0
TEXT
  8
_1-0_
 62
    7
 10
143.71827683649229
 20
80.229657137498236
 40
2.5
 41
1
 50
0
  1
※　地域により瓦桟木の大きさは、異なります
  0
TEXT
  8
_1-0_
 62
    7
 10
152.07632315525152
 20
246.47763572083136
 40
2.5
 41
1
 50
0
  1
パッキン付ステンレスネジ
  0
TEXT
  8
_1-3_
 62
    7
 10
159.95653389663926
 20
230.86314406660003
 40
2.5
 41
1
 50
0
  1
棟補強芯材　40ｘ40
  0
TEXT
  8
_1-3_
 62
    7
 10
171.33906052308825
 20
219.9184069257837
 40
2.5
 41
1
 50
0
  1
棟補強金具
  0
TEXT
  8
_1-3_
 62
    7
 10
231.60807971185019
 20
229.98756509533473
 40
2.5
 41
1
 50
0
  1
冠瓦
  0
TEXT
  8
_1-0_
 62
    7
 10
143.30407706064528
 20
83.413735322655526
 40
2.5
 41
1
 50
0
  1
15×21　（樹脂桟木）
  0
TEXT
  8
_0-1_
 62
    7
 10
131.82751217403927
 20
76.112006934913438
 40
2.5
 41
1
 50
0
  1
縦桟
  0
TEXT
  8
_0-1_
 62
    7
 10
131.77492587229824
 20
70.426669638234671
 40
2.5
 41
1
 50
0
  1
ルーフィング
  0
TEXT
  8
_1-0_
 62
    7
 10
142.91367489093872
 20
46.079788456408295
 40
2.5
 41
1
 50
0
  1
棟部分のルーフィングは、両方向へそれぞれ250ｍｍ以上重ね合わせること。
  0
TEXT
  8
_1-0_
 62
    7
 10
143.00146654000969
 20
41.968464455405325
 40
2.5
 41
1
 50
0
  1
隅棟部分のルーフィングは、重ね貼りの上に両方向へそれぞれ250ｍｍ以上増し貼りをすること。
  0
LINE
  8
ADD_LINE
  6
DOT
 62
    4
 10
204.32432432432432
 20
199.8768266198274
 11
204.32432432432432
 21
162.40598940504384
  0
LINE
  8
_1-5_
  6
CONTINUOUS
 62
    7
 10
188.61366652725212
 20
187.06159113106457
 11
188.13963037883542
 21
181.58862832661731
  0
LINE
  8
_1-2_
  6
CONTINUOUS
 62
    7
 10
196.40697994747677
 20
184.70583529085727
 11
198.32324041363131
 21
178.83055639343777
  0
SOLID
  8
_1-5_
  6
CONTINUOUS
 62
    8
 10
188.61366652725212
 20
187.06159113106457
 11
188.13963037883542
 21
181.58862832661731
 12
192.72819312843117
 22
183.08522817250847
 13
192.72819312843117
 23
183.08522817250847
  0
SOLID
  8
_1-5_
  6
CONTINUOUS
 62
    8
 10
188.61366652725212
 20
187.06159113106457
 11
192.72819312843117
 21
183.08522817250847
 12
193.12075640704182
 22
185.10656408361487
 13
193.12075640704182
 23
185.10656408361487
  0
SOLID
  8
_1-5_
  6
CONTINUOUS
 62
    8
 10
188.61366652725212
 20
187.06159113106457
 11
193.12075640704182
 21
185.10656408361487
 12
194.33425078520904
 22
185.50236882390203
 13
194.33425078520904
 23
185.50236882390203
  0
SOLID
  8
_1-5_
  6
CONTINUOUS
 62
    8
 10
188.61366652725212
 20
187.06159113106457
 11
194.33425078520904
 21
185.50236882390203
 12
194.45584271405195
 22
186.17312869510135
 13
194.45584271405195
 23
186.17312869510135
  0
SOLID
  8
_1-5_
  6
CONTINUOUS
 62
    8
 10
188.61366652725212
 20
187.06159113106457
 11
194.45584271405195
 21
186.17312869510135
 12
195.78682152000636
 22
186.60726186391472
 13
195.78682152000636
 23
186.60726186391472
  0
SOLID
  8
_1-5_
  6
CONTINUOUS
 62
    8
 10
198.32324041363131
 20
178.83055639343777
 11
200.92432795344175
 21
180.0010516192462
 12
200.9243155814506
 22
190.44850529851141
 13
200.9243155814506
 23
190.44850529851141
  0
SOLID
  8
_1-5_
  6
CONTINUOUS
 62
    8
 10
203.72431987040753
 20
194.58719483972709
 11
188.61366652725212
 21
187.06159113106457
 12
195.78682152000636
 22
186.60726186391472
 13
195.78682152000636
 23
186.60726186391472
  0
SOLID
  8
_1-5_
  6
CONTINUOUS
 62
    8
 10
195.78682152000636
 20
186.60726186391472
 11
198.32324041363131
 21
178.83055639343777
 12
200.9243155814506
 22
190.44850529851141
 13
200.9243155814506
 23
190.44850529851141
  0
SOLID
  8
_1-5_
  6
CONTINUOUS
 62
    8
 10
200.9243155814506
 20
190.44850529851141
 11
201.32431442673143
 21
190.44850529851141
 12
201.32431442673143
 22
192.08173184781461
 13
201.32431442673143
 23
192.08173184781461
  0
SOLID
  8
_1-5_
  6
CONTINUOUS
 62
    8
 10
195.78682152000636
 20
186.60726186391472
 11
200.9243155814506
 21
190.44850529851141
 12
201.32431442673143
 22
192.08173184781461
 13
201.32431442673143
 23
192.08173184781461
  0
SOLID
  8
_1-5_
  6
CONTINUOUS
 62
    8
 10
201.32431442673143
 20
192.08173184781461
 11
203.72431987040753
 21
192.08173184781461
 12
203.72431987040753
 22
194.58719483972709
 13
203.72431987040753
 23
194.58719483972709
  0
SOLID
  8
_1-5_
  6
CONTINUOUS
 62
    8
 10
201.32431442673143
 20
192.08173184781461
 11
203.72431987040753
 21
194.58719483972709
 12
195.78682152000636
 22
186.60726186391472
 13
195.78682152000636
 23
186.60726186391472
  0
LINE
  8
_1-5_
  6
CONTINUOUS
 62
    7
 10
220.03498212139655
 20
187.06159113106457
 11
220.50901826981325
 21
181.58862832661731
  0
SOLID
  8
_1-5_
  6
CONTINUOUS
 62
    8
 10
220.03498212139655
 20
187.06159113106457
 11
220.50901826981325
 21
181.58862832661731
 12
215.9204555202175
 22
183.08522817250847
 13
215.9204555202175
 23
183.08522817250847
  0
SOLID
  8
_1-5_
  6
CONTINUOUS
 62
    8
 10
220.03498212139655
 20
187.06159113106457
 11
215.9204555202175
 21
183.08522817250847
 12
215.52789224160685
 22
185.10656408361487
 13
215.52789224160685
 23
185.10656408361487
  0
SOLID
  8
_1-5_
  6
CONTINUOUS
 62
    8
 10
220.03498212139655
 20
187.06159113106457
 11
215.52789224160685
 21
185.10656408361487
 12
214.31439786343964
 22
185.50236882390203
 13
214.31439786343964
 23
185.50236882390203
  0
SOLID
  8
_1-5_
  6
CONTINUOUS
 62
    8
 10
220.03498212139655
 20
187.06159113106457
 11
214.31439786343964
 21
185.50236882390203
 12
214.19280593459672
 22
186.17312869510135
 13
214.19280593459672
 23
186.17312869510135
  0
SOLID
  8
_1-5_
  6
CONTINUOUS
 62
    8
 10
220.03498212139655
 20
187.06159113106457
 11
214.19280593459672
 21
186.17312869510135
 12
212.86182712864232
 22
186.60726186391472
 13
212.86182712864232
 23
186.60726186391472
  0
SOLID
  8
_1-5_
  6
CONTINUOUS
 62
    8
 10
210.32540823501736
 20
178.83055639343777
 11
207.72432069520693
 21
180.0010516192462
 12
207.72433306719807
 22
190.44850529851141
 13
207.72433306719807
 23
190.44850529851141
  0
SOLID
  8
_1-5_
  6
CONTINUOUS
 62
    8
 10
204.92432877824115
 20
194.58719483972709
 11
220.03498212139655
 21
187.06159113106457
 12
212.86182712864232
 22
186.60726186391472
 13
212.86182712864232
 23
186.60726186391472
  0
SOLID
  8
_1-5_
  6
CONTINUOUS
 62
    8
 10
212.86182712864232
 20
186.60726186391472
 11
210.32540823501736
 21
178.83055639343777
 12
207.72433306719807
 22
190.44850529851141
 13
207.72433306719807
 23
190.44850529851141
  0
SOLID
  8
_1-5_
  6
CONTINUOUS
 62
    8
 10
207.72433306719807
 20
190.44850529851141
 11
207.32433422191724
 21
190.44850529851141
 12
207.32433422191724
 22
192.08173184781461
 13
207.32433422191724
 23
192.08173184781461
  0
SOLID
  8
_1-5_
  6
CONTINUOUS
 62
    8
 10
212.86182712864232
 20
186.60726186391472
 11
207.72433306719807
 21
190.44850529851141
 12
207.32433422191724
 22
192.08173184781461
 13
207.32433422191724
 23
192.08173184781461
  0
SOLID
  8
_1-5_
  6
CONTINUOUS
 62
    8
 10
207.32433422191724
 20
192.08173184781461
 11
204.92432877824115
 21
192.08173184781461
 12
204.92432877824115
 22
194.58719483972709
 13
204.92432877824115
 23
194.58719483972709
  0
SOLID
  8
_1-5_
  6
CONTINUOUS
 62
    8
 10
207.32433422191724
 20
192.08173184781461
 11
204.92432877824115
 21
194.58719483972709
 12
212.86182712864232
 22
186.60726186391472
 13
212.86182712864232
 23
186.60726186391472
  0
LINE
  8
_1-3_
  6
CONTINUOUS
 62
    7
 10
216.67829128141724
 20
186.89710281078948
 11
226.2674435447417
 21
213.24309546028866
  0
LINE
  8
_1-3_
  6
CONTINUOUS
 62
    7
 10
226.2674435447417
 20
213.24309546028866
 11
230.26762736656113
 21
213.24309546028866
  0
TEXT
  8
_1-3_
 62
    7
 10
230.70132958204442
 20
212.05183130882176
 40
2.5
 41
1
 50
0
  1
南蛮漆喰又はモルタル
  0
TEXT
  8
_1-1_
 62
    7
 10
45.397582698512736
 20
13.77361400707349
 40
2.5
 41
1
 50
0
  1
棟　4
  0
ENDSEC
  0
EOF
