  0
SECTION
  2
HEADER
  9
$ACADVER
  1
AC1009
  9
$INSBASE
 10
0
 20
0
 30
0
  9
$EXTMIN
 10
0
 20
0
  9
$EXTMAX
 10
420
 20
297
  9
$LIMMIN
 10
0
 20
0
  9
$LIMMAX
 10
420
 20
297
  9
$LTSCALE
 40
1
  0
ENDSEC
  0
SECTION
  2
TABLES
  0
TABLE
  2
LTYPE
 70
     9
  0
LTYPE
  2
CONTINUOUS
 70
    64
  3
実線
 72
    65
 73
     0
 40
0.0
  0
LTYPE
  2
DASHED1
 70
    64
  3
--  --  --  --  --  --  --  --  
 72
    65
 73
     2
 40
2.5
 49
1.25
 49
-1.25
  0
LTYPE
  2
DASHED2
 70
    64
  3
----    ----    ----    ----    
 72
    65
 73
     2
 40
5.0
 49
2.5
 49
-2.5
  0
LTYPE
  2
DASHED3
 70
    64
  3
------  ------  ------  ------  
 72
    65
 73
     2
 40
5.0
 49
3.75
 49
-1.25
  0
LTYPE
  2
CENTER1
 70
    64
  3
----- - ----- - ----- - ----- - 
 72
    65
 73
     4
 40
10.0
 49
6.25
 49
-1.25
 49
1.25
 49
-1.25
  0
LTYPE
  2
CENTER2
 70
    64
  3
----------  --  ----------  --  
 72
    65
 73
     4
 40
20.0
 49
12.5
 49
-2.5
 49
2.5
 49
-2.5
  0
LTYPE
  2
PHANTOM1
 70
    64
  3
--- - - --- - - --- - - --- - - 
 72
    65
 73
     6
 40
10.0
 49
3.25
 49
-1.25
 49
1.25
 49
-1.25
 49
1.25
 49
-1.25
  0
LTYPE
  2
PHANTOM2
 70
    64
  3
--------  -  -  --------  -  -  
 72
    65
 73
     6
 40
20.0
 49
10.0
 49
-2.5
 49
1.25
 49
-2.5
 49
1.25
 49
-2.5
  0
LTYPE
  2
DOT
 70
    64
  3
-   -   -   -   -   -   -   -   
 72
    65
 73
     2
 40
2.5
 49
0.625
 49
-1.875
  0
LTYPE
  2
DUMMY
 70
    64
  3
ダミー
 72
    65
 73
     0
 40
0.0
  0
LTYPE
  2
RAND1
 70
    64
  3
ランダム線1
 72
    65
 73
     4
 40
10.0
 49
1.0
 49
-2.0
 49
3.0
 49
-4.0
  0
LTYPE
  2
RAND2
 70
    64
  3
ランダム線2
 72
    65
 73
     4
 40
14.0
 49
2.0
 49
-3.0
 49
4.0
 49
-5.0
  0
LTYPE
  2
RAND3
 70
    64
  3
ランダム線3
 72
    65
 73
     4
 40
18.0
 49
3.0
 49
-4.0
 49
5.0
 49
-6.0
  0
LTYPE
  2
RAND4
 70
    64
  3
ランダム線4
 72
    65
 73
     4
 40
22.0
 49
4.0
 49
-5.0
 49
6.0
 49
-7.0
  0
LTYPE
  2
RAND5
 70
    64
  3
ランダム線5
 72
    65
 73
     4
 40
26.0
 49
5.0
 49
-6.0
 49
7.0
 49
-8.0
  0
LTYPE
  2
LONG1
 70
    64
  3
----------  --  ----------  --  
 72
    65
 73
     4
 40
40.0
 49
32.5
 49
-2.5
 49
2.5
 49
-2.5
  0
LTYPE
  2
LONG2
 70
    64
  3
--------  -  -  --------  -  -  
 72
    65
 73
     6
 40
40.0
 49
30.0
 49
-2.5
 49
1.25
 49
-2.5
 49
1.25
 49
-2.5
  0
LTYPE
  2
LONG3
 70
    64
  3
+++++++++++++++..+++++++++++++++
 72
    65
 73
     2
 40
40.0
 49
37.5
 49
-2.5
  0
LTYPE
  2
LONG4
 70
    64
  3
+++++++++++++++..+++++++++++++++
 72
    65
 73
     2
 40
80.0
 49
75.0
 49
-5.0
  0
LTYPE
  2
LONG5
 70
    64
  3
----------  --  ----------  --  
 72
    65
 73
     4
 40
60.0
 49
37.5
 49
-7.5
 49
7.5
 49
-7.5
  0
LTYPE
  2
dashed
 70
   64
  3
-------   -------------   ------
 72
   65
 73
    2
 40
7.5
 49
6
 49
-1.5
  0
LTYPE
  2
dashed_spaced
 70
   64
  3
----        --------        ----
 72
   65
 73
    2
 40
12
 49
6
 49
-6
  0
LTYPE
  2
long_dashed_dotted
 70
   64
  3
------------- --- --------------
 72
   65
 73
    4
 40
15.25
 49
12
 49
-1.5
 49
0.25
 49
-1.5
  0
LTYPE
  2
long_dashed_double-dotted
 70
   64
  3
----------- --- --- ------------
 72
   65
 73
    6
 40
17
 49
12
 49
-1.5
 49
0.25
 49
-1.5
 49
0.25
 49
-1.5
  0
LTYPE
  2
long_dashed_triplicate-dotted
 70
   64
  3
--------- --- --- --- ----------
 72
   65
 73
    8
 40
18.75
 49
12
 49
-1.5
 49
0.25
 49
-1.5
 49
0.25
 49
-1.5
 49
0.25
 49
-1.5
  0
LTYPE
  2
dotted
 70
   64
  3
   -       -       -       -    
 72
   65
 73
    2
 40
1.75
 49
0.25
 49
-1.5
  0
LTYPE
  2
chain
 70
   64
  3
-------------- -- --------------
 72
   65
 73
    4
 40
18.5
 49
12
 49
-1.5
 49
3.5
 49
-1.5
  0
LTYPE
  2
chain_double_dash
 70
   64
  3
------------ -- -- -------------
 72
   65
 73
    6
 40
23.5
 49
12
 49
-1.5
 49
3.5
 49
-1.5
 49
3.5
 49
-1.5
  0
LTYPE
  2
dashed_dotted
 70
   64
  3
-----------     -     ----------
 72
   65
 73
    4
 40
9.25
 49
6
 49
-1.5
 49
0.25
 49
-1.5
  0
LTYPE
  2
double-dashed_dotted
 70
   64
  3
------   -----------   -   -----
 72
   65
 73
    6
 40
16.75
 49
6
 49
-1.5
 49
6
 49
-1.5
 49
0.25
 49
-1.5
  0
LTYPE
  2
dashed_double-dotted
 70
   64
  3
---------    -    -    ---------
 72
   65
 73
    6
 40
11
 49
6
 49
-1.5
 49
0.25
 49
-1.5
 49
0.25
 49
-1.5
  0
LTYPE
  2
double-dashed_double-dotted
 70
   64
  3
-----   ---------   -   -   ----
 72
   65
 73
    8
 40
18.5
 49
6
 49
-1.5
 49
6
 49
-1.5
 49
0.25
 49
-1.5
 49
0.25
 49
-1.5
  0
LTYPE
  2
dashed_triplicate-dotted
 70
   64
  3
-------    -    -    -    ------
 72
   65
 73
    8
 40
12.75
 49
6
 49
-1.5
 49
0.25
 49
-1.5
 49
0.25
 49
-1.5
 49
0.25
 49
-1.5
  0
LTYPE
  2
double-dashed_triplicate-dotted
 70
   64
  3
-----  ---------  -  -  -  -----
 72
   65
 73
   10
 40
20.25
 49
6
 49
-1.5
 49
6
 49
-1.5
 49
0.25
 49
-1.5
 49
0.25
 49
-1.5
 49
0.25
 49
-1.5
  0
LTYPE
  2
undefined
 70
   64
  3
--------------------------------
 72
   65
 73
    0
 40
0
  0
LTYPE
  2
DOT_17
 70
   64
  3
--             ---             -
 72
   65
 73
    2
 40
5
 49
1
 49
-4
  0
LTYPE
  2
DASHED
 70
   64
  3
---          ------          ---
 72
   65
 73
    2
 40
5
 49
2
 49
-3
  0
LTYPE
  2
DASHED2_19
 70
   64
  3
---          ------          ---
 72
   65
 73
    2
 40
10
 49
4
 49
-6
  0
LTYPE
  2
CENTER
 70
   64
  3
----------    ----    ----------
 72
   65
 73
    4
 40
9
 49
6
 49
-1
 49
1
 49
-1
  0
LTYPE
  2
CENTER2_21
 70
   64
  3
----------    ----    ----------
 72
   65
 73
    4
 40
18
 49
12
 49
-2
 49
2
 49
-2
  0
LTYPE
  2
PHANTOM
 70
   64
  3
---------   ---   ---   --------
 72
   65
 73
    6
 40
10
 49
5
 49
-1
 49
1
 49
-1
 49
1
 49
-1
  0
LTYPE
  2
PHANTOM2_23
 70
   64
  3
------    ----    ----    ------
 72
   65
 73
    6
 40
16
 49
6
 49
-2
 49
2
 49
-2
 49
2
 49
-2
  0
LTYPE
  2
HIDDEN
 70
   64
  3
--             ---             -
 72
   65
 73
    2
 40
2.5
 49
0.5
 49
-2
  0
ENDTAB
  0
TABLE
  2
STYLE
  5
3
100
AcDbSymbolTable
 70
     1
  0
STYLE
  5
10
100
AcDbSymbolTableRecord
100
AcDbTextStyleTableRecord
  2
STANDARD
 70
     0
 40
0.0
 41
1.0
 50
0.0
 71
     0
 42
0.2
  3
txt
  4
bigfont.shx
  0
STYLE
  5
26
100
AcDbSymbolTableRecord
100
AcDbTextStyleTableRecord
  2
TATEGAKI
 70
    68
 40
0.0
 41
1.0
 50
0.0
 71
     0
 42
1.0
  3
txt
  4
bigfont.shx
  0
ENDTAB
  0
TABLE
  2
LAYER
 70
    7
  0
LAYER
  2
_0-0_
 70
   64
 62
    7
  6
CONTINUOUS
  0
LAYER
  2
_0-1_
 70
   64
 62
    7
  6
CONTINUOUS
  0
LAYER
  2
_1-0_
 70
   64
 62
    7
  6
CONTINUOUS
  0
LAYER
  2
_1-1_
 70
   64
 62
    7
  6
CONTINUOUS
  0
LAYER
  2
_1-2_
 70
   64
 62
    7
  6
CONTINUOUS
  0
LAYER
  2
_1-4_
 70
   64
 62
    7
  6
CONTINUOUS
  0
LAYER
  2
ADD_LINE
 70
   64
 62
    7
  6
CONTINUOUS
  0
ENDTAB
  0
ENDSEC
  0
SECTION
  2
BLOCKS
  0
ENDSEC
  0
SECTION
  2
ENTITIES
  0
LINE
  8
_0-0_
  6
CONTINUOUS
 62
    5
 10
12.432428308435391
 20
278.51351351351354
 11
412.43244892842063
 21
278.51351351351354
  0
LINE
  8
_0-0_
  6
CONTINUOUS
 62
    5
 10
412.43244892842063
 20
28.513511451515001
 11
12.432415936444272
 21
28.513511451515001
  0
LINE
  8
_0-0_
  6
CONTINUOUS
 62
    5
 10
377.43248192039698
 20
8.5135135135135158
 11
377.43248192039698
 21
28.513511451515001
  0
LINE
  8
_0-0_
  6
CONTINUOUS
 62
    5
 10
142.70271507469386
 20
28.513511451515001
 11
142.70271507469386
 21
8.5135135135135158
  0
LINE
  8
_0-0_
  6
CONTINUOUS
 62
    5
 10
220.54054054054055
 20
28.513511451515001
 11
220.54054054054055
 21
8.5135135135135158
  0
LINE
  8
_0-0_
  6
CONTINUOUS
 62
    5
 10
142.70271507469386
 20
18.513512482514244
 11
220.54054054054055
 21
18.513512482514244
  0
LINE
  8
_0-0_
  6
CONTINUOUS
 62
    5
 10
402.16218690614443
 20
24.324325870823216
 11
389.59456985061234
 21
11.756758303255651
  0
LINE
  8
_1-0_
  6
CONTINUOUS
 62
    7
 10
72.270268620671459
 20
178.45946440825591
 11
82.27047482052366
 21
178.45946440825591
  0
LINE
  8
_1-0_
  6
CONTINUOUS
 62
    7
 10
82.27047482052366
 20
169.45945945945948
 11
391.09257053684547
 21
169.45945945945948
  0
LINE
  8
_1-0_
  6
CONTINUOUS
 62
    7
 10
88.870474325644011
 20
170.65946836729307
 11
391.09257053684547
 21
170.65946836729307
  0
LINE
  8
_1-0_
  6
CONTINUOUS
 62
    7
 10
88.870474325644011
 20
171.2594728212099
 11
391.09259528082771
 21
171.2594728212099
  0
LINE
  8
_1-0_
  6
CONTINUOUS
 62
    7
 10
88.870474325644011
 20
171.2594728212099
 11
88.870474325644011
 21
170.65946836729307
  0
LINE
  8
_1-0_
  6
CONTINUOUS
 62
    2
 10
83.181461643528294
 20
170.48158387880068
 11
88.440776515651393
 21
170.48158387880068
  0
LINE
  8
_1-0_
  6
CONTINUOUS
 62
    2
 10
88.440776515651393
 20
170.48158387880068
 11
88.440776515651393
 21
172.73556271114865
  0
LINE
  8
_1-0_
  6
CONTINUOUS
 62
    7
 10
88.870474325644011
 20
174.25947034681167
 11
88.870474325644011
 21
171.2594728212099
  0
LINE
  8
_1-0_
  6
CONTINUOUS
 62
    2
 10
88.440776515651393
 20
172.73556271114865
 11
88.440776515651393
 21
174.10540194124789
  0
LINE
  8
_1-0_
  6
CONTINUOUS
 62
    2
 10
88.440776515651393
 20
174.10540194124789
 11
87.384728096626901
 21
174.10540194124789
  0
LINE
  8
ADD_LINE
  6
DOT
 62
    4
 10
147.47027422930745
 20
174.25947034681167
 11
147.47027422930745
 21
171.2594728212099
  0
LINE
  8
_1-0_
  6
CONTINUOUS
 62
    7
 10
88.870474325644011
 20
170.65946836729307
 11
88.870474325644011
 21
171.2594728212099
  0
LINE
  8
_1-0_
  6
CONTINUOUS
 62
    7
 10
88.870474325644011
 20
171.2594728212099
 11
91.670268290751693
 21
171.2594728212099
  0
LINE
  8
_1-0_
  6
CONTINUOUS
 62
    7
 10
91.670268290751693
 20
171.2594728212099
 11
91.670268290751693
 21
170.65946836729307
  0
LINE
  8
_1-0_
  6
CONTINUOUS
 62
    7
 10
91.670268290751693
 20
170.65946836729307
 11
88.870474325644011
 21
170.65946836729307
  0
LINE
  8
_1-0_
  6
CONTINUOUS
 62
    7
 10
88.870474325644011
 20
171.2594728212099
 11
91.670268290751693
 21
170.65946836729307
  0
LINE
  8
_1-0_
  6
CONTINUOUS
 62
    7
 10
147.47027422930745
 20
170.65946836729307
 11
147.47027422930745
 21
171.2594728212099
  0
LINE
  8
_1-0_
  6
CONTINUOUS
 62
    7
 10
147.47027422930745
 20
171.2594728212099
 11
152.27027274466852
 21
171.2594728212099
  0
LINE
  8
_1-0_
  6
CONTINUOUS
 62
    7
 10
152.27027274466852
 20
171.2594728212099
 11
152.27027274466852
 21
170.65946836729307
  0
LINE
  8
_1-0_
  6
CONTINUOUS
 62
    7
 10
152.27027274466852
 20
170.65946836729307
 11
147.47027422930745
 21
170.65946836729307
  0
LINE
  8
_1-0_
  6
CONTINUOUS
 62
    7
 10
147.47027422930745
 20
171.2594728212099
 11
152.27027274466852
 21
170.65946836729307
  0
LINE
  8
_1-0_
  6
CONTINUOUS
 62
    7
 10
208.07026631123313
 20
170.65946836729307
 11
208.07026631123313
 21
171.2594728212099
  0
LINE
  8
_1-0_
  6
CONTINUOUS
 62
    7
 10
208.07026631123313
 20
171.2594728212099
 11
212.87025245460305
 21
171.2594728212099
  0
LINE
  8
_1-0_
  6
CONTINUOUS
 62
    7
 10
212.87025245460305
 20
171.2594728212099
 11
212.87025245460305
 21
170.65946836729307
  0
LINE
  8
_1-0_
  6
CONTINUOUS
 62
    7
 10
212.87025245460305
 20
170.65946836729307
 11
208.07026631123313
 21
170.65946836729307
  0
LINE
  8
_1-0_
  6
CONTINUOUS
 62
    7
 10
208.07026631123313
 20
171.2594728212099
 11
212.87025245460305
 21
170.65946836729307
  0
LINE
  8
_1-0_
  6
CONTINUOUS
 62
    7
 10
268.6702583931588
 20
170.65946836729307
 11
268.6702583931588
 21
171.2594728212099
  0
LINE
  8
_1-0_
  6
CONTINUOUS
 62
    7
 10
268.6702583931588
 20
171.2594728212099
 11
273.47024453652875
 21
171.2594728212099
  0
LINE
  8
_1-0_
  6
CONTINUOUS
 62
    7
 10
273.47024453652875
 20
171.2594728212099
 11
273.47024453652875
 21
170.65946836729307
  0
LINE
  8
_1-0_
  6
CONTINUOUS
 62
    7
 10
273.47024453652875
 20
170.65946836729307
 11
268.6702583931588
 21
170.65946836729307
  0
LINE
  8
_1-0_
  6
CONTINUOUS
 62
    7
 10
268.6702583931588
 20
171.2594728212099
 11
273.47024453652875
 21
170.65946836729307
  0
LINE
  8
_1-0_
  6
CONTINUOUS
 62
    7
 10
329.27025047508448
 20
170.65946836729307
 11
329.27025047508448
 21
171.2594728212099
  0
LINE
  8
_1-0_
  6
CONTINUOUS
 62
    7
 10
329.27025047508448
 20
171.2594728212099
 11
334.07023661845443
 21
171.2594728212099
  0
LINE
  8
_1-0_
  6
CONTINUOUS
 62
    7
 10
334.07023661845443
 20
171.2594728212099
 11
334.07023661845443
 21
170.65946836729307
  0
LINE
  8
_1-0_
  6
CONTINUOUS
 62
    7
 10
334.07023661845443
 20
170.65946836729307
 11
329.27025047508448
 21
170.65946836729307
  0
LINE
  8
_1-0_
  6
CONTINUOUS
 62
    7
 10
329.27025047508448
 20
171.2594728212099
 11
334.07023661845443
 21
170.65946836729307
  0
LINE
  8
_1-0_
  6
CONTINUOUS
 62
    7
 10
389.87024255701016
 20
170.65946836729307
 11
389.87024255701016
 21
171.2594728212099
  0
LINE
  8
_1-0_
  6
CONTINUOUS
 62
    7
 10
391.09259528082771
 20
170.65946836729307
 11
389.87024255701016
 21
170.65946836729307
  0
LINE
  8
_1-0_
  6
CONTINUOUS
 62
    7
 10
389.87024255701016
 20
171.2594728212099
 11
391.09257053684547
 21
171.10667873073268
  0
LINE
  8
_1-0_
  6
CONTINUOUS
 62
    7
 10
389.87024255701016
 20
171.2594728212099
 11
391.09259528082771
 21
171.2594728212099
  0
LINE
  8
_1-1_
  6
CONTINUOUS
 62
    3
 10
89.070263424435183
 20
179.85947892472552
 11
89.070263424435183
 21
176.25947694520693
  0
LINE
  8
_1-1_
  6
CONTINUOUS
 62
    3
 10
150.27025377428211
 20
179.85947892472552
 11
150.27025377428211
 21
177.45947348104943
  0
LINE
  8
_1-1_
  6
CONTINUOUS
 62
    3
 10
83.270471933725716
 20
174.25947034681167
 11
139.27024222709039
 21
174.25947034681167
  0
LINE
  8
_1-1_
  6
CONTINUOUS
 62
    3
 10
89.070263424435183
 20
179.85947892472552
 11
90.270284704259936
 21
179.85947892472552
  0
LINE
  8
_1-1_
  6
CONTINUOUS
 62
    3
 10
140.40804476351352
 20
179.85947892472552
 11
150.27025377428211
 21
179.85947892472552
  0
LINE
  8
_1-1_
  6
CONTINUOUS
 62
    3
 10
142.27025212468328
 20
177.45947348104943
 11
139.27024222709039
 21
174.25947034681167
  0
LINE
  8
_1-1_
  6
CONTINUOUS
 62
    3
 10
148.6702583931588
 20
177.45947348104943
 11
148.6702583931588
 21
177.05947463576859
  0
LINE
  8
_1-1_
  6
CONTINUOUS
 62
    3
 10
147.87026070259714
 20
177.45947348104943
 11
147.87026070259714
 21
177.05947463576859
  0
LINE
  8
_1-1_
  6
CONTINUOUS
 62
    3
 10
146.27026532147383
 20
177.45947348104943
 11
146.27026532147383
 21
177.05947463576859
  0
LINE
  8
_1-1_
  6
CONTINUOUS
 62
    3
 10
145.47026763091216
 20
177.45947348104943
 11
145.47026763091216
 21
177.05947463576859
  0
LINE
  8
_1-1_
  6
CONTINUOUS
 62
    3
 10
142.27025212468328
 20
177.45947348104943
 11
145.47026763091216
 21
177.45947348104943
  0
LINE
  8
_1-1_
  6
CONTINUOUS
 62
    3
 10
146.27026532147383
 20
177.45947348104943
 11
147.87026070259714
 21
177.45947348104943
  0
LINE
  8
_1-1_
  6
CONTINUOUS
 62
    3
 10
148.6702583931588
 20
177.45947348104943
 11
150.27025377428211
 21
177.45947348104943
  0
LINE
  8
_1-1_
  6
CONTINUOUS
 62
    3
 10
145.47026763091216
 20
177.05947463576859
 11
146.27026532147383
 21
177.05947463576859
  0
LINE
  8
_1-1_
  6
CONTINUOUS
 62
    3
 10
147.87026070259714
 20
177.05947463576859
 11
148.6702583931588
 21
177.05947463576859
  0
LINE
  8
_1-1_
  6
CONTINUOUS
 62
    3
 10
93.870274311787384
 20
177.25946787241344
 11
137.67024684596706
 21
177.25946787241344
  0
LINE
  8
_1-1_
  6
CONTINUOUS
 62
    3
 10
84.754541757944466
 20
176.25947694520693
 11
89.070263424435183
 21
176.25947694520693
  0
LINE
  8
ADD_LINE
  6
DOT
 62
    3
 10
89.270269033071159
 20
174.71588547165331
 11
89.270269033071159
 21
173.89319754935602
  0
LINE
  8
_1-1_
  6
CONTINUOUS
 62
    3
 10
71.270265321473801
 20
179.85947892472552
 11
71.270265321473801
 21
156.65947166649073
  0
LINE
  8
_1-1_
  6
CONTINUOUS
 62
    3
 10
90.87027060019004
 20
179.85947892472552
 11
71.270265321473801
 21
179.85947892472552
  0
LINE
  8
_1-1_
  6
CONTINUOUS
 62
    3
 10
90.87027060019004
 20
183.05946968697214
 11
90.87027060019004
 21
179.85947892472552
  0
LINE
  8
_1-1_
  6
CONTINUOUS
 62
    3
 10
71.270265321473801
 20
156.65947166649073
 11
68.270255423880911
 21
156.65947166649073
  0
LINE
  8
_1-1_
  6
CONTINUOUS
 62
    3
 10
68.270255423880911
 20
182.05946638777451
 11
68.270255423880911
 21
156.65947166649073
  0
LINE
  8
_1-1_
  6
CONTINUOUS
 62
    3
 10
75.470259382918073
 20
182.53670357369089
 11
73.470277528505051
 21
182.53670357369089
  0
LINE
  8
_1-1_
  6
CONTINUOUS
 62
    3
 10
75.470259382918073
 20
183.05946968697214
 11
75.470259382918073
 21
182.53670357369089
  0
LINE
  8
_1-1_
  6
CONTINUOUS
 62
    3
 10
73.470277528505051
 20
183.05946968697214
 11
73.470277528505051
 21
182.53670357369089
  0
LINE
  8
_1-1_
  6
CONTINUOUS
 62
    3
 10
69.270258723078541
 20
183.05946968697214
 11
73.470277528505051
 21
183.05946968697214
  0
LINE
  8
_1-1_
  6
CONTINUOUS
 62
    3
 10
75.470259382918073
 20
183.05946968697214
 11
90.87027060019004
 21
183.05946968697214
  0
LINE
  8
ADD_LINE
  6
DOT
 62
    3
 10
142.47025773331927
 20
176.32188126847552
 11
142.47025773331927
 21
173.02359503668708
  0
LINE
  8
_1-1_
  6
CONTINUOUS
 62
    3
 10
142.47025773331927
 20
176.8594690271326
 11
142.47025773331927
 21
174.25947034681167
  0
LINE
  8
_1-1_
  6
CONTINUOUS
 62
    3
 10
150.27025377428211
 20
179.85947892472552
 11
150.27025377428211
 21
176.25947694520693
  0
LINE
  8
_1-1_
  6
CONTINUOUS
 62
    3
 10
211.47023793813347
 20
179.85947892472552
 11
211.47023793813347
 21
177.45947348104943
  0
LINE
  8
_1-1_
  6
CONTINUOUS
 62
    3
 10
142.47025773331927
 20
174.25947034681167
 11
200.47023876293287
 21
174.25947034681167
  0
LINE
  8
_1-1_
  6
CONTINUOUS
 62
    3
 10
150.27025377428211
 20
179.85947892472552
 11
151.47027505410685
 21
179.85947892472552
  0
LINE
  8
_1-1_
  6
CONTINUOUS
 62
    3
 10
201.60804129935602
 20
179.85947892472552
 11
211.47023793813347
 21
179.85947892472552
  0
LINE
  8
_1-1_
  6
CONTINUOUS
 62
    3
 10
203.47023628853464
 20
177.45947348104943
 11
200.47023876293287
 21
174.25947034681167
  0
LINE
  8
_1-1_
  6
CONTINUOUS
 62
    3
 10
209.87024255701016
 20
177.45947348104943
 11
209.87024255701016
 21
177.05947463576859
  0
LINE
  8
_1-1_
  6
CONTINUOUS
 62
    3
 10
209.07024486644849
 20
177.45947348104943
 11
209.07024486644849
 21
177.05947463576859
  0
LINE
  8
_1-1_
  6
CONTINUOUS
 62
    3
 10
207.47024948532518
 20
177.45947348104943
 11
207.47024948532518
 21
177.05947463576859
  0
LINE
  8
_1-1_
  6
CONTINUOUS
 62
    3
 10
206.67025179476352
 20
177.45947348104943
 11
206.67025179476352
 21
177.05947463576859
  0
LINE
  8
_1-1_
  6
CONTINUOUS
 62
    3
 10
203.47023628853464
 20
177.45947348104943
 11
206.67025179476352
 21
177.45947348104943
  0
LINE
  8
_1-1_
  6
CONTINUOUS
 62
    3
 10
207.47024948532518
 20
177.45947348104943
 11
209.07024486644849
 21
177.45947348104943
  0
LINE
  8
_1-1_
  6
CONTINUOUS
 62
    3
 10
209.87024255701016
 20
177.45947348104943
 11
211.47023793813347
 21
177.45947348104943
  0
LINE
  8
_1-1_
  6
CONTINUOUS
 62
    3
 10
206.67025179476352
 20
177.05947463576859
 11
207.47024948532518
 21
177.05947463576859
  0
LINE
  8
_1-1_
  6
CONTINUOUS
 62
    3
 10
209.07024486644849
 20
177.05947463576859
 11
209.87024255701016
 21
177.05947463576859
  0
LINE
  8
_1-1_
  6
CONTINUOUS
 62
    3
 10
155.0702646616343
 20
177.25946787241344
 11
198.87023100981841
 21
177.25946787241344
  0
LINE
  8
_1-1_
  6
CONTINUOUS
 62
    3
 10
143.67024189717063
 20
176.8594690271326
 11
143.95432755753802
 21
176.25947694520693
  0
LINE
  8
_1-1_
  6
CONTINUOUS
 62
    3
 10
142.47025773331927
 20
176.8594690271326
 11
143.67024189717063
 21
176.8594690271326
  0
LINE
  8
_1-1_
  6
CONTINUOUS
 62
    3
 10
143.95432755753802
 20
176.25947694520693
 11
150.27025377428211
 21
176.25947694520693
  0
LINE
  8
ADD_LINE
  6
DOT
 62
    3
 10
150.27025377428211
 20
176.25947694520693
 11
150.27025377428211
 21
171.96795489336995
  0
LINE
  8
_1-1_
  6
CONTINUOUS
 62
    3
 10
203.67025426916175
 20
176.8594690271326
 11
203.67025426916175
 21
174.25947034681167
  0
LINE
  8
_1-1_
  6
CONTINUOUS
 62
    3
 10
211.47023793813347
 20
179.85947892472552
 11
211.47023793813347
 21
176.25947694520693
  0
LINE
  8
_1-1_
  6
CONTINUOUS
 62
    3
 10
272.67022210198479
 20
179.85947892472552
 11
272.67022210198479
 21
177.45947348104943
  0
LINE
  8
_1-0_
  6
CONTINUOUS
 62
    3
 10
203.67025426916175
 20
174.25947034681167
 11
261.67023529877537
 21
174.25947034681167
  0
LINE
  8
_1-1_
  6
CONTINUOUS
 62
    3
 10
211.47023793813347
 20
179.85947892472552
 11
212.67027158994932
 21
179.85947892472552
  0
LINE
  8
_1-1_
  6
CONTINUOUS
 62
    3
 10
262.80803783519849
 20
179.85947892472552
 11
272.67022210198479
 21
179.85947892472552
  0
LINE
  8
_1-1_
  6
CONTINUOUS
 62
    3
 10
264.67024519636828
 20
177.45947348104943
 11
261.67023529877537
 21
174.25947034681167
  0
LINE
  8
_1-1_
  6
CONTINUOUS
 62
    3
 10
271.07022672086151
 20
177.45947348104943
 11
271.07022672086151
 21
177.05947463576859
  0
LINE
  8
_1-1_
  6
CONTINUOUS
 62
    3
 10
270.27025377428208
 20
177.45947348104943
 11
270.27025377428208
 21
177.05947463576859
  0
LINE
  8
_1-1_
  6
CONTINUOUS
 62
    3
 10
268.6702583931588
 20
177.45947348104943
 11
268.6702583931588
 21
177.05947463576859
  0
LINE
  8
_1-1_
  6
CONTINUOUS
 62
    3
 10
267.8702359586149
 20
177.45947348104943
 11
267.8702359586149
 21
177.05947463576859
  0
LINE
  8
_1-1_
  6
CONTINUOUS
 62
    3
 10
264.67024519636828
 20
177.45947348104943
 11
267.8702359586149
 21
177.45947348104943
  0
LINE
  8
_1-1_
  6
CONTINUOUS
 62
    3
 10
268.6702583931588
 20
177.45947348104943
 11
270.27025377428208
 21
177.45947348104943
  0
LINE
  8
_1-1_
  6
CONTINUOUS
 62
    3
 10
271.07022672086151
 20
177.45947348104943
 11
272.67022210198479
 21
177.45947348104943
  0
LINE
  8
_1-1_
  6
CONTINUOUS
 62
    3
 10
267.8702359586149
 20
177.05947463576859
 11
268.6702583931588
 21
177.05947463576859
  0
LINE
  8
_1-1_
  6
CONTINUOUS
 62
    3
 10
270.27025377428208
 20
177.05947463576859
 11
271.07022672086151
 21
177.05947463576859
  0
LINE
  8
_1-1_
  6
CONTINUOUS
 62
    3
 10
216.27027356946792
 20
177.25946787241344
 11
260.07023991765203
 21
177.25946787241344
  0
LINE
  8
_1-1_
  6
CONTINUOUS
 62
    3
 10
204.8702384330131
 20
176.8594690271326
 11
205.1543240933805
 21
176.25947694520693
  0
LINE
  8
_1-1_
  6
CONTINUOUS
 62
    3
 10
203.67025426916175
 20
176.8594690271326
 11
204.8702384330131
 21
176.8594690271326
  0
LINE
  8
_1-1_
  6
CONTINUOUS
 62
    3
 10
205.1543240933805
 20
176.25947694520693
 11
211.47023793813347
 21
176.25947694520693
  0
LINE
  8
_1-1_
  6
CONTINUOUS
 62
    3
 10
264.87025080500422
 20
176.8594690271326
 11
264.87025080500422
 21
174.25947034681167
  0
LINE
  8
_1-1_
  6
CONTINUOUS
 62
    3
 10
272.67024684596709
 20
179.85947892472552
 11
272.67024684596709
 21
176.25947694520693
  0
LINE
  8
_1-1_
  6
CONTINUOUS
 62
    3
 10
333.87023100981844
 20
179.85947892472552
 11
333.87023100981844
 21
177.45947348104943
  0
LINE
  8
_1-0_
  6
CONTINUOUS
 62
    3
 10
264.87025080500422
 20
174.25947034681167
 11
322.87021946262672
 21
174.25947034681167
  0
LINE
  8
_1-1_
  6
CONTINUOUS
 62
    3
 10
272.67024684596709
 20
179.85947892472552
 11
273.87025575380068
 21
179.85947892472552
  0
LINE
  8
_1-1_
  6
CONTINUOUS
 62
    3
 10
324.00804674303214
 20
179.85947892472552
 11
333.87023100981844
 21
179.85947892472552
  0
LINE
  8
_1-1_
  6
CONTINUOUS
 62
    3
 10
325.87022936021964
 20
177.45947348104943
 11
322.87021946262672
 21
174.25947034681167
  0
LINE
  8
_1-1_
  6
CONTINUOUS
 62
    3
 10
332.2702356286951
 20
177.45947348104943
 11
332.2702356286951
 21
177.05947463576859
  0
LINE
  8
_1-1_
  6
CONTINUOUS
 62
    3
 10
331.47023793813344
 20
177.45947348104943
 11
331.47023793813344
 21
177.05947463576859
  0
LINE
  8
_1-1_
  6
CONTINUOUS
 62
    3
 10
329.87024255701016
 20
177.45947348104943
 11
329.87024255701016
 21
177.05947463576859
  0
LINE
  8
_1-1_
  6
CONTINUOUS
 62
    3
 10
329.07024486644849
 20
177.45947348104943
 11
329.07024486644849
 21
177.05947463576859
  0
LINE
  8
_1-1_
  6
CONTINUOUS
 62
    3
 10
325.87022936021964
 20
177.45947348104943
 11
329.07024486644849
 21
177.45947348104943
  0
LINE
  8
_1-1_
  6
CONTINUOUS
 62
    3
 10
329.87024255701016
 20
177.45947348104943
 11
331.47023793813344
 21
177.45947348104943
  0
LINE
  8
_1-1_
  6
CONTINUOUS
 62
    3
 10
332.2702356286951
 20
177.45947348104943
 11
333.87023100981844
 21
177.45947348104943
  0
LINE
  8
_1-1_
  6
CONTINUOUS
 62
    3
 10
329.07024486644849
 20
177.05947463576859
 11
329.87024255701016
 21
177.05947463576859
  0
LINE
  8
_1-1_
  6
CONTINUOUS
 62
    3
 10
331.47023793813344
 20
177.05947463576859
 11
332.2702356286951
 21
177.05947463576859
  0
LINE
  8
_1-1_
  6
CONTINUOUS
 62
    3
 10
277.47025773331927
 20
177.25946787241344
 11
321.27022408150339
 21
177.25946787241344
  0
LINE
  8
_1-1_
  6
CONTINUOUS
 62
    3
 10
266.07023496885557
 20
176.8594690271326
 11
266.35432062922297
 21
176.25947694520693
  0
LINE
  8
_1-1_
  6
CONTINUOUS
 62
    3
 10
264.87025080500422
 20
176.8594690271326
 11
266.07023496885557
 21
176.8594690271326
  0
LINE
  8
_1-1_
  6
CONTINUOUS
 62
    3
 10
266.35432062922297
 20
176.25947694520693
 11
272.67024684596709
 21
176.25947694520693
  0
LINE
  8
_1-1_
  6
CONTINUOUS
 62
    3
 10
326.07025971283787
 20
176.8594690271326
 11
326.07025971283787
 21
174.25947034681167
  0
LINE
  8
_1-1_
  6
CONTINUOUS
 62
    3
 10
333.87025575380068
 20
179.85947892472552
 11
333.87025575380068
 21
176.25947694520693
  0
LINE
  8
_1-0_
  6
CONTINUOUS
 62
    3
 10
326.07025971283787
 20
174.25947034681167
 11
384.07025311444261
 21
174.25947034681167
  0
LINE
  8
_1-1_
  6
CONTINUOUS
 62
    3
 10
333.87025575380068
 20
179.85947892472552
 11
335.07028940561656
 21
179.85947892472552
  0
LINE
  8
_1-1_
  6
CONTINUOUS
 62
    3
 10
387.07023826805323
 20
177.45947348104943
 11
384.07025311444261
 21
174.25947034681167
  0
LINE
  8
_1-1_
  6
CONTINUOUS
 62
    3
 10
391.07025146484375
 20
177.45947348104943
 11
391.07025146484375
 21
177.05947463576859
  0
LINE
  8
_1-1_
  6
CONTINUOUS
 62
    3
 10
390.27025377428214
 20
177.45947348104943
 11
390.27025377428214
 21
177.05947463576859
  0
LINE
  8
_1-1_
  6
CONTINUOUS
 62
    3
 10
387.07023826805323
 20
177.45947348104943
 11
390.27025377428214
 21
177.45947348104943
  0
LINE
  8
_1-1_
  6
CONTINUOUS
 62
    3
 10
390.27025377428214
 20
177.05947463576859
 11
391.07025146484375
 21
177.05947463576859
  0
LINE
  8
_1-1_
  6
CONTINUOUS
 62
    3
 10
338.67026664115286
 20
177.25946787241344
 11
382.47023298933703
 21
177.25946787241344
  0
LINE
  8
_1-1_
  6
CONTINUOUS
 62
    3
 10
327.27024387668922
 20
176.8594690271326
 11
327.55432953705662
 21
176.25947694520693
  0
LINE
  8
_1-1_
  6
CONTINUOUS
 62
    3
 10
326.07025971283787
 20
176.8594690271326
 11
327.27024387668922
 21
176.8594690271326
  0
LINE
  8
_1-1_
  6
CONTINUOUS
 62
    3
 10
327.55432953705662
 20
176.25947694520693
 11
333.87025575380068
 21
176.25947694520693
  0
LINE
  8
_1-1_
  6
CONTINUOUS
 62
    3
 10
387.27024387668922
 20
176.8594690271326
 11
387.27024387668922
 21
174.25947034681167
  0
LINE
  8
_1-1_
  6
CONTINUOUS
 62
    3
 10
388.47022804054058
 20
176.8594690271326
 11
388.75431370090797
 21
176.25947694520693
  0
LINE
  8
_1-1_
  6
CONTINUOUS
 62
    3
 10
387.27024387668922
 20
176.8594690271326
 11
388.47022804054058
 21
176.8594690271326
  0
LINE
  8
_1-1_
  6
CONTINUOUS
 62
    3
 10
388.75431370090797
 20
176.25947694520693
 11
391.09257053684547
 21
176.25947694520693
  0
LINE
  8
_1-1_
  6
CONTINUOUS
 62
    3
 10
385.20803090688349
 20
179.85947892472552
 11
391.09257053684547
 21
179.85947892472552
  0
LINE
  8
_1-1_
  6
CONTINUOUS
 62
    3
 10
387.27024387668922
 20
174.25947034681167
 11
391.09257053684547
 21
174.25947034681167
  0
LINE
  8
_1-0_
  6
DASHED1
 62
    3
 10
82.57501138223185
 20
170.05946391337628
 11
391.09257053684547
 21
170.05946391337628
  0
LINE
  8
_1-0_
  6
CONTINUOUS
 62
    2
 10
83.181461643528294
 20
170.48158387880068
 11
82.822240881017734
 21
170.48158387880068
  0
LINE
  8
_1-0_
  6
CONTINUOUS
 62
    2
 10
82.822240881017734
 20
170.48158387880068
 11
82.822240881017734
 21
179.24172066353464
  0
LINE
  8
_1-0_
  6
CONTINUOUS
 62
    2
 10
82.822240881017734
 20
179.24172066353464
 11
83.634567260742188
 21
177.93494147223396
  0
LINE
  8
_1-0_
  6
DASHED1
 62
    3
 10
72.270268620671459
 20
179.05946886217274
 11
82.57501138223185
 21
179.05946886217274
  0
LINE
  8
_1-0_
  6
DASHED1
 62
    3
 10
82.57501138223185
 20
179.05946886217274
 11
82.57501138223185
 21
170.05946391337628
  0
LINE
  8
_1-0_
  6
CONTINUOUS
 62
    3
 10
387.27024387668922
 20
174.25947034681167
 11
391.09257053684547
 21
174.25947034681167
  0
LINE
  8
_1-1_
  6
CONTINUOUS
 62
    7
 10
384.07025311444261
 20
174.25947034681167
 11
387.27024387668922
 21
174.25947034681167
  0
LINE
  8
_1-0_
  6
CONTINUOUS
 62
    3
 10
326.07025971283787
 20
174.25947034681167
 11
384.07025311444261
 21
174.25947034681167
  0
LINE
  8
_1-1_
  6
CONTINUOUS
 62
    7
 10
322.87021946262672
 20
174.25947034681167
 11
326.07025971283787
 21
174.25947034681167
  0
LINE
  8
_1-0_
  6
CONTINUOUS
 62
    3
 10
264.87025080500422
 20
174.25947034681167
 11
322.87021946262672
 21
174.25947034681167
  0
LINE
  8
_1-1_
  6
CONTINUOUS
 62
    7
 10
261.67023529877537
 20
174.25947034681167
 11
264.87025080500422
 21
174.25947034681167
  0
LINE
  8
_1-0_
  6
CONTINUOUS
 62
    3
 10
203.67025426916175
 20
174.25947034681167
 11
261.67023529877537
 21
174.25947034681167
  0
LINE
  8
_1-1_
  6
CONTINUOUS
 62
    7
 10
200.47023876293287
 20
174.25947034681167
 11
203.67025426916175
 21
174.25947034681167
  0
LINE
  8
_1-0_
  6
CONTINUOUS
 62
    3
 10
88.870474325644011
 20
174.25947034681167
 11
139.27024222709039
 21
174.25947034681167
  0
LINE
  8
_1-0_
  6
CONTINUOUS
 62
    3
 10
142.47025773331927
 20
174.25947034681167
 11
200.47023876293287
 21
174.25947034681167
  0
LINE
  8
_1-1_
  6
CONTINUOUS
 62
    7
 10
142.47025773331927
 20
174.25947034681167
 11
139.27024222709039
 21
174.25947034681167
  0
LINE
  8
_1-2_
  6
CONTINUOUS
 62
    7
 10
80.27027027027026
 20
212.43243243243245
 11
89.270269033071159
 21
212.43243243243245
  0
LINE
  8
_1-2_
  6
CONTINUOUS
 62
    7
 10
80.27027027027026
 20
192.16216216216216
 11
80.27027027027026
 21
212.43243243243245
  0
LINE
  8
_1-2_
  6
CONTINUOUS
 62
    7
 10
89.270269033071159
 20
192.16216216216216
 11
89.270269033071159
 21
212.43243243243245
  0
LINE
  8
_1-2_
  6
CONTINUOUS
 62
    7
 10
89.270269033071159
 20
212.43243243243245
 11
150.27025377428211
 21
212.43243243243245
  0
LINE
  8
_1-2_
  6
CONTINUOUS
 62
    7
 10
150.27025377428211
 20
192.16216216216216
 11
150.27025377428211
 21
212.43243243243245
  0
LINE
  8
_1-2_
  6
CONTINUOUS
 62
    7
 10
150.27025377428211
 20
212.43243243243245
 11
211.47023793813347
 21
212.43243243243245
  0
LINE
  8
_1-2_
  6
CONTINUOUS
 62
    7
 10
211.47023793813347
 20
192.16216216216216
 11
211.47023793813347
 21
212.43243243243245
  0
LINE
  8
_1-2_
  6
CONTINUOUS
 62
    7
 10
211.47023793813347
 20
212.43243243243245
 11
272.67024684596709
 21
212.43243243243245
  0
LINE
  8
_1-2_
  6
CONTINUOUS
 62
    7
 10
272.67024684596709
 20
192.16216216216216
 11
272.67024684596709
 21
212.43243243243245
  0
LINE
  8
_1-2_
  6
CONTINUOUS
 62
    7
 10
272.67024684596709
 20
212.43243243243245
 11
333.87025575380068
 21
212.43243243243245
  0
LINE
  8
_1-2_
  6
CONTINUOUS
 62
    7
 10
333.87025575380068
 20
192.16216216216216
 11
333.87025575380068
 21
212.43243243243245
  0
LINE
  8
_1-2_
  6
CONTINUOUS
 62
    7
 10
45.294270902066614
 20
169.45945945945948
 11
45.294270902066614
 21
178.45946440825591
  0
LINE
  8
_1-2_
  6
CONTINUOUS
 62
    7
 10
64.15893142287797
 20
169.45945945945948
 11
45.294270902066614
 21
169.45945945945948
  0
LINE
  8
_1-2_
  6
CONTINUOUS
 62
    7
 10
64.15893142287797
 20
178.45946440825591
 11
45.294270902066614
 21
178.45946440825591
  0
LINE
  8
_1-2_
  6
CONTINUOUS
 62
    7
 10
205.69081074482688
 20
177.17077306798987
 11
237.31799976245779
 21
90.27581498429582
  0
LINE
  8
_1-2_
  6
CONTINUOUS
 62
    7
 10
237.31799976245779
 20
90.27581498429582
 11
243.24324324324326
 21
90.27581498429582
  0
LINE
  8
_0-1_
  6
CONTINUOUS
 62
    7
 10
224.57903062975086
 20
125.27581292229731
 11
243.24324324324326
 21
125.27581292229731
  0
LINE
  8
_0-1_
  6
CONTINUOUS
 62
    7
 10
227.12681950749578
 20
118.27581457189612
 11
243.24324324324326
 21
118.27581457189612
  0
LINE
  8
_0-1_
  6
CONTINUOUS
 62
    7
 10
229.674633129223
 20
111.27581622149494
 11
243.24324324324326
 21
111.27581622149494
  0
LINE
  8
_0-1_
  6
CONTINUOUS
 62
    7
 10
232.22242200696792
 20
104.27581787109375
 11
243.24324324324326
 21
104.27581787109375
  0
LINE
  8
_0-1_
  6
CONTINUOUS
 62
    7
 10
234.77021088471284
 20
97.275813334697006
 11
243.24324324324326
 21
97.275813334697006
  0
LINE
  8
_0-1_
  6
CONTINUOUS
 62
    7
 10
70.189918311866563
 20
181.09257053684544
 11
61.083972003008881
 21
206.11096356366133
  0
LINE
  8
_0-1_
  6
CONTINUOUS
 62
    7
 10
86.532712369351785
 20
172.16504071209883
 11
100.99296569824219
 21
126.94030349319047
  0
LINE
  8
_0-1_
  6
CONTINUOUS
 62
    7
 10
86.532712369351785
 20
172.16504071209883
 11
86.114780322925469
 21
170.41741036080026
  0
LINE
  8
_0-1_
  6
CONTINUOUS
 62
    7
 10
100.99296569824219
 20
126.94030349319047
 11
105.40540540540542
 21
126.94030349319047
  0
LINE
  8
_0-1_
  6
CONTINUOUS
 62
    7
 10
61.083972003008881
 20
206.11096356366133
 11
57.567567567567579
 21
206.11096356366133
  0
LINE
  8
_1-0_
  6
CONTINUOUS
 62
    7
 10
82.27047482052366
 20
165.85945747994089
 11
391.09257053684547
 21
165.85945747994089
  0
LINE
  8
_1-0_
  6
CONTINUOUS
 62
    7
 10
72.270268620671459
 20
178.45946440825591
 11
72.270268620671459
 21
136.65945517050255
  0
LINE
  8
_1-0_
  6
CONTINUOUS
 62
    3
 10
211.27025707347974
 20
161.85945665514149
 11
211.67026829075169
 21
161.85945665514149
  0
LINE
  8
_1-0_
  6
CONTINUOUS
 62
    3
 10
211.67026829075169
 20
149.85945418074326
 11
211.27025707347974
 21
149.85945418074326
  0
LINE
  8
_1-0_
  6
CONTINUOUS
 62
    3
 10
210.27025377428211
 20
165.45945863466005
 11
203.07029930320948
 21
165.45945863466005
  0
LINE
  8
_1-0_
  6
CONTINUOUS
 62
    3
 10
211.27025707347974
 20
164.45945533546242
 11
211.27025707347974
 21
161.85945665514149
  0
LINE
  8
_1-0_
  6
CONTINUOUS
 62
    3
 10
211.67026829075169
 20
164.85945418074326
 11
211.67026829075169
 21
161.85945665514149
  0
LINE
  8
_1-0_
  6
CONTINUOUS
 62
    3
 10
210.67026499155406
 20
165.85945747994089
 11
202.6702880859375
 21
165.85945747994089
  0
LINE
  8
_1-0_
  6
CONTINUOUS
 62
    3
 10
211.27025707347974
 20
147.25945550042232
 11
211.27025707347974
 21
149.85945418074326
  0
LINE
  8
_1-0_
  6
CONTINUOUS
 62
    3
 10
211.67026829075169
 20
146.85945665514149
 11
211.67026829075169
 21
149.85945418074326
  0
LINE
  8
_1-0_
  6
CONTINUOUS
 62
    3
 10
203.07029930320948
 20
146.25945220122466
 11
210.27025377428211
 21
146.25945220122466
  0
LINE
  8
_1-0_
  6
CONTINUOUS
 62
    3
 10
202.07029600401182
 20
147.25945550042232
 11
202.07029600401182
 21
164.45945533546242
  0
LINE
  8
_1-0_
  6
CONTINUOUS
 62
    3
 10
201.67028478673987
 20
146.85945665514149
 11
201.67028478673987
 21
164.85945418074326
  0
LINE
  8
_1-0_
  6
CONTINUOUS
 62
    3
 10
202.6702880859375
 20
145.85946572793497
 11
210.67026499155406
 21
145.85946572793497
  0
LINE
  8
ADD_LINE
  6
DOT
 62
    3
 10
202.6702880859375
 20
165.85945747994089
 11
201.27200564822635
 21
165.85945747994089
  0
LINE
  8
ADD_LINE
  6
DOT
 62
    3
 10
201.67028478673987
 20
146.85945665514149
 11
201.67028478673987
 21
145.42776984137458
  0
LINE
  8
_1-0_
  6
CONTINUOUS
 62
    7
 10
389.30521372202281
 20
165.85945747994089
 11
391.09257053684547
 21
167.6468019227724
  0
LINE
  8
_1-0_
  6
CONTINUOUS
 62
    7
 10
386.47682808540964
 20
165.85945747994089
 11
390.07680532094599
 21
169.45945945945948
  0
LINE
  8
_1-0_
  6
CONTINUOUS
 62
    7
 10
383.64836821684969
 20
165.85945747994089
 11
387.24837019636828
 21
169.45945945945948
  0
LINE
  8
_1-0_
  6
CONTINUOUS
 62
    7
 10
380.81995783625422
 20
165.85945747994089
 11
384.41998455975511
 21
169.45945945945948
  0
LINE
  8
_1-0_
  6
CONTINUOUS
 62
    7
 10
377.99157219964104
 20
165.85945747994089
 11
381.5915494351774
 21
169.45945945945948
  0
LINE
  8
_1-0_
  6
CONTINUOUS
 62
    7
 10
375.16311233108109
 20
165.85945747994089
 11
378.76311431059969
 21
169.45945945945948
  0
LINE
  8
_1-0_
  6
CONTINUOUS
 62
    7
 10
372.33472669446792
 20
165.85945747994089
 11
375.93470393000422
 21
169.45945945945948
  0
LINE
  8
_1-0_
  6
CONTINUOUS
 62
    7
 10
369.50626682590797
 20
165.85945747994089
 11
373.10626880542657
 21
169.45945945945948
  0
LINE
  8
_1-0_
  6
CONTINUOUS
 62
    7
 10
366.67788118929479
 20
165.85945747994089
 11
370.27785842483109
 21
169.45945945945948
  0
LINE
  8
_1-0_
  6
CONTINUOUS
 62
    7
 10
363.84947080869932
 20
165.85945747994089
 11
367.44947278821792
 21
169.45945945945948
  0
LINE
  8
_1-0_
  6
CONTINUOUS
 62
    7
 10
361.02103568412161
 20
165.85945747994089
 11
364.62103766364021
 21
169.45945945945948
  0
LINE
  8
_1-0_
  6
CONTINUOUS
 62
    7
 10
358.19260055954396
 20
165.85945747994089
 11
361.7926025390625
 21
169.45945945945948
  0
LINE
  8
_1-0_
  6
CONTINUOUS
 62
    7
 10
355.36419017894849
 20
165.85945747994089
 11
358.96419215846709
 21
169.45945945945948
  0
LINE
  8
_1-0_
  6
CONTINUOUS
 62
    7
 10
352.53575505437078
 20
165.85945747994089
 11
356.13578177787161
 21
169.45945945945948
  0
LINE
  8
_1-0_
  6
CONTINUOUS
 62
    7
 10
349.7073694177576
 20
165.85945747994089
 11
353.30734665329396
 21
169.45945945945948
  0
LINE
  8
_1-0_
  6
CONTINUOUS
 62
    7
 10
346.87890954919766
 20
165.85945747994089
 11
350.47891152871625
 21
169.45945945945948
  0
LINE
  8
_1-0_
  6
CONTINUOUS
 62
    7
 10
344.05052391258448
 20
165.85945747994089
 11
347.65052589210308
 21
169.45945945945948
  0
LINE
  8
_1-0_
  6
CONTINUOUS
 62
    7
 10
341.22208878800677
 20
165.85945747994089
 11
344.82209076752537
 21
169.45945945945948
  0
LINE
  8
_1-0_
  6
CONTINUOUS
 62
    7
 10
338.39367840741136
 20
165.85945747994089
 11
341.99365564294766
 21
169.45945945945948
  0
LINE
  8
_1-0_
  6
CONTINUOUS
 62
    7
 10
335.56526802681589
 20
165.85945747994089
 11
339.16527000633448
 21
169.45945945945948
  0
LINE
  8
_1-0_
  6
CONTINUOUS
 62
    7
 10
332.73680815825594
 20
165.85945747994089
 11
336.33683488175677
 21
169.45945945945948
  0
LINE
  8
_1-0_
  6
CONTINUOUS
 62
    7
 10
329.90839777766047
 20
165.85945747994089
 11
333.50839975717906
 21
169.45945945945948
  0
LINE
  8
_1-0_
  6
CONTINUOUS
 62
    7
 10
327.07998739706505
 20
165.85945747994089
 11
330.68001412056589
 21
169.45945945945948
  0
LINE
  8
_1-0_
  6
CONTINUOUS
 62
    7
 10
324.25157701646964
 20
165.85945747994089
 11
327.85157899598818
 21
169.45945945945948
  0
LINE
  8
_1-0_
  6
CONTINUOUS
 62
    7
 10
321.42314189189193
 20
165.85945747994089
 11
325.02314387141047
 21
169.45945945945948
  0
LINE
  8
_1-0_
  6
CONTINUOUS
 62
    7
 10
318.59475625527875
 20
165.85945747994089
 11
322.19475823479729
 21
169.45945945945948
  0
LINE
  8
_1-0_
  6
CONTINUOUS
 62
    7
 10
315.76632113070104
 20
165.85945747994089
 11
319.36632311021964
 21
169.45945945945948
  0
LINE
  8
_1-0_
  6
CONTINUOUS
 62
    7
 10
312.93788600612334
 20
165.85945747994089
 11
316.53788798564193
 21
169.45945945945948
  0
LINE
  8
_1-0_
  6
CONTINUOUS
 62
    7
 10
310.10950036951016
 20
165.85945747994089
 11
313.70950234902875
 21
169.45945945945948
  0
LINE
  8
_1-0_
  6
CONTINUOUS
 62
    7
 10
307.28106524493245
 20
165.85945747994089
 11
310.88106722445104
 21
169.45945945945948
  0
LINE
  8
_1-0_
  6
CONTINUOUS
 62
    7
 10
304.45263012035474
 20
165.85945747994089
 11
308.05263209987334
 21
169.45945945945948
  0
LINE
  8
_1-0_
  6
CONTINUOUS
 62
    7
 10
301.62419499577703
 20
165.85945747994089
 11
305.22419697529563
 21
169.45945945945948
  0
LINE
  8
_1-0_
  6
CONTINUOUS
 62
    7
 10
298.79575987119932
 20
165.85945747994089
 11
302.39576185071792
 21
169.45945945945948
  0
LINE
  8
_1-0_
  6
CONTINUOUS
 62
    7
 10
295.96732474662161
 20
165.85945747994089
 11
299.56732672614021
 21
169.45945945945948
  0
LINE
  8
_1-0_
  6
CONTINUOUS
 62
    7
 10
293.13888962204396
 20
165.85945747994089
 11
296.7388916015625
 21
169.45945945945948
  0
LINE
  8
_1-0_
  6
CONTINUOUS
 62
    7
 10
290.31050398543078
 20
165.85945747994089
 11
293.91050596494932
 21
169.45945945945948
  0
LINE
  8
_1-0_
  6
CONTINUOUS
 62
    7
 10
287.48204411687078
 20
165.85945747994089
 11
291.08207084037161
 21
169.45945945945948
  0
LINE
  8
_1-0_
  6
CONTINUOUS
 62
    7
 10
284.65363373627537
 20
165.85945747994089
 11
288.25363571579396
 21
169.45945945945948
  0
LINE
  8
_1-0_
  6
CONTINUOUS
 62
    7
 10
281.82519861169766
 20
165.85945747994089
 11
285.42520059121625
 21
169.45945945945948
  0
LINE
  8
_1-0_
  6
CONTINUOUS
 62
    7
 10
278.99676348711995
 20
165.85945747994089
 11
282.59676546663854
 21
169.45945945945948
  0
LINE
  8
_1-0_
  6
CONTINUOUS
 62
    7
 10
276.16835310652453
 20
165.85945747994089
 11
279.76833034206084
 21
169.45945945945948
  0
LINE
  8
_1-0_
  6
CONTINUOUS
 62
    7
 10
273.33994272592906
 20
165.85945747994089
 11
276.93994470544766
 21
169.45945945945948
  0
LINE
  8
_1-0_
  6
CONTINUOUS
 62
    7
 10
270.51150760135135
 20
165.85945747994089
 11
274.11150958086995
 21
169.45945945945948
  0
LINE
  8
_1-0_
  6
CONTINUOUS
 62
    7
 10
267.68307247677365
 20
165.85945747994089
 11
271.28307445629224
 21
169.45945945945948
  0
LINE
  8
_1-0_
  6
CONTINUOUS
 62
    7
 10
264.85463735219594
 20
165.85945747994089
 11
268.45463933171453
 21
169.45945945945948
  0
LINE
  8
_1-0_
  6
CONTINUOUS
 62
    7
 10
262.02622697160052
 20
165.85945747994089
 11
265.62620420713682
 21
169.45945945945948
  0
LINE
  8
_1-0_
  6
CONTINUOUS
 62
    7
 10
259.19776710304058
 20
165.85945747994089
 11
262.79776908255911
 21
169.45945945945948
  0
LINE
  8
_1-0_
  6
CONTINUOUS
 62
    7
 10
256.36933197846287
 20
165.85945747994089
 11
259.96933395798141
 21
169.45945945945948
  0
LINE
  8
_1-0_
  6
CONTINUOUS
 62
    7
 10
253.54092159786742
 20
165.85945747994089
 11
257.14094832136828
 21
169.45945945945948
  0
LINE
  8
_1-0_
  6
CONTINUOUS
 62
    7
 10
250.71246172930745
 20
165.85945747994089
 11
254.31248845280828
 21
169.45945945945948
  0
LINE
  8
_1-0_
  6
CONTINUOUS
 62
    7
 10
247.88407609269427
 20
165.85945747994089
 11
251.48407807221284
 21
169.45945945945948
  0
LINE
  8
_1-0_
  6
CONTINUOUS
 62
    7
 10
245.05564096811656
 20
165.85945747994089
 11
248.65564294763516
 21
169.45945945945948
  0
LINE
  8
_1-0_
  6
CONTINUOUS
 62
    7
 10
242.22720584353885
 20
165.85945747994089
 11
245.82720782305745
 21
169.45945945945948
  0
LINE
  8
_1-0_
  6
CONTINUOUS
 62
    7
 10
239.39879546294341
 20
165.85945747994089
 11
242.99877269847974
 21
169.45945945945948
  0
LINE
  8
_1-0_
  6
CONTINUOUS
 62
    7
 10
236.57033559438347
 20
165.85945747994089
 11
240.1703623178843
 21
169.45945945945948
  0
LINE
  8
_1-0_
  6
CONTINUOUS
 62
    7
 10
233.74194995777029
 20
165.85945747994089
 11
237.34195193728885
 21
169.45945945945948
  0
LINE
  8
_1-0_
  6
CONTINUOUS
 62
    7
 10
230.91351483319258
 20
165.85945747994089
 11
234.51351681271117
 21
169.45945945945948
  0
LINE
  8
_1-0_
  6
CONTINUOUS
 62
    7
 10
228.08507970861487
 20
165.85945747994089
 11
231.68508168813347
 21
169.45945945945948
  0
LINE
  8
_1-0_
  6
CONTINUOUS
 62
    7
 10
225.25664458403716
 20
165.85945747994089
 11
228.85664656355576
 21
169.45945945945948
  0
LINE
  8
_1-0_
  6
CONTINUOUS
 62
    7
 10
222.42820945945948
 20
165.85945747994089
 11
226.02823618296031
 21
169.45945945945948
  0
LINE
  8
_1-0_
  6
CONTINUOUS
 62
    7
 10
219.59977433488177
 20
165.85945747994089
 11
223.19977631440034
 21
169.45945945945948
  0
LINE
  8
_1-0_
  6
CONTINUOUS
 62
    7
 10
216.77136395428633
 20
165.85945747994089
 11
220.37136593380492
 21
169.45945945945948
  0
LINE
  8
_1-0_
  6
CONTINUOUS
 62
    7
 10
213.94290408572635
 20
165.85945747994089
 11
217.54295555320948
 21
169.45945945945948
  0
LINE
  8
_1-0_
  6
CONTINUOUS
 62
    7
 10
211.11451844911318
 20
165.85945747994089
 11
214.71452042863177
 21
169.45945945945948
  0
LINE
  8
_1-0_
  6
CONTINUOUS
 62
    7
 10
208.2860833245355
 20
165.85945747994089
 11
211.88608530405406
 21
169.45945945945948
  0
LINE
  8
_1-0_
  6
CONTINUOUS
 62
    7
 10
205.45766057194891
 20
165.85945747994089
 11
209.05765017947635
 21
169.45945945945948
  0
LINE
  8
_1-0_
  6
CONTINUOUS
 62
    7
 10
202.62921307538008
 20
165.85945747994089
 11
206.22922742688979
 21
169.45945945945948
  0
LINE
  8
_1-0_
  6
CONTINUOUS
 62
    7
 10
199.80079032279352
 20
165.85945747994089
 11
203.40080467430323
 21
169.45945945945948
  0
LINE
  8
_1-0_
  6
CONTINUOUS
 62
    7
 10
196.97237994219807
 20
165.85945747994089
 11
200.57236954972552
 21
169.45945945945948
  0
LINE
  8
_1-0_
  6
CONTINUOUS
 62
    7
 10
194.14395718961148
 20
165.85945747994089
 11
197.74393442514781
 21
169.45945945945948
  0
LINE
  8
_1-0_
  6
CONTINUOUS
 62
    7
 10
191.31553443702492
 20
165.85945747994089
 11
194.91553641654352
 21
169.45945945945948
  0
LINE
  8
_1-0_
  6
CONTINUOUS
 62
    7
 10
188.48708694045609
 20
165.85945747994089
 11
192.08708891997466
 21
169.45945945945948
  0
LINE
  8
_1-0_
  6
CONTINUOUS
 62
    7
 10
185.65865181587839
 20
165.85945747994089
 11
189.2586661673881
 21
169.45945945945948
  0
LINE
  8
_1-0_
  6
CONTINUOUS
 62
    7
 10
182.83022906329182
 20
165.85945747994089
 11
186.43023104281039
 21
169.45945945945948
  0
LINE
  8
_1-0_
  6
CONTINUOUS
 62
    7
 10
180.00180631070523
 20
165.85945747994089
 11
183.60179591823268
 21
169.45945945945948
  0
LINE
  8
_1-0_
  6
CONTINUOUS
 62
    7
 10
177.17337118612755
 20
165.85945747994089
 11
180.77339790962839
 21
169.45945945945948
  0
LINE
  8
_1-0_
  6
CONTINUOUS
 62
    7
 10
174.34496080553211
 20
165.85945747994089
 11
177.94496278505068
 21
169.45945945945948
  0
LINE
  8
_1-0_
  6
CONTINUOUS
 62
    7
 10
171.5165256809544
 20
165.85945747994089
 11
175.116527660473
 21
169.45945945945948
  0
LINE
  8
_1-0_
  6
CONTINUOUS
 62
    7
 10
168.68809055637669
 20
165.85945747994089
 11
172.28809253589529
 21
169.45945945945948
  0
LINE
  8
_1-0_
  6
CONTINUOUS
 62
    7
 10
165.85968017578125
 20
165.85945747994089
 11
169.45968215529984
 21
169.45945945945948
  0
LINE
  8
_1-0_
  6
CONTINUOUS
 62
    7
 10
163.03125742319469
 20
165.85945747994089
 11
166.63124703072214
 21
169.45945945945948
  0
LINE
  8
_1-0_
  6
CONTINUOUS
 62
    7
 10
160.20283467060813
 20
165.85945747994089
 11
163.80281190614443
 21
169.45945945945948
  0
LINE
  8
_1-0_
  6
CONTINUOUS
 62
    7
 10
157.37439954603042
 20
165.85945747994089
 11
160.97437678156672
 21
169.45945945945948
  0
LINE
  8
_1-0_
  6
CONTINUOUS
 62
    7
 10
154.54596442145271
 20
165.85945747994089
 11
158.1459664009713
 21
169.45945945945948
  0
LINE
  8
_1-0_
  6
CONTINUOUS
 62
    7
 10
151.717529296875
 20
165.85945747994089
 11
155.31755602037586
 21
169.45945945945948
  0
LINE
  8
_1-0_
  6
CONTINUOUS
 62
    7
 10
148.88911891627956
 20
165.85945747994089
 11
152.48909615181589
 21
169.45945945945948
  0
LINE
  8
_1-0_
  6
CONTINUOUS
 62
    7
 10
146.06068379170188
 20
165.85945747994089
 11
149.66066102723818
 21
169.45945945945948
  0
LINE
  8
_1-0_
  6
CONTINUOUS
 62
    7
 10
143.23226103911529
 20
165.85945747994089
 11
146.832275390625
 21
169.45945945945948
  0
LINE
  8
_1-0_
  6
CONTINUOUS
 62
    7
 10
140.40383828652872
 20
165.85945747994089
 11
144.00386501002956
 21
169.45945945945948
  0
LINE
  8
_1-0_
  6
CONTINUOUS
 62
    7
 10
137.57540316195102
 20
165.85945747994089
 11
141.17540514146961
 21
169.45945945945948
  0
LINE
  8
_1-0_
  6
CONTINUOUS
 62
    7
 10
134.74696803737331
 20
165.85945747994089
 11
138.3469700168919
 21
169.45945945945948
  0
LINE
  8
_1-0_
  6
CONTINUOUS
 62
    7
 10
131.91855765677789
 20
165.85945747994089
 11
135.51855963629646
 21
169.45945945945948
  0
LINE
  8
_1-0_
  6
CONTINUOUS
 62
    7
 10
129.09012253220018
 20
165.85945747994089
 11
132.69009976773648
 21
169.45945945945948
  0
LINE
  8
_1-0_
  6
CONTINUOUS
 62
    7
 10
126.26168740762247
 20
165.85945747994089
 11
129.86168938714104
 21
169.45945945945948
  0
LINE
  8
_1-0_
  6
CONTINUOUS
 62
    7
 10
123.43327702702703
 20
165.85945747994089
 11
127.03325426256335
 21
169.45945945945948
  0
LINE
  8
_1-0_
  6
CONTINUOUS
 62
    7
 10
120.6048295304582
 20
165.85945747994089
 11
124.20481913798565
 21
169.45945945945948
  0
LINE
  8
_1-0_
  6
CONTINUOUS
 62
    7
 10
117.77640677787163
 20
165.85945747994089
 11
121.37640875739021
 21
169.45945945945948
  0
LINE
  8
_1-0_
  6
CONTINUOUS
 62
    7
 10
114.94799639727619
 20
165.85945747994089
 11
118.5479736328125
 21
169.45945945945948
  0
LINE
  8
_1-0_
  6
CONTINUOUS
 62
    7
 10
112.11956127269849
 20
165.85945747994089
 11
115.71953850823481
 21
169.45945945945948
  0
LINE
  8
_1-0_
  6
CONTINUOUS
 62
    7
 10
109.29112614812078
 20
165.85945747994089
 11
112.89112812763936
 21
169.45945945945948
  0
LINE
  8
_1-0_
  6
CONTINUOUS
 62
    7
 10
106.46269102354309
 20
165.85945747994089
 11
110.06269300306167
 21
169.45945945945948
  0
LINE
  8
_1-0_
  6
CONTINUOUS
 62
    7
 10
103.63427445695207
 20
165.85945747994089
 11
107.23428262246622
 21
169.45945945945948
  0
LINE
  8
_1-0_
  6
CONTINUOUS
 62
    7
 10
100.80584551836994
 20
165.85945747994089
 11
104.40584749788852
 21
169.45945945945948
  0
LINE
  8
_1-0_
  6
CONTINUOUS
 62
    7
 10
97.97741039379224
 20
165.85945747994089
 11
101.57741237331082
 21
169.45945945945948
  0
LINE
  8
_1-0_
  6
CONTINUOUS
 62
    7
 10
95.148993827201224
 20
165.85945747994089
 11
98.749001992715378
 21
169.45945945945948
  0
LINE
  8
_1-0_
  6
CONTINUOUS
 62
    7
 10
92.320564888619089
 20
165.85945747994089
 11
95.920566868137669
 21
169.45945945945948
  0
LINE
  8
_1-0_
  6
CONTINUOUS
 62
    7
 10
89.492129764041394
 20
165.85945747994089
 11
93.09215648754224
 21
169.45945945945948
  0
LINE
  8
_1-0_
  6
CONTINUOUS
 62
    7
 10
85.835488809121628
 20
165.85945747994089
 11
89.435490788640209
 21
169.45945945945948
  0
LINE
  8
_1-0_
  6
CONTINUOUS
 62
    7
 10
83.007053684543919
 20
165.85945747994089
 11
86.607080408044766
 21
169.45945945945948
  0
LINE
  8
_1-0_
  6
CONTINUOUS
 62
    7
 10
82.27047482052366
 20
167.95128899651607
 11
83.778645283467071
 21
169.45945945945948
  0
LINE
  8
_1-0_
  6
CONTINUOUS
 62
    7
 10
82.27047482052366
 20
168.63126600110854
 11
85.042283341691302
 21
165.85945747994089
  0
LINE
  8
_1-0_
  6
CONTINUOUS
 62
    7
 10
84.270679370777032
 20
169.45945945945948
 11
87.870693722286745
 21
165.85945747994089
  0
LINE
  8
_1-0_
  6
CONTINUOUS
 62
    7
 10
87.09911449535474
 20
169.45945945945948
 11
88.698905738624376
 21
165.85945747994089
  0
LINE
  8
_1-0_
  6
CONTINUOUS
 62
    7
 10
87.927345069679063
 20
169.45945945945948
 11
91.527334677206511
 21
165.85945747994089
  0
LINE
  8
_1-0_
  6
CONTINUOUS
 62
    7
 10
90.75573070629224
 20
169.45945945945948
 11
94.355745057801954
 21
165.85945747994089
  0
LINE
  8
_1-0_
  6
CONTINUOUS
 62
    7
 10
93.584165830869935
 20
169.45945945945948
 11
97.184161624392956
 21
165.85945747994089
  0
LINE
  8
_1-0_
  6
CONTINUOUS
 62
    7
 10
96.412600955447644
 20
169.45945945945948
 11
100.01259056297509
 21
165.85945747994089
  0
LINE
  8
_1-0_
  6
CONTINUOUS
 62
    7
 10
99.240986592060821
 20
169.45945945945948
 11
102.84100094357053
 21
165.85945747994089
  0
LINE
  8
_1-0_
  6
CONTINUOUS
 62
    7
 10
102.06942171663852
 20
169.45945945945948
 11
105.6694236961571
 21
165.85945747994089
  0
LINE
  8
_1-0_
  6
CONTINUOUS
 62
    7
 10
104.89783209723396
 20
169.45945945945948
 11
108.49784644874367
 21
165.85945747994089
  0
LINE
  8
_1-0_
  6
CONTINUOUS
 62
    7
 10
107.72626722181167
 20
169.45945945945948
 11
111.32625682933912
 21
165.85945747994089
  0
LINE
  8
_1-0_
  6
CONTINUOUS
 62
    7
 10
110.5546776024071
 20
169.45945945945948
 11
114.15467958192568
 21
165.85945747994089
  0
LINE
  8
_1-0_
  6
CONTINUOUS
 62
    7
 10
113.38308798300254
 20
169.45945945945948
 11
116.98310233451225
 21
165.85945747994089
  0
LINE
  8
_1-0_
  6
CONTINUOUS
 62
    7
 10
116.21152310758025
 20
169.45945945945948
 11
119.81152508709883
 21
165.85945747994089
  0
LINE
  8
_1-0_
  6
CONTINUOUS
 62
    7
 10
119.03990874419343
 20
169.45945945945948
 11
122.63993546769426
 21
165.85945747994089
  0
LINE
  8
_1-0_
  6
CONTINUOUS
 62
    7
 10
121.86836861275339
 20
169.45945945945948
 11
125.46835822028083
 21
165.85945747994089
  0
LINE
  8
_1-0_
  6
CONTINUOUS
 62
    7
 10
124.69677899334883
 20
169.45945945945948
 11
128.2967809728674
 21
165.85945747994089
  0
LINE
  8
_1-0_
  6
CONTINUOUS
 62
    7
 10
127.52518937394426
 20
169.45945945945948
 11
131.1252160974451
 21
165.85945747994089
  0
LINE
  8
_1-0_
  6
CONTINUOUS
 62
    7
 10
130.35364924250422
 20
169.45945945945948
 11
133.95365122202281
 21
165.85945747994089
  0
LINE
  8
_1-0_
  6
CONTINUOUS
 62
    7
 10
133.18208436708193
 20
169.45945945945948
 11
136.78208634660052
 21
165.85945747994089
  0
LINE
  8
_1-0_
  6
CONTINUOUS
 62
    7
 10
136.01051949165964
 20
169.45945945945948
 11
139.61052147117823
 21
165.85945747994089
  0
LINE
  8
_1-0_
  6
CONTINUOUS
 62
    7
 10
138.83895461623734
 20
169.45945945945948
 11
142.43895659575591
 21
165.85945747994089
  0
LINE
  8
_1-0_
  6
CONTINUOUS
 62
    7
 10
141.66738974081505
 20
169.45945945945948
 11
145.26739172033362
 21
165.85945747994089
  0
LINE
  8
_1-0_
  6
CONTINUOUS
 62
    7
 10
144.49582486539273
 20
169.45945945945948
 11
148.09583921690245
 21
165.85945747994089
  0
LINE
  8
_1-0_
  6
CONTINUOUS
 62
    7
 10
147.32425998997044
 20
169.45945945945948
 11
150.92426196948904
 21
165.85945747994089
  0
LINE
  8
_1-0_
  6
CONTINUOUS
 62
    7
 10
150.15269511454815
 20
169.45945945945948
 11
153.75270946605787
 21
165.85945747994089
  0
LINE
  8
_1-0_
  6
CONTINUOUS
 62
    7
 10
152.98113023912586
 20
169.45945945945948
 11
156.58113221864443
 21
165.85945747994089
  0
LINE
  8
_1-0_
  6
CONTINUOUS
 62
    7
 10
155.80956536370357
 20
169.45945945945948
 11
159.40957971521328
 21
165.85945747994089
  0
LINE
  8
_1-0_
  6
CONTINUOUS
 62
    7
 10
158.63797574429898
 20
169.45945945945948
 11
162.23800246779984
 21
165.85945747994089
  0
LINE
  8
_1-0_
  6
CONTINUOUS
 62
    7
 10
161.46646035684122
 20
169.45945945945948
 11
165.06643759237755
 21
165.85945747994089
  0
LINE
  8
_1-0_
  6
CONTINUOUS
 62
    7
 10
164.2948459934544
 20
169.45945945945948
 11
167.89487271695523
 21
165.85945747994089
  0
LINE
  8
_1-0_
  6
CONTINUOUS
 62
    7
 10
167.12330586201438
 20
169.45945945945948
 11
170.72330784153294
 21
165.85945747994089
  0
LINE
  8
_1-0_
  6
CONTINUOUS
 62
    7
 10
169.95174098659206
 20
169.45945945945948
 11
173.55174296611065
 21
165.85945747994089
  0
LINE
  8
_1-0_
  6
CONTINUOUS
 62
    7
 10
172.78020085515203
 20
169.45945945945948
 11
176.38020283467063
 21
165.85945747994089
  0
LINE
  8
_1-0_
  6
CONTINUOUS
 62
    7
 10
175.60863597972974
 20
169.45945945945948
 11
179.20863795924831
 21
165.85945747994089
  0
LINE
  8
_1-0_
  6
CONTINUOUS
 62
    7
 10
178.43707110430745
 20
169.45945945945948
 11
182.03707308382602
 21
165.85945747994089
  0
LINE
  8
_1-0_
  6
CONTINUOUS
 62
    7
 10
181.26548148490289
 20
169.45945945945948
 11
184.86550820840372
 21
165.85945747994089
  0
LINE
  8
_1-0_
  6
CONTINUOUS
 62
    7
 10
184.09394135346284
 20
169.45945945945948
 11
187.69394333298143
 21
165.85945747994089
  0
LINE
  8
_1-0_
  6
CONTINUOUS
 62
    7
 10
186.92238885003169
 20
169.45945945945948
 11
190.52239082955026
 21
165.85945747994089
  0
LINE
  8
_1-0_
  6
CONTINUOUS
 62
    7
 10
189.75079923062711
 20
169.45945945945948
 11
193.35081358213682
 21
165.85945747994089
  0
LINE
  8
_1-0_
  6
CONTINUOUS
 62
    7
 10
192.57925909918708
 20
169.45945945945948
 11
196.17924870671453
 21
165.85945747994089
  0
LINE
  8
_1-0_
  6
CONTINUOUS
 62
    7
 10
195.40766947978253
 20
169.45945945945948
 11
199.00768383129224
 21
165.85945747994089
  0
LINE
  8
_1-0_
  6
CONTINUOUS
 62
    7
 10
198.2361293483425
 20
169.45945945945948
 11
201.8361065838788
 21
165.85945747994089
  0
LINE
  8
_1-0_
  6
CONTINUOUS
 62
    7
 10
201.06455210092906
 20
169.45945945945948
 11
204.66455408044766
 21
165.85945747994089
  0
LINE
  8
_1-0_
  6
CONTINUOUS
 62
    7
 10
203.89298722550677
 20
169.45945945945948
 11
207.49297683303422
 21
165.85945747994089
  0
LINE
  8
_1-0_
  6
CONTINUOUS
 62
    7
 10
206.72142235008448
 20
169.45945945945948
 11
210.32142432960305
 21
165.85945747994089
  0
LINE
  8
_1-0_
  6
CONTINUOUS
 62
    7
 10
209.54985747466216
 20
169.45945945945948
 11
213.14985945418076
 21
165.85945747994089
  0
LINE
  8
_1-0_
  6
CONTINUOUS
 62
    7
 10
212.37829259923987
 20
169.45945945945948
 11
215.97829457875847
 21
165.85945747994089
  0
LINE
  8
_1-0_
  6
CONTINUOUS
 62
    7
 10
215.20672772381758
 20
169.45945945945948
 11
218.80672970333617
 21
165.85945747994089
  0
LINE
  8
_1-0_
  6
CONTINUOUS
 62
    7
 10
218.03516284839529
 20
169.45945945945948
 11
221.63516482791385
 21
165.85945747994089
  0
LINE
  8
_1-0_
  6
CONTINUOUS
 62
    7
 10
220.863597972973
 20
169.45945945945948
 11
224.46359995249156
 21
165.85945747994089
  0
LINE
  8
_1-0_
  6
CONTINUOUS
 62
    7
 10
223.69203309755068
 20
169.45945945945948
 11
227.29203507706927
 21
165.85945747994089
  0
LINE
  8
_1-0_
  6
CONTINUOUS
 62
    7
 10
226.52046822212839
 20
169.45945945945948
 11
230.12047020164698
 21
165.85945747994089
  0
LINE
  8
_1-0_
  6
CONTINUOUS
 62
    7
 10
229.34892809068836
 20
169.45945945945948
 11
232.94893007020693
 21
165.85945747994089
  0
LINE
  8
_1-0_
  6
CONTINUOUS
 62
    7
 10
232.1773384712838
 20
169.45945945945948
 11
235.77734045080237
 21
165.85945747994089
  0
LINE
  8
_1-0_
  6
CONTINUOUS
 62
    7
 10
235.00579833984375
 20
169.45945945945948
 11
238.60577557538008
 21
165.85945747994089
  0
LINE
  8
_1-0_
  6
CONTINUOUS
 62
    7
 10
237.83423346442146
 20
169.45945945945948
 11
241.43423544394005
 21
165.85945747994089
  0
LINE
  8
_1-0_
  6
CONTINUOUS
 62
    7
 10
240.6626438450169
 20
169.45945945945948
 11
244.2626458245355
 21
165.85945747994089
  0
LINE
  8
_1-0_
  6
CONTINUOUS
 62
    7
 10
243.49110371357688
 20
169.45945945945948
 11
247.09108094911318
 21
165.85945747994089
  0
LINE
  8
_1-0_
  6
CONTINUOUS
 62
    7
 10
246.31953883815459
 20
169.45945945945948
 11
249.91954081767315
 21
165.85945747994089
  0
LINE
  8
_1-0_
  6
CONTINUOUS
 62
    7
 10
249.14794921875
 20
169.45945945945948
 11
252.74797594225086
 21
165.85945747994089
  0
LINE
  8
_1-0_
  6
CONTINUOUS
 62
    7
 10
251.97638434332771
 20
169.45945945945948
 11
255.57643581081084
 21
165.85945747994089
  0
LINE
  8
_1-0_
  6
CONTINUOUS
 62
    7
 10
254.80486895586995
 20
169.45945945945948
 11
258.40487093538854
 21
165.85945747994089
  0
LINE
  8
_1-0_
  6
CONTINUOUS
 62
    7
 10
257.63327933646536
 20
169.45945945945948
 11
261.23330605996625
 21
165.85945747994089
  0
LINE
  8
_1-0_
  6
CONTINUOUS
 62
    7
 10
260.46173920502537
 20
169.45945945945948
 11
264.06174118454396
 21
165.85945747994089
  0
LINE
  8
_1-0_
  6
CONTINUOUS
 62
    7
 10
263.29014958562078
 20
169.45945945945948
 11
266.89017630912161
 21
165.85945747994089
  0
LINE
  8
_1-0_
  6
CONTINUOUS
 62
    7
 10
266.11858471019849
 20
169.45945945945948
 11
269.71858668971709
 21
165.85945747994089
  0
LINE
  8
_1-0_
  6
CONTINUOUS
 62
    7
 10
268.9470198347762
 20
169.45945945945948
 11
272.54704655827703
 21
165.85945747994089
  0
LINE
  8
_1-0_
  6
CONTINUOUS
 62
    7
 10
271.77547970333615
 20
169.45945945945948
 11
275.3754569388725
 21
165.85945747994089
  0
LINE
  8
_1-0_
  6
CONTINUOUS
 62
    7
 10
274.60389008393162
 20
169.45945945945948
 11
278.20391680743245
 21
165.85945747994089
  0
LINE
  8
_1-0_
  6
CONTINUOUS
 62
    7
 10
277.43232520850933
 20
169.45945945945948
 11
281.03235193201016
 21
165.85945747994089
  0
LINE
  8
_1-0_
  6
CONTINUOUS
 62
    7
 10
280.26078507706927
 20
169.45945945945948
 11
283.86076231260557
 21
165.85945747994089
  0
LINE
  8
_1-0_
  6
CONTINUOUS
 62
    7
 10
283.08922020164698
 20
169.45945945945948
 11
286.68922218116558
 21
165.85945747994089
  0
LINE
  8
_1-0_
  6
CONTINUOUS
 62
    7
 10
285.91765532622469
 20
169.45945945945948
 11
289.51763256176099
 21
165.85945747994089
  0
LINE
  8
_1-0_
  6
CONTINUOUS
 62
    7
 10
288.7460904508024
 20
169.45945945945948
 11
292.3460676863387
 21
165.85945747994089
  0
LINE
  8
_1-0_
  6
CONTINUOUS
 62
    7
 10
291.57452557538011
 20
169.45945945945948
 11
295.17452755489865
 21
165.85945747994089
  0
LINE
  8
_1-0_
  6
CONTINUOUS
 62
    7
 10
294.40296069995776
 20
169.45945945945948
 11
298.00293793549412
 21
165.85945747994089
  0
LINE
  8
_1-0_
  6
CONTINUOUS
 62
    7
 10
297.23139582453547
 20
169.45945945945948
 11
300.83139780405406
 21
165.85945747994089
  0
LINE
  8
_1-0_
  6
CONTINUOUS
 62
    7
 10
300.05983094911318
 20
169.45945945945948
 11
303.65983292863177
 21
165.85945747994089
  0
LINE
  8
_1-0_
  6
CONTINUOUS
 62
    7
 10
302.88826607369089
 20
169.45945945945948
 11
306.48826805320948
 21
165.85945747994089
  0
LINE
  8
_1-0_
  6
CONTINUOUS
 62
    7
 10
305.71670119826859
 20
169.45945945945948
 11
309.31670317778719
 21
165.85945747994089
  0
LINE
  8
_1-0_
  6
CONTINUOUS
 62
    7
 10
308.5451363228463
 20
169.45945945945948
 11
312.1451383023649
 21
165.85945747994089
  0
LINE
  8
_1-0_
  6
CONTINUOUS
 62
    7
 10
311.37357144742401
 20
169.45945945945948
 11
314.97357342694261
 21
165.85945747994089
  0
LINE
  8
_1-0_
  6
CONTINUOUS
 62
    7
 10
314.20200657200172
 20
169.45945945945948
 11
317.80200855152026
 21
165.85945747994089
  0
LINE
  8
_1-0_
  6
CONTINUOUS
 62
    7
 10
317.03044169657943
 20
169.45945945945948
 11
320.63044367609797
 21
165.85945747994089
  0
LINE
  8
_1-0_
  6
CONTINUOUS
 62
    7
 10
319.85887682115714
 20
169.45945945945948
 11
323.45887880067568
 21
165.85945747994089
  0
LINE
  8
_1-0_
  6
CONTINUOUS
 62
    7
 10
322.68731194573479
 20
169.45945945945948
 11
326.28731392525339
 21
165.85945747994089
  0
LINE
  8
_1-0_
  6
CONTINUOUS
 62
    7
 10
325.5157470703125
 20
169.45945945945948
 11
329.11577379381339
 21
165.85945747994089
  0
LINE
  8
_1-0_
  6
CONTINUOUS
 62
    7
 10
328.34418219489021
 20
169.45945945945948
 11
331.94420891839104
 21
165.85945747994089
  0
LINE
  8
_1-0_
  6
CONTINUOUS
 62
    7
 10
331.17261731946792
 20
169.45945945945948
 11
334.77261929898651
 21
165.85945747994089
  0
LINE
  8
_1-0_
  6
CONTINUOUS
 62
    7
 10
334.00105244404563
 20
169.45945945945948
 11
337.60107916754646
 21
165.85945747994089
  0
LINE
  8
_1-0_
  6
CONTINUOUS
 62
    7
 10
336.82948756862334
 20
169.45945945945948
 11
340.42951429212417
 21
165.85945747994089
  0
LINE
  8
_1-0_
  6
CONTINUOUS
 62
    7
 10
339.65794743718328
 20
169.45945945945948
 11
343.25792467271964
 21
165.85945747994089
  0
LINE
  8
_1-0_
  6
CONTINUOUS
 62
    7
 10
342.48638256176099
 20
169.45945945945948
 11
346.08638454127959
 21
165.85945747994089
  0
LINE
  8
_1-0_
  6
CONTINUOUS
 62
    7
 10
345.3148176863387
 20
169.45945945945948
 11
348.91484440983953
 21
165.85945747994089
  0
LINE
  8
_1-0_
  6
CONTINUOUS
 62
    7
 10
348.14325281091641
 20
169.45945945945948
 11
351.74323004645271
 21
165.85945747994089
  0
LINE
  8
_1-0_
  6
CONTINUOUS
 62
    7
 10
350.97168793549412
 20
169.45945945945948
 11
354.57168991501271
 21
165.85945747994089
  0
LINE
  8
_1-0_
  6
CONTINUOUS
 62
    7
 10
353.80014780405406
 20
169.45945945945948
 11
357.40014978357266
 21
165.85945747994089
  0
LINE
  8
_1-0_
  6
CONTINUOUS
 62
    7
 10
356.62855818464953
 20
169.45945945945948
 11
360.22858490815037
 21
165.85945747994089
  0
LINE
  8
_1-0_
  6
CONTINUOUS
 62
    7
 10
359.45701805320948
 20
169.45945945945948
 11
363.05702003272808
 21
165.85945747994089
  0
LINE
  8
_1-0_
  6
CONTINUOUS
 62
    7
 10
362.28545317778719
 20
169.45945945945948
 11
365.88545515730578
 21
165.85945747994089
  0
LINE
  8
_1-0_
  6
CONTINUOUS
 62
    7
 10
365.1138883023649
 20
169.45945945945948
 11
368.71389028188349
 21
165.85945747994089
  0
LINE
  8
_1-0_
  6
CONTINUOUS
 62
    7
 10
367.94229868296031
 20
169.45945945945948
 11
371.54232540646115
 21
165.85945747994089
  0
LINE
  8
_1-0_
  6
CONTINUOUS
 62
    7
 10
370.77073380753802
 20
169.45945945945948
 11
374.37073578705662
 21
165.85945747994089
  0
LINE
  8
_1-0_
  6
CONTINUOUS
 62
    7
 10
373.59919367609797
 20
169.45945945945948
 11
377.19917091163433
 21
165.85945747994089
  0
LINE
  8
_1-0_
  6
CONTINUOUS
 62
    7
 10
376.42760405669344
 20
169.45945945945948
 11
380.02763078019427
 21
165.85945747994089
  0
LINE
  8
_1-0_
  6
CONTINUOUS
 62
    7
 10
379.25606392525339
 20
169.45945945945948
 11
382.85606590477198
 21
165.85945747994089
  0
LINE
  8
_1-0_
  6
CONTINUOUS
 62
    7
 10
382.08447430584886
 20
169.45945945945948
 11
385.6844762853674
 21
165.85945747994089
  0
LINE
  8
_1-0_
  6
CONTINUOUS
 62
    7
 10
384.9129341744088
 20
169.45945945945948
 11
388.5129361539274
 21
165.85945747994089
  0
LINE
  8
_1-0_
  6
CONTINUOUS
 62
    7
 10
387.74134455500422
 20
169.45945945945948
 11
391.09257053684547
 21
166.10824584960937
  0
LINE
  8
_1-0_
  6
CONTINUOUS
 62
    7
 10
390.56980442356422
 20
169.45945945945948
 11
391.09257053684547
 21
168.93668097418708
  0
LINE
  8
_1-0_
  6
CONTINUOUS
 62
    3
 10
332.67024684596709
 20
161.85945665514149
 11
333.07025806323907
 21
161.85945665514149
  0
LINE
  8
_1-0_
  6
CONTINUOUS
 62
    3
 10
333.07025806323907
 20
149.85945418074326
 11
332.67024684596709
 21
149.85945418074326
  0
LINE
  8
_1-0_
  6
CONTINUOUS
 62
    3
 10
331.67024354676943
 20
165.45945863466005
 11
324.47028907569683
 21
165.45945863466005
  0
LINE
  8
_1-0_
  6
CONTINUOUS
 62
    3
 10
332.67024684596709
 20
164.45945533546242
 11
332.67024684596709
 21
161.85945665514149
  0
LINE
  8
_1-0_
  6
CONTINUOUS
 62
    3
 10
333.07025806323907
 20
164.85945418074326
 11
333.07025806323907
 21
161.85945665514149
  0
LINE
  8
_1-0_
  6
CONTINUOUS
 62
    3
 10
332.07025476404141
 20
165.85945747994089
 11
324.07027785842484
 21
165.85945747994089
  0
LINE
  8
_1-0_
  6
CONTINUOUS
 62
    3
 10
332.67024684596709
 20
147.25945550042232
 11
332.67024684596709
 21
149.85945418074326
  0
LINE
  8
_1-0_
  6
CONTINUOUS
 62
    3
 10
333.07025806323907
 20
146.85945665514149
 11
333.07025806323907
 21
149.85945418074326
  0
LINE
  8
_1-0_
  6
CONTINUOUS
 62
    3
 10
324.47028907569683
 20
146.25945220122466
 11
331.67024354676943
 21
146.25945220122466
  0
LINE
  8
_1-0_
  6
CONTINUOUS
 62
    3
 10
323.47028577649917
 20
147.25945550042232
 11
323.47028577649917
 21
164.45945533546242
  0
LINE
  8
_1-0_
  6
CONTINUOUS
 62
    3
 10
323.07027455922719
 20
146.85945665514149
 11
323.07027455922719
 21
164.85945418074326
  0
LINE
  8
_1-0_
  6
CONTINUOUS
 62
    3
 10
324.07027785842484
 20
145.85946572793497
 11
332.07025476404141
 21
145.85946572793497
  0
LINE
  8
ADD_LINE
  6
DOT
 62
    3
 10
324.07027785842484
 20
165.85945747994089
 11
322.6719954207137
 21
165.85945747994089
  0
LINE
  8
ADD_LINE
  6
DOT
 62
    3
 10
323.07027455922719
 20
146.85945665514149
 11
323.07027455922719
 21
145.42776984137458
  0
LINE
  8
_1-0_
  6
CONTINUOUS
 62
    7
 10
87.870693722286745
 20
165.85945747994089
 11
91.470720445787592
 21
169.45945945945948
  0
LINE
  8
_1-0_
  6
CONTINUOUS
 62
    7
 10
82.270270682669974
 20
135.85945747994089
 11
391.09257053684547
 21
135.85945747994089
  0
LINE
  8
_1-0_
  6
CONTINUOUS
 62
    7
 10
72.270268620671459
 20
136.65945517050255
 11
72.270268620671459
 21
129.85946242873734
  0
LINE
  8
_1-0_
  6
CONTINUOUS
 62
    7
 10
72.270268620671459
 20
129.85946242873734
 11
82.270270682669974
 21
129.85946242873734
  0
LINE
  8
_1-0_
  6
CONTINUOUS
 62
    7
 10
82.270270682669974
 20
178.45946440825591
 11
82.270270682669974
 21
129.85946242873734
  0
LINE
  8
_1-0_
  6
CONTINUOUS
 62
    7
 10
183.14149598817568
 20
145.85945335594386
 11
391.09257053684547
 21
145.85945335594386
  0
LINE
  8
_1-0_
  6
CONTINUOUS
 62
    7
 10
82.270270682669974
 20
145.85945335594386
 11
181.77971092430323
 21
145.85945335594386
  0
LINE
  8
_1-0_
  6
CONTINUOUS
 62
    7
 10
181.77971092430323
 20
145.85945335594386
 11
183.14149598817568
 21
145.85945335594386
  0
LINE
  8
_1-0_
  6
CONTINUOUS
 62
    7
 10
173.89844327359586
 20
145.85945335594386
 11
163.89844739759292
 21
135.85945747994089
  0
LINE
  8
_1-0_
  6
CONTINUOUS
 62
    7
 10
171.63570507152662
 20
145.85945335594386
 11
161.63570919552365
 21
135.85945747994089
  0
LINE
  8
_1-0_
  6
CONTINUOUS
 62
    7
 10
169.37296686945734
 20
145.85945335594386
 11
159.3729709934544
 21
135.85945747994089
  0
LINE
  8
_1-0_
  6
CONTINUOUS
 62
    7
 10
287.07045271589953
 20
145.85945335594386
 11
288.43223777977198
 21
145.85945335594386
  0
LINE
  8
_1-0_
  6
CONTINUOUS
 62
    7
 10
279.18917269320104
 20
145.85945335594386
 11
269.18918918918922
 21
135.85945747994089
  0
LINE
  8
_1-0_
  6
CONTINUOUS
 62
    7
 10
276.92643449113177
 20
145.85945335594386
 11
266.92645098711995
 21
135.85945747994089
  0
LINE
  8
_1-0_
  6
CONTINUOUS
 62
    7
 10
274.6636962890625
 20
145.85945335594386
 11
264.66371278505068
 21
135.85945747994089
  0
LINE
  8
_1-0_
  6
CONTINUOUS
 62
    7
 10
373.01639866184547
 20
145.85945335594386
 11
374.37818372571792
 21
145.85945335594386
  0
LINE
  8
_1-0_
  6
CONTINUOUS
 62
    7
 10
365.13511863914698
 20
145.85945335594386
 11
355.13513513513516
 21
135.85945747994089
  0
LINE
  8
_1-0_
  6
CONTINUOUS
 62
    7
 10
362.87238043707771
 20
145.85945335594386
 11
352.87239693306589
 21
135.85945747994089
  0
LINE
  8
_1-0_
  6
CONTINUOUS
 62
    7
 10
360.60964223500849
 20
145.85945335594386
 11
350.60965873099661
 21
135.85945747994089
  0
LINE
  8
_1-0_
  6
CONTINUOUS
 62
    7
 10
82.270270682669974
 20
154.32559451541385
 11
72.270268620671459
 21
144.32559863941091
  0
LINE
  8
_1-0_
  6
CONTINUOUS
 62
    7
 10
82.270270682669974
 20
156.58833271748313
 11
72.270268620671459
 21
146.58833684148016
  0
LINE
  8
_1-0_
  6
CONTINUOUS
 62
    7
 10
82.270270682669974
 20
158.85108329154352
 11
72.270268620671459
 21
148.85107504354943
  0
LINE
  8
_1-0_
  6
CONTINUOUS
 62
    7
 10
71.270265321473801
 20
115.13513513513514
 11
72.270268620671459
 21
115.13513513513514
  0
LINE
  8
_1-0_
  6
CONTINUOUS
 62
    7
 10
71.270265321473801
 20
124.05405405405406
 11
71.270265321473801
 21
115.13513513513514
  0
LINE
  8
_1-0_
  6
CONTINUOUS
 62
    7
 10
72.270268620671459
 20
124.05405405405406
 11
72.270268620671459
 21
115.13513513513514
  0
LINE
  8
_1-0_
  6
CONTINUOUS
 62
    7
 10
72.270268620671459
 20
115.13513513513514
 11
82.270270682669974
 21
115.13513513513514
  0
LINE
  8
_1-0_
  6
CONTINUOUS
 62
    7
 10
82.270270682669974
 20
124.05405405405406
 11
82.270270682669974
 21
115.13513513513514
  0
LINE
  8
_1-0_
  6
CONTINUOUS
 62
    7
 10
137.02702702702703
 20
141.08108108108109
 11
152.35774272197003
 21
98.960297043259089
  0
LINE
  8
_1-0_
  6
CONTINUOUS
 62
    7
 10
80.27027027027026
 20
133.7837837837838
 11
95.577033790382188
 21
91.728806366791602
  0
LINE
  8
_1-0_
  6
CONTINUOUS
 62
    7
 10
95.577033790382188
 20
91.728806366791602
 11
102.97297297297298
 21
91.728806366791602
  0
LINE
  8
_1-0_
  6
CONTINUOUS
 62
    7
 10
154.98979723131336
 20
91.728806366791602
 11
162.16216216216216
 21
91.728806366791602
  0
LINE
  8
_1-0_
  6
CONTINUOUS
 62
    7
 10
152.35774272197003
 20
98.960297043259089
 11
154.98979723131336
 21
91.728806366791602
  0
LINE
  8
_1-0_
  6
CONTINUOUS
 62
    3
 10
91.870249155405403
 20
161.85945665514149
 11
92.27026037267737
 21
161.85945665514149
  0
LINE
  8
_1-0_
  6
CONTINUOUS
 62
    3
 10
92.27026037267737
 20
149.85945418074326
 11
91.870249155405403
 21
149.85945418074326
  0
LINE
  8
_1-0_
  6
CONTINUOUS
 62
    3
 10
90.870245856207774
 20
165.45945863466005
 11
83.670291385135144
 21
165.45945863466005
  0
LINE
  8
_1-0_
  6
CONTINUOUS
 62
    3
 10
91.870249155405403
 20
164.45945533546242
 11
91.870249155405403
 21
161.85945665514149
  0
LINE
  8
_1-0_
  6
CONTINUOUS
 62
    3
 10
92.27026037267737
 20
164.85945418074326
 11
92.27026037267737
 21
161.85945665514149
  0
LINE
  8
_1-0_
  6
CONTINUOUS
 62
    3
 10
91.27025707347974
 20
165.85945747994089
 11
83.270280167863177
 21
165.85945747994089
  0
LINE
  8
_1-0_
  6
CONTINUOUS
 62
    3
 10
91.870249155405403
 20
147.25945550042232
 11
91.870249155405403
 21
149.85945418074326
  0
LINE
  8
_1-0_
  6
CONTINUOUS
 62
    3
 10
92.27026037267737
 20
146.85945665514149
 11
92.27026037267737
 21
149.85945418074326
  0
LINE
  8
_1-0_
  6
CONTINUOUS
 62
    3
 10
83.670291385135144
 20
146.25945220122466
 11
90.870245856207774
 21
146.25945220122466
  0
LINE
  8
_1-0_
  6
CONTINUOUS
 62
    3
 10
82.6702880859375
 20
147.25945550042232
 11
82.6702880859375
 21
164.45945533546242
  0
LINE
  8
_1-0_
  6
CONTINUOUS
 62
    3
 10
82.270276868665547
 20
146.85945665514149
 11
82.270276868665547
 21
164.85945418074326
  0
LINE
  8
_1-0_
  6
CONTINUOUS
 62
    3
 10
83.270280167863177
 20
145.85946572793497
 11
91.27025707347974
 21
145.85946572793497
  0
LINE
  8
ADD_LINE
  6
DOT
 62
    3
 10
83.270280167863177
 20
165.85945747994089
 11
81.871997730152032
 21
165.85945747994089
  0
LINE
  8
ADD_LINE
  6
DOT
 62
    3
 10
82.270276868665547
 20
164.85945418074326
 11
82.270276868665547
 21
166.37070526947846
  0
LINE
  8
ADD_LINE
  6
DOT
 62
    3
 10
82.270276868665547
 20
146.85945665514149
 11
82.270276868665547
 21
145.42776984137458
  0
LINE
  8
_1-0_
  6
CONTINUOUS
 62
    3
 10
84.754541757944466
 20
176.25947694520693
 11
83.270471933725716
 21
176.25947694520693
  0
LINE
  8
_1-1_
  6
CONTINUOUS
 62
    3
 10
83.270471933725716
 20
176.25947694520693
 11
83.270471933725716
 21
174.25947034681167
  0
LINE
  8
_0-0_
  6
CONTINUOUS
 62
    5
 10
412.43244892842063
 20
8.5135135135135158
 11
12.432428308435391
 21
8.5135135135135158
  0
ARC
  8
_1-1_
  6
CONTINUOUS
 62
    3
 10
94.116402703362553
 20
181.39254183382602
 40
4.1404008865356445
 50
201.73239135742187
 51
266.59201049804687
  0
ARC
  8
_1-1_
  6
CONTINUOUS
 62
    3
 10
137.6656197212838
 20
180.00581483583193
 40
2.7463450302948824
 50
270.09652709960937
 51
356.94560241699224
  0
ARC
  8
_1-1_
  6
CONTINUOUS
 62
    3
 10
69.270258723078541
 20
182.05946638777451
 40
0.9999999162313101
 50
90
 51
180
  0
ARC
  8
_1-1_
  6
CONTINUOUS
 62
    3
 10
155.31639305320948
 20
181.39254183382602
 40
4.1404008865356445
 50
201.73239135742187
 51
266.59201049804687
  0
ARC
  8
_1-1_
  6
CONTINUOUS
 62
    3
 10
198.86560388513516
 20
180.00581483583193
 40
2.7463450302948824
 50
270.09652709960937
 51
356.94560241699224
  0
ARC
  8
_1-1_
  6
CONTINUOUS
 62
    3
 10
216.51637721706084
 20
181.39254183382602
 40
4.1404008865356445
 50
201.73239135742187
 51
266.59201049804687
  0
ARC
  8
_1-1_
  6
CONTINUOUS
 62
    3
 10
260.06558804898651
 20
180.00581483583193
 40
2.7463450302948824
 50
270.09652709960937
 51
356.94560241699224
  0
ARC
  8
_1-1_
  6
CONTINUOUS
 62
    3
 10
277.71638612489443
 20
181.39254183382602
 40
4.1404008865356445
 50
201.73239135742187
 51
266.59201049804687
  0
ARC
  8
_1-1_
  6
CONTINUOUS
 62
    3
 10
321.2655969568201
 20
180.00581483583193
 40
2.7463450302948824
 50
270.09652709960937
 51
356.94560241699224
  0
ARC
  8
_1-1_
  6
CONTINUOUS
 62
    3
 10
338.91639503272808
 20
181.39254183382602
 40
4.1404008865356445
 50
201.73239135742187
 51
266.59201049804687
  0
ARC
  8
_1-1_
  6
CONTINUOUS
 62
    3
 10
382.46560586465375
 20
180.00581483583193
 40
2.7463450302948824
 50
270.09652709960937
 51
356.94560241699224
  0
ARC
  8
_1-0_
  6
CONTINUOUS
 62
    3
 10
202.6702880859375
 20
164.85945418074326
 40
0.9999999162313101
 50
90
 51
180
  0
ARC
  8
_1-0_
  6
CONTINUOUS
 62
    3
 10
203.07029930320948
 20
164.45945533546242
 40
0.9999999162313101
 50
90
 51
180
  0
ARC
  8
_1-0_
  6
CONTINUOUS
 62
    3
 10
210.27025377428211
 20
164.45945533546242
 40
0.9999999162313101
 50
0
 51
90
  0
ARC
  8
_1-0_
  6
CONTINUOUS
 62
    3
 10
210.67026499155406
 20
164.85945418074326
 40
0.9999999162313101
 50
0
 51
90
  0
ARC
  8
_1-0_
  6
CONTINUOUS
 62
    3
 10
210.27025377428211
 20
147.25945550042232
 40
0.9999999162313101
 50
270
 51
0
  0
ARC
  8
_1-0_
  6
CONTINUOUS
 62
    3
 10
210.67026499155406
 20
146.85945665514149
 40
0.9999999162313101
 50
270
 51
0
  0
ARC
  8
_1-0_
  6
CONTINUOUS
 62
    3
 10
203.07029930320948
 20
147.25945550042232
 40
0.9999999162313101
 50
180
 51
270
  0
ARC
  8
_1-0_
  6
CONTINUOUS
 62
    3
 10
202.6702880859375
 20
146.85945665514149
 40
0.9999999162313101
 50
180
 51
270
  0
ARC
  8
_1-0_
  6
CONTINUOUS
 62
    3
 10
324.07027785842484
 20
164.85945418074326
 40
0.9999999162313101
 50
90
 51
180
  0
ARC
  8
_1-0_
  6
CONTINUOUS
 62
    3
 10
324.47028907569683
 20
164.45945533546242
 40
0.9999999162313101
 50
90
 51
180
  0
ARC
  8
_1-0_
  6
CONTINUOUS
 62
    3
 10
331.67024354676943
 20
164.45945533546242
 40
0.9999999162313101
 50
0
 51
90
  0
ARC
  8
_1-0_
  6
CONTINUOUS
 62
    3
 10
332.07025476404141
 20
164.85945418074326
 40
0.9999999162313101
 50
0
 51
90
  0
ARC
  8
_1-0_
  6
CONTINUOUS
 62
    3
 10
331.67024354676943
 20
147.25945550042232
 40
0.9999999162313101
 50
270
 51
0
  0
ARC
  8
_1-0_
  6
CONTINUOUS
 62
    3
 10
332.07025476404141
 20
146.85945665514149
 40
0.9999999162313101
 50
270
 51
0
  0
ARC
  8
_1-0_
  6
CONTINUOUS
 62
    3
 10
324.47028907569683
 20
147.25945550042232
 40
0.9999999162313101
 50
180
 51
270
  0
ARC
  8
_1-0_
  6
CONTINUOUS
 62
    3
 10
324.07027785842484
 20
146.85945665514149
 40
0.9999999162313101
 50
180
 51
270
  0
ARC
  8
_1-0_
  6
CONTINUOUS
 62
    3
 10
83.270280167863177
 20
164.85945418074326
 40
0.9999999162313101
 50
90
 51
180
  0
ARC
  8
_1-0_
  6
CONTINUOUS
 62
    3
 10
83.670291385135144
 20
164.45945533546242
 40
0.9999999162313101
 50
90
 51
180
  0
ARC
  8
_1-0_
  6
CONTINUOUS
 62
    3
 10
90.870245856207774
 20
164.45945533546242
 40
0.9999999162313101
 50
0
 51
90
  0
ARC
  8
_1-0_
  6
CONTINUOUS
 62
    3
 10
91.27025707347974
 20
164.85945418074326
 40
0.9999999162313101
 50
0
 51
90
  0
ARC
  8
_1-0_
  6
CONTINUOUS
 62
    3
 10
90.870245856207774
 20
147.25945550042232
 40
0.9999999162313101
 50
270
 51
0
  0
ARC
  8
_1-0_
  6
CONTINUOUS
 62
    3
 10
91.27025707347974
 20
146.85945665514149
 40
0.9999999162313101
 50
270
 51
0
  0
ARC
  8
_1-0_
  6
CONTINUOUS
 62
    3
 10
83.670291385135144
 20
147.25945550042232
 40
0.9999999162313101
 50
180
 51
270
  0
ARC
  8
_1-0_
  6
CONTINUOUS
 62
    3
 10
83.270280167863177
 20
146.85945665514149
 40
0.9999999162313101
 50
180
 51
270
  0
TEXT
  8
_0-0_
 62
    7
 10
147.56756962956609
 20
22.702702702702709
 40
2.5
 41
1
 50
0
  1
図名
  0
TEXT
  8
_0-0_
 62
    7
 10
147.56756962956609
 20
12.972972972972968
 40
2.5
 41
1
 50
0
  1
縮尺
  0
TEXT
  8
_0-0_
 62
    7
 10
382.77784605284
 20
21.243871740392734
 40
2.5
 41
1
 50
0
  1
ＮＯ
  0
TEXT
  8
_0-0_
 62
    7
 10
20.270270012520456
 20
22.702702702702709
 40
2.5
 41
1
 50
0
  1
Ｆ形
  0
TEXT
  8
_0-0_
 62
    7
 10
389.99062615471917
 20
16.178650211643514
 40
2.5
 41
1
 50
0
  1
Ｆ
  0
TEXT
  8
_0-0_
 62
    7
 10
171.37221877639359
 20
12.362518826046511
 40
2.5
 41
1
 50
0
  1
1/5
  0
TEXT
  8
_1-4_
 62
    7
 10
45.397582698512736
 20
13.77361400707349
 40
2.5
 41
1
 50
0
  1
袖
  0
TEXT
  8
_1-4_
 62
    7
 10
49.775644766317839
 20
13.790045557795338
 40
2.5
 41
1
 50
0
  1
1
  0
TEXT
  8
_1-2_
 62
    7
 10
83.520269651670716
 20
212.93243408203125
 40
2.5
 41
1
 50
0
  1
45
  0
TEXT
  8
_1-2_
 62
    7
 10
178.99524585620779
 20
212.93243408203125
 40
2.5
 41
1
 50
0
  1
306
  0
TEXT
  8
_1-2_
 62
    7
 10
240.19523002005914
 20
212.93243408203125
 40
2.5
 41
1
 50
0
  1
306
  0
TEXT
  8
_1-2_
 62
    7
 10
301.395263671875
 20
212.93243408203125
 40
2.5
 41
1
 50
0
  1
306
  0
TEXT
  8
_1-2_
 62
    7
 10
117.89526449667441
 20
212.93243408203125
 40
2.5
 41
1
 50
0
  1
306
  0
TEXT
  8
_1-2_
 62
    7
 10
44.794272345465572
 20
172.70945574786214
 40
2.5
 41
1
 50
90
  1
45
  0
TEXT
  8
_0-1_
 62
    7
 10
48.767611529376069
 20
204.65225632126268
 40
2.5
 41
1
 50
0
  1
左袖瓦
  0
TEXT
  8
_0-1_
 62
    7
 10
108.42644768792231
 20
125.29294813001479
 40
2.5
 41
1
 50
0
  1
捨水切
  0
TEXT
  8
_0-1_
 62
    7
 10
247.63851268871412
 20
123.33247004328548
 40
2.5
 41
1
 50
0
  1
桟瓦
  0
TEXT
  8
_0-1_
 62
    7
 10
31.231869362496042
 20
18.589955922719582
 40
2.5
 41
1
 50
0
  1
Ｓ
  0
TEXT
  8
_1-0_
 62
    7
 10
69.529902483965884
 20
115.63513678473396
 40
2.5
 41
1
 50
0
  1
5
  0
TEXT
  8
_1-0_
 62
    7
 10
76.020269651670731
 20
115.63513678473396
 40
2.5
 41
1
 50
0
  1
50
  0
TEXT
  8
_1-0_
 62
    7
 10
104.99686782424516
 20
90.625323733767956
 40
2.5
 41
1
 50
0
  1
ＡＬＣ板
  0
TEXT
  8
_1-0_
 62
    7
 10
165.99864031817464
 20
90.601062259158581
 40
2.5
 41
1
 50
0
  1
ＡＬＣ板
  0
TEXT
  8
_1-0_
 62
    7
 10
247.63852093670823
 20
95.126266479492187
 40
2.5
 41
1
 50
0
  1
硬質木片セメント板　ｔ＝18
  0
TEXT
  8
_1-0_
 62
    3
 10
240
 20
47.837837837837839
 40
3
 41
1
 50
0
  1
＊　耐火仕様では有りません
  0
POINT
  8
_1-2_
 62
    7
 10
80.27027027027026
 20
212.43243243243245
  0
POINT
  8
_1-2_
 62
    7
 10
89.270269033071159
 20
212.43243243243245
  0
POINT
  8
_1-2_
 62
    7
 10
150.27025377428211
 20
212.43243243243245
  0
POINT
  8
_1-2_
 62
    7
 10
211.47023793813347
 20
212.43243243243245
  0
POINT
  8
_1-2_
 62
    7
 10
272.67024684596709
 20
212.43243243243245
  0
POINT
  8
_1-2_
 62
    7
 10
333.87025575380068
 20
212.43243243243245
  0
POINT
  8
_1-2_
 62
    7
 10
45.294270902066614
 20
169.45945945945948
  0
POINT
  8
_1-2_
 62
    7
 10
45.294270902066614
 20
178.45946440825591
  0
POINT
  8
_1-0_
 62
    7
 10
71.270265321473801
 20
115.13513513513514
  0
POINT
  8
_1-0_
 62
    7
 10
72.270268620671459
 20
115.13513513513514
  0
POINT
  8
_1-0_
 62
    7
 10
82.270270682669974
 20
115.13513513513514
  0
TEXT
  8
_0-1_
 62
    7
 10
400.78471828151396
 20
12.875927074535468
 40
2.5
 41
1
 50
0
  1
29
  0
TEXT
  8
_1-0_
 62
    7
 10
247.63851681271115
 20
116.03203026024072
 40
2.5
 41
1
 50
0
  1
瓦桟　１５×２１　以上　（防腐処理）
  0
TEXT
  8
_1-0_
 62
    7
 10
255.87981483993678
 20
112.78818026528165
 40
2.5
 41
1
 50
0
  1
※　地域により瓦桟木の大きさは、異なります
  0
TEXT
  8
_0-1_
 62
    7
 10
247.63851681271117
 20
108.89752362225508
 40
2.5
 41
1
 50
0
  1
縦桟
  0
TEXT
  8
_1-0_
 62
    7
 10
247.63852093670823
 20
101.92893775733742
 40
2.5
 41
1
 50
0
  1
ルーフィング
  0
TEXT
  8
_1-0_
 62
    7
 10
247.63851268871412
 20
88.323595201646967
 40
2.5
 41
1
 50
0
  1
たる木　Ｃ-100ｘ50ｘ20ｘ3.2　　＠607
  0
ENDSEC
  0
EOF
