  0
SECTION
  2
HEADER
  9
$ACADVER
  1
AC1009
  9
$INSBASE
 10
0
 20
0
 30
0
  9
$EXTMIN
 10
0
 20
0
  9
$EXTMAX
 10
420
 20
297
  9
$LIMMIN
 10
0
 20
0
  9
$LIMMAX
 10
420
 20
297
  9
$LTSCALE
 40
1
  0
ENDSEC
  0
SECTION
  2
TABLES
  0
TABLE
  2
LTYPE
 70
     9
  0
LTYPE
  2
CONTINUOUS
 70
    64
  3
実線
 72
    65
 73
     0
 40
0.0
  0
LTYPE
  2
DASHED1
 70
    64
  3
--  --  --  --  --  --  --  --  
 72
    65
 73
     2
 40
2.5
 49
1.25
 49
-1.25
  0
LTYPE
  2
DASHED2
 70
    64
  3
----    ----    ----    ----    
 72
    65
 73
     2
 40
5.0
 49
2.5
 49
-2.5
  0
LTYPE
  2
DASHED3
 70
    64
  3
------  ------  ------  ------  
 72
    65
 73
     2
 40
5.0
 49
3.75
 49
-1.25
  0
LTYPE
  2
CENTER1
 70
    64
  3
----- - ----- - ----- - ----- - 
 72
    65
 73
     4
 40
10.0
 49
6.25
 49
-1.25
 49
1.25
 49
-1.25
  0
LTYPE
  2
CENTER2
 70
    64
  3
----------  --  ----------  --  
 72
    65
 73
     4
 40
20.0
 49
12.5
 49
-2.5
 49
2.5
 49
-2.5
  0
LTYPE
  2
PHANTOM1
 70
    64
  3
--- - - --- - - --- - - --- - - 
 72
    65
 73
     6
 40
10.0
 49
3.25
 49
-1.25
 49
1.25
 49
-1.25
 49
1.25
 49
-1.25
  0
LTYPE
  2
PHANTOM2
 70
    64
  3
--------  -  -  --------  -  -  
 72
    65
 73
     6
 40
20.0
 49
10.0
 49
-2.5
 49
1.25
 49
-2.5
 49
1.25
 49
-2.5
  0
LTYPE
  2
DOT
 70
    64
  3
-   -   -   -   -   -   -   -   
 72
    65
 73
     2
 40
2.5
 49
0.625
 49
-1.875
  0
LTYPE
  2
DUMMY
 70
    64
  3
ダミー
 72
    65
 73
     0
 40
0.0
  0
LTYPE
  2
RAND1
 70
    64
  3
ランダム線1
 72
    65
 73
     4
 40
10.0
 49
1.0
 49
-2.0
 49
3.0
 49
-4.0
  0
LTYPE
  2
RAND2
 70
    64
  3
ランダム線2
 72
    65
 73
     4
 40
14.0
 49
2.0
 49
-3.0
 49
4.0
 49
-5.0
  0
LTYPE
  2
RAND3
 70
    64
  3
ランダム線3
 72
    65
 73
     4
 40
18.0
 49
3.0
 49
-4.0
 49
5.0
 49
-6.0
  0
LTYPE
  2
RAND4
 70
    64
  3
ランダム線4
 72
    65
 73
     4
 40
22.0
 49
4.0
 49
-5.0
 49
6.0
 49
-7.0
  0
LTYPE
  2
RAND5
 70
    64
  3
ランダム線5
 72
    65
 73
     4
 40
26.0
 49
5.0
 49
-6.0
 49
7.0
 49
-8.0
  0
LTYPE
  2
LONG1
 70
    64
  3
----------  --  ----------  --  
 72
    65
 73
     4
 40
40.0
 49
32.5
 49
-2.5
 49
2.5
 49
-2.5
  0
LTYPE
  2
LONG2
 70
    64
  3
--------  -  -  --------  -  -  
 72
    65
 73
     6
 40
40.0
 49
30.0
 49
-2.5
 49
1.25
 49
-2.5
 49
1.25
 49
-2.5
  0
LTYPE
  2
LONG3
 70
    64
  3
+++++++++++++++..+++++++++++++++
 72
    65
 73
     2
 40
40.0
 49
37.5
 49
-2.5
  0
LTYPE
  2
LONG4
 70
    64
  3
+++++++++++++++..+++++++++++++++
 72
    65
 73
     2
 40
80.0
 49
75.0
 49
-5.0
  0
LTYPE
  2
LONG5
 70
    64
  3
----------  --  ----------  --  
 72
    65
 73
     4
 40
60.0
 49
37.5
 49
-7.5
 49
7.5
 49
-7.5
  0
LTYPE
  2
dashed
 70
   64
  3
-------   -------------   ------
 72
   65
 73
    2
 40
7.5
 49
6
 49
-1.5
  0
LTYPE
  2
dashed_spaced
 70
   64
  3
----        --------        ----
 72
   65
 73
    2
 40
12
 49
6
 49
-6
  0
LTYPE
  2
long_dashed_dotted
 70
   64
  3
------------- --- --------------
 72
   65
 73
    4
 40
15.25
 49
12
 49
-1.5
 49
0.25
 49
-1.5
  0
LTYPE
  2
long_dashed_double-dotted
 70
   64
  3
----------- --- --- ------------
 72
   65
 73
    6
 40
17
 49
12
 49
-1.5
 49
0.25
 49
-1.5
 49
0.25
 49
-1.5
  0
LTYPE
  2
long_dashed_triplicate-dotted
 70
   64
  3
--------- --- --- --- ----------
 72
   65
 73
    8
 40
18.75
 49
12
 49
-1.5
 49
0.25
 49
-1.5
 49
0.25
 49
-1.5
 49
0.25
 49
-1.5
  0
LTYPE
  2
dotted
 70
   64
  3
   -       -       -       -    
 72
   65
 73
    2
 40
1.75
 49
0.25
 49
-1.5
  0
LTYPE
  2
chain
 70
   64
  3
-------------- -- --------------
 72
   65
 73
    4
 40
18.5
 49
12
 49
-1.5
 49
3.5
 49
-1.5
  0
LTYPE
  2
chain_double_dash
 70
   64
  3
------------ -- -- -------------
 72
   65
 73
    6
 40
23.5
 49
12
 49
-1.5
 49
3.5
 49
-1.5
 49
3.5
 49
-1.5
  0
LTYPE
  2
dashed_dotted
 70
   64
  3
-----------     -     ----------
 72
   65
 73
    4
 40
9.25
 49
6
 49
-1.5
 49
0.25
 49
-1.5
  0
LTYPE
  2
double-dashed_dotted
 70
   64
  3
------   -----------   -   -----
 72
   65
 73
    6
 40
16.75
 49
6
 49
-1.5
 49
6
 49
-1.5
 49
0.25
 49
-1.5
  0
LTYPE
  2
dashed_double-dotted
 70
   64
  3
---------    -    -    ---------
 72
   65
 73
    6
 40
11
 49
6
 49
-1.5
 49
0.25
 49
-1.5
 49
0.25
 49
-1.5
  0
LTYPE
  2
double-dashed_double-dotted
 70
   64
  3
-----   ---------   -   -   ----
 72
   65
 73
    8
 40
18.5
 49
6
 49
-1.5
 49
6
 49
-1.5
 49
0.25
 49
-1.5
 49
0.25
 49
-1.5
  0
LTYPE
  2
dashed_triplicate-dotted
 70
   64
  3
-------    -    -    -    ------
 72
   65
 73
    8
 40
12.75
 49
6
 49
-1.5
 49
0.25
 49
-1.5
 49
0.25
 49
-1.5
 49
0.25
 49
-1.5
  0
LTYPE
  2
double-dashed_triplicate-dotted
 70
   64
  3
-----  ---------  -  -  -  -----
 72
   65
 73
   10
 40
20.25
 49
6
 49
-1.5
 49
6
 49
-1.5
 49
0.25
 49
-1.5
 49
0.25
 49
-1.5
 49
0.25
 49
-1.5
  0
LTYPE
  2
undefined
 70
   64
  3
--------------------------------
 72
   65
 73
    0
 40
0
  0
LTYPE
  2
DOT_17
 70
   64
  3
--             ---             -
 72
   65
 73
    2
 40
5
 49
1
 49
-4
  0
LTYPE
  2
DASHED
 70
   64
  3
---          ------          ---
 72
   65
 73
    2
 40
5
 49
2
 49
-3
  0
LTYPE
  2
DASHED2_19
 70
   64
  3
---          ------          ---
 72
   65
 73
    2
 40
10
 49
4
 49
-6
  0
LTYPE
  2
CENTER
 70
   64
  3
----------    ----    ----------
 72
   65
 73
    4
 40
9
 49
6
 49
-1
 49
1
 49
-1
  0
LTYPE
  2
CENTER2_21
 70
   64
  3
----------    ----    ----------
 72
   65
 73
    4
 40
18
 49
12
 49
-2
 49
2
 49
-2
  0
LTYPE
  2
PHANTOM
 70
   64
  3
---------   ---   ---   --------
 72
   65
 73
    6
 40
10
 49
5
 49
-1
 49
1
 49
-1
 49
1
 49
-1
  0
LTYPE
  2
PHANTOM2_23
 70
   64
  3
------    ----    ----    ------
 72
   65
 73
    6
 40
16
 49
6
 49
-2
 49
2
 49
-2
 49
2
 49
-2
  0
LTYPE
  2
HIDDEN
 70
   64
  3
--             ---             -
 72
   65
 73
    2
 40
2.5
 49
0.5
 49
-2
  0
ENDTAB
  0
TABLE
  2
STYLE
  5
3
100
AcDbSymbolTable
 70
     1
  0
STYLE
  5
10
100
AcDbSymbolTableRecord
100
AcDbTextStyleTableRecord
  2
STANDARD
 70
     0
 40
0.0
 41
1.0
 50
0.0
 71
     0
 42
0.2
  3
txt
  4
bigfont.shx
  0
STYLE
  5
26
100
AcDbSymbolTableRecord
100
AcDbTextStyleTableRecord
  2
TATEGAKI
 70
    68
 40
0.0
 41
1.0
 50
0.0
 71
     0
 42
1.0
  3
txt
  4
bigfont.shx
  0
ENDTAB
  0
TABLE
  2
LAYER
 70
    9
  0
LAYER
  2
_0-0_
 70
   64
 62
    7
  6
CONTINUOUS
  0
LAYER
  2
_0-1_
 70
   64
 62
    7
  6
CONTINUOUS
  0
LAYER
  2
_1-0_
 70
   64
 62
    7
  6
CONTINUOUS
  0
LAYER
  2
_1-1_
 70
   64
 62
    7
  6
CONTINUOUS
  0
LAYER
  2
_1-2_
 70
   64
 62
    7
  6
CONTINUOUS
  0
LAYER
  2
_1-3_
 70
   64
 62
    7
  6
CONTINUOUS
  0
LAYER
  2
_1-4_
 70
   64
 62
    7
  6
CONTINUOUS
  0
LAYER
  2
_1-5_
 70
   64
 62
    7
  6
CONTINUOUS
  0
LAYER
  2
ADD_LINE
 70
   64
 62
    7
  6
CONTINUOUS
  0
ENDTAB
  0
ENDSEC
  0
SECTION
  2
BLOCKS
  0
ENDSEC
  0
SECTION
  2
ENTITIES
  0
LINE
  8
_0-0_
  6
CONTINUOUS
 62
    5
 10
12.432428308435391
 20
278.51351351351354
 11
412.43244892842063
 21
278.51351351351354
  0
LINE
  8
_0-0_
  6
CONTINUOUS
 62
    5
 10
412.43244892842063
 20
8.5135135135135158
 11
12.432428308435391
 21
8.5135135135135158
  0
LINE
  8
_0-0_
  6
CONTINUOUS
 62
    5
 10
412.43244892842063
 20
28.513511451515001
 11
12.432415936444272
 21
28.513511451515001
  0
LINE
  8
_0-0_
  6
CONTINUOUS
 62
    5
 10
377.43248192039698
 20
8.5135135135135158
 11
377.43248192039698
 21
28.513511451515001
  0
LINE
  8
_0-0_
  6
CONTINUOUS
 62
    5
 10
142.70271507469386
 20
28.513511451515001
 11
142.70271507469386
 21
8.5135135135135158
  0
LINE
  8
_0-0_
  6
CONTINUOUS
 62
    5
 10
220.54054054054055
 20
28.513511451515001
 11
220.54054054054055
 21
8.5135135135135158
  0
LINE
  8
_0-0_
  6
CONTINUOUS
 62
    5
 10
142.70271507469386
 20
18.513512482514244
 11
220.54054054054055
 21
18.513512482514244
  0
LINE
  8
_0-0_
  6
CONTINUOUS
 62
    5
 10
402.16218690614443
 20
24.324325870823216
 11
389.59456985061234
 21
11.756758303255651
  0
LINE
  8
_1-1_
  6
CONTINUOUS
 62
    7
 10
93.380003233213685
 20
86.063356141786329
 11
92.148903511665964
 21
88.799125052787161
  0
LINE
  8
_1-1_
  6
CONTINUOUS
 62
    7
 10
92.148903511665964
 20
88.799125052787161
 11
96.52615109005491
 21
90.768882132865286
  0
LINE
  8
_1-1_
  6
CONTINUOUS
 62
    7
 10
96.52615109005491
 20
90.768882132865286
 11
97.757238439611498
 21
88.033113221864454
  0
LINE
  8
_1-1_
  6
CONTINUOUS
 62
    7
 10
97.757238439611498
 20
88.033113221864454
 11
93.380003233213685
 21
86.063356141786329
  0
LINE
  8
_1-1_
  6
CONTINUOUS
 62
    7
 10
93.380003233213685
 20
86.063356141786329
 11
96.52615109005491
 21
90.768882132865286
  0
LINE
  8
_1-1_
  6
CONTINUOUS
 62
    7
 10
144.44759884396115
 20
109.04377292942357
 11
143.21651149440456
 21
111.77954184042441
  0
LINE
  8
_1-1_
  6
CONTINUOUS
 62
    7
 10
143.21651149440456
 20
111.77954184042441
 11
147.59374670080237
 21
113.74929892050254
  0
LINE
  8
_1-1_
  6
CONTINUOUS
 62
    7
 10
147.59374670080237
 20
113.74929892050254
 11
148.82483405035896
 21
111.01353000950169
  0
LINE
  8
_1-1_
  6
CONTINUOUS
 62
    7
 10
148.82483405035896
 20
111.01353000950169
 11
144.44759884396115
 21
109.04377292942357
  0
LINE
  8
_1-1_
  6
CONTINUOUS
 62
    7
 10
144.44759884396115
 20
109.04377292942357
 11
147.59374670080237
 21
113.74929892050254
  0
LINE
  8
_1-1_
  6
CONTINUOUS
 62
    7
 10
195.51519445470862
 20
132.02421446104307
 11
194.28410710515203
 21
134.75998337204393
  0
LINE
  8
_1-1_
  6
CONTINUOUS
 62
    7
 10
194.28410710515203
 20
134.75998337204393
 11
198.66134231154984
 21
136.72972808013091
  0
LINE
  8
_1-1_
  6
CONTINUOUS
 62
    7
 10
198.66134231154984
 20
136.72972808013091
 11
199.89242966110643
 21
133.99395916913008
  0
LINE
  8
_1-1_
  6
CONTINUOUS
 62
    7
 10
199.89242966110643
 20
133.99395916913008
 11
195.51519445470862
 21
132.02421446104307
  0
LINE
  8
_1-1_
  6
CONTINUOUS
 62
    7
 10
195.51519445470862
 20
132.02421446104307
 11
198.66134231154984
 21
136.72972808013091
  0
LINE
  8
_1-1_
  6
CONTINUOUS
 62
    7
 10
246.58279006545609
 20
155.00464362067146
 11
245.35170271589951
 21
157.74041253167232
  0
LINE
  8
_1-1_
  6
CONTINUOUS
 62
    7
 10
245.35170271589951
 20
157.74041253167232
 11
249.72893792229732
 21
159.7101572397593
  0
LINE
  8
_1-1_
  6
CONTINUOUS
 62
    7
 10
249.72893792229732
 20
159.7101572397593
 11
250.96002527185391
 21
156.97438832875847
  0
LINE
  8
_1-1_
  6
CONTINUOUS
 62
    7
 10
246.58279006545609
 20
155.00464362067146
 11
249.72893792229732
 21
159.7101572397593
  0
LINE
  8
_0-1_
  6
CONTINUOUS
 62
    7
 10
74.581257588154585
 20
144.71349767736487
 11
80.669316472233959
 21
144.71349767736487
  0
LINE
  8
_0-1_
  6
CONTINUOUS
 62
    7
 10
64.390102077174845
 20
172.71349107896961
 11
80.669316472233959
 21
172.71349107896961
  0
LINE
  8
_0-1_
  6
CONTINUOUS
 62
    7
 10
66.937890954919766
 20
165.71349272856841
 11
80.669316472233959
 21
165.71349272856841
  0
LINE
  8
_0-1_
  6
CONTINUOUS
 62
    7
 10
69.485679832664687
 20
158.71349437816724
 11
80.669316472233959
 21
158.71349437816724
  0
LINE
  8
_0-1_
  6
CONTINUOUS
 62
    7
 10
72.033468710409636
 20
151.71349602776607
 11
80.669316472233959
 21
151.71349602776607
  0
LINE
  8
_1-2_
  6
CONTINUOUS
 62
    3
 10
95.603819151182435
 20
96.149337356154987
 11
96.934105125633451
 21
96.585536647487331
  0
LINE
  8
_1-2_
  6
CONTINUOUS
 62
    3
 10
94.270415434966225
 20
95.08068187816724
 11
95.483291213576862
 21
95.478379533097552
  0
LINE
  8
_1-2_
  6
CONTINUOUS
 62
    3
 10
95.603819151182435
 20
96.149337356154987
 11
95.483291213576862
 21
95.478379533097552
  0
LINE
  8
_1-2_
  6
CONTINUOUS
 62
    3
 10
94.270415434966225
 20
95.08068187816724
 11
93.881019386085313
 21
93.058702623521967
  0
LINE
  8
_1-2_
  6
CONTINUOUS
 62
    3
 10
97.177165263407943
 20
94.560464395059128
 11
97.557257574957774
 21
94.685099833720443
  0
LINE
  8
_1-2_
  6
CONTINUOUS
 62
    7
 10
96.934105125633451
 20
96.585536647487331
 11
97.557257574957774
 21
94.685099833720443
  0
LINE
  8
_1-2_
  6
CONTINUOUS
 62
    3
 10
97.177165263407943
 20
94.560464395059128
 11
98.236529376055742
 21
91.329716862858959
  0
LINE
  8
_1-2_
  6
CONTINUOUS
 62
    7
 10
96.52615109005491
 20
90.768882132865286
 11
97.844065073374168
 21
88.675306165540547
  0
LINE
  8
_1-2_
  6
CONTINUOUS
 62
    7
 10
97.844065073374168
 20
88.675306165540547
 11
99.364409575591225
 21
89.173823176203555
  0
LINE
  8
_1-2_
  6
CONTINUOUS
 62
    3
 10
96.934105125633451
 20
96.585536647487331
 11
97.557257574957774
 21
94.685099833720443
  0
LINE
  8
_1-2_
  6
CONTINUOUS
 62
    7
 10
97.557257574957774
 20
94.685099833720443
 11
99.364409575591225
 21
89.173823176203555
  0
LINE
  8
ADD_LINE
  6
DOT
 62
    4
 10
95.416878365181589
 20
96.71947582347974
 11
96.747164339632604
 21
97.155675114812084
  0
LINE
  8
ADD_LINE
  6
DOT
 62
    4
 10
96.747164339632604
 20
97.155675114812084
 11
147.59374670080237
 21
113.74929892050254
  0
LINE
  8
_1-2_
  6
CONTINUOUS
 62
    3
 10
146.67896167652029
 20
119.13104083086994
 11
148.00986625052789
 21
119.56538432353253
  0
LINE
  8
_1-2_
  6
CONTINUOUS
 62
    3
 10
145.34404857738599
 20
118.06425352354309
 11
146.5574934675887
 21
118.46025621568835
  0
LINE
  8
_1-2_
  6
CONTINUOUS
 62
    3
 10
146.67896167652029
 20
119.13104083086994
 11
146.5574934675887
 21
118.46025621568835
  0
LINE
  8
_1-2_
  6
CONTINUOUS
 62
    3
 10
145.34404857738599
 20
118.06425352354309
 11
144.95183171452703
 21
116.04283100849874
  0
LINE
  8
_1-2_
  6
CONTINUOUS
 62
    3
 10
148.25008083034206
 20
117.53996565535263
 11
148.63034634976773
 21
117.66405672640414
  0
LINE
  8
_1-2_
  6
CONTINUOUS
 62
    7
 10
148.00986625052789
 20
119.56538432353253
 11
148.63034634976773
 21
117.66405672640414
  0
LINE
  8
_1-2_
  6
CONTINUOUS
 62
    3
 10
148.25008083034206
 20
117.53996565535263
 11
149.30491679423565
 21
114.30773348421664
  0
LINE
  8
_1-2_
  6
CONTINUOUS
 62
    7
 10
147.59374670080237
 20
113.74929892050254
 11
148.90871615023227
 21
111.65386715450803
  0
LINE
  8
_1-2_
  6
CONTINUOUS
 62
    7
 10
148.90871615023227
 20
111.65386715450803
 11
150.42975348395271
 21
112.15025618269638
  0
LINE
  8
_1-2_
  6
CONTINUOUS
 62
    3
 10
84.069919070682019
 20
89.862782246357696
 11
83.096466064453125
 21
94.80462564004435
  0
LINE
  8
_1-2_
  6
CONTINUOUS
 62
    3
 10
86.011072107263516
 20
96.807688120249168
 11
144.95183171452703
 21
116.04283100849874
  0
LINE
  8
_1-2_
  6
CONTINUOUS
 62
    3
 10
84.069919070682019
 20
89.862782246357696
 11
85.542940706820104
 21
90.506298993084883
  0
LINE
  8
_1-2_
  6
CONTINUOUS
 62
    3
 10
86.418654983108112
 20
93.784987990920612
 11
149.30491679423565
 21
114.30773348421664
  0
LINE
  8
_1-2_
  6
CONTINUOUS
 62
    3
 10
85.731959987331081
 20
92.912651268211576
 11
85.542940706820104
 21
90.506298993084883
  0
LINE
  8
_1-2_
  6
CONTINUOUS
 62
    3
 10
148.00986625052789
 20
119.56538432353253
 11
148.63034634976773
 21
117.66405672640414
  0
LINE
  8
_1-2_
  6
CONTINUOUS
 62
    7
 10
148.63034634976773
 20
117.66405672640414
 11
150.42975348395271
 21
112.15025618269638
  0
LINE
  8
_1-2_
  6
CONTINUOUS
 62
    3
 10
197.74655728726773
 20
142.11146999049831
 11
199.07746186127534
 21
142.54580111116977
  0
LINE
  8
_1-2_
  6
CONTINUOUS
 62
    3
 10
196.41164418813347
 20
141.04468268317146
 11
197.62508907833615
 21
141.44068537531672
  0
LINE
  8
_1-2_
  6
CONTINUOUS
 62
    3
 10
197.74655728726773
 20
142.11146999049831
 11
197.62508907833615
 21
141.44068537531672
  0
LINE
  8
_1-2_
  6
CONTINUOUS
 62
    3
 10
196.41164418813347
 20
141.04468268317146
 11
196.01942732527451
 21
139.02324779613599
  0
LINE
  8
_1-2_
  6
CONTINUOUS
 62
    3
 10
199.31767644108953
 20
140.52038244298987
 11
199.69794196051521
 21
140.64449825802365
  0
LINE
  8
_1-2_
  6
CONTINUOUS
 62
    7
 10
199.07746186127534
 20
142.54580111116977
 11
199.69794196051521
 21
140.64449825802365
  0
LINE
  8
_1-2_
  6
CONTINUOUS
 62
    3
 10
199.31767644108953
 20
140.52038244298987
 11
200.37251240498313
 21
137.28815027185388
  0
LINE
  8
_1-2_
  6
CONTINUOUS
 62
    7
 10
198.66134231154984
 20
136.72972808013091
 11
199.97631176097974
 21
134.63430868612755
  0
LINE
  8
_1-2_
  6
CONTINUOUS
 62
    7
 10
199.97631176097974
 20
134.63430868612755
 11
201.49734909470018
 21
135.13069771431589
  0
LINE
  8
_1-2_
  6
CONTINUOUS
 62
    3
 10
135.13752705342063
 20
112.84321140598607
 11
134.16404930320948
 21
117.78505479967272
  0
LINE
  8
_1-2_
  6
CONTINUOUS
 62
    3
 10
137.07866771801099
 20
119.78811727987754
 11
196.01942732527451
 21
139.02324779613599
  0
LINE
  8
_1-2_
  6
CONTINUOUS
 62
    3
 10
135.13752705342063
 20
112.84321140598607
 11
136.61053631756758
 21
113.48672815271327
  0
LINE
  8
_1-2_
  6
CONTINUOUS
 62
    3
 10
137.48625059385557
 20
116.765417150549
 11
200.37251240498313
 21
137.28815027185388
  0
LINE
  8
_1-2_
  6
CONTINUOUS
 62
    3
 10
136.79955559807854
 20
115.89308042783996
 11
136.61053631756758
 21
113.48672815271327
  0
LINE
  8
_1-2_
  6
CONTINUOUS
 62
    3
 10
199.07746186127534
 20
142.54580111116977
 11
199.69794196051521
 21
140.64449825802365
  0
LINE
  8
_1-2_
  6
CONTINUOUS
 62
    7
 10
199.69794196051521
 20
140.64449825802365
 11
201.49734909470018
 21
135.13069771431589
  0
LINE
  8
_1-2_
  6
CONTINUOUS
 62
    3
 10
248.81415289801521
 20
165.09189915012669
 11
250.14505747202281
 21
165.52623027079815
  0
LINE
  8
_1-2_
  6
CONTINUOUS
 62
    3
 10
247.47923979888094
 20
164.02511184279984
 11
248.69268468908362
 21
164.4211145349451
  0
LINE
  8
_1-2_
  6
CONTINUOUS
 62
    3
 10
248.81415289801521
 20
165.09189915012669
 11
248.69268468908362
 21
164.4211145349451
  0
LINE
  8
_1-2_
  6
CONTINUOUS
 62
    3
 10
247.47923979888094
 20
164.02511184279984
 11
247.08702293602198
 21
162.00367695576438
  0
LINE
  8
_1-2_
  6
CONTINUOUS
 62
    3
 10
250.38527205183701
 20
163.50081160261826
 11
250.76553757126268
 21
163.62492741765203
  0
LINE
  8
_1-2_
  6
CONTINUOUS
 62
    7
 10
250.14505747202281
 20
165.52623027079815
 11
250.76553757126268
 21
163.62492741765203
  0
LINE
  8
_1-2_
  6
CONTINUOUS
 62
    3
 10
250.38527205183701
 20
163.50081160261826
 11
251.4401080157306
 21
160.26857943148227
  0
LINE
  8
_1-2_
  6
CONTINUOUS
 62
    7
 10
249.72893792229732
 20
159.7101572397593
 11
251.04390737172722
 21
157.61473784575591
  0
LINE
  8
_1-2_
  6
CONTINUOUS
 62
    7
 10
251.04390737172722
 20
157.61473784575591
 11
252.56494470544766
 21
158.11112687394427
  0
LINE
  8
_1-2_
  6
CONTINUOUS
 62
    3
 10
186.20509792018581
 20
135.82365293760557
 11
185.23166965793919
 21
140.76549633129224
  0
LINE
  8
_1-2_
  6
CONTINUOUS
 62
    3
 10
188.14626332875847
 20
142.76854643950591
 11
247.08702293602198
 21
162.00367695576438
  0
LINE
  8
_1-2_
  6
CONTINUOUS
 62
    3
 10
186.20509792018581
 20
135.82365293760557
 11
187.67813192831505
 21
136.46714494035052
  0
LINE
  8
_1-2_
  6
CONTINUOUS
 62
    3
 10
188.55384620460305
 20
139.74584631017737
 11
251.4401080157306
 21
160.26857943148227
  0
LINE
  8
_1-2_
  6
CONTINUOUS
 62
    3
 10
187.86715120882602
 20
138.87349721547722
 11
187.67813192831505
 21
136.46714494035052
  0
LINE
  8
_1-2_
  6
CONTINUOUS
 62
    3
 10
250.14505747202281
 20
165.52623027079815
 11
250.76553757126268
 21
163.62492741765203
  0
LINE
  8
_1-2_
  6
CONTINUOUS
 62
    7
 10
250.76553757126268
 20
163.62492741765203
 11
252.56494470544766
 21
158.11112687394427
  0
LINE
  8
_1-2_
  6
CONTINUOUS
 62
    3
 10
73.271187447212839
 20
83.14361572265625
 11
98.236529376055742
 21
91.329716862858959
  0
LINE
  8
_1-2_
  6
CONTINUOUS
 62
    3
 10
73.271187447212839
 20
86.300768465609167
 11
93.881019386085313
 21
93.058702623521967
  0
LINE
  8
ADD_LINE
  6
DOT
 62
    7
 10
258.5649397566512
 20
123.41193534232475
 11
258.5649397566512
 21
113.81280435098185
  0
LINE
  8
_1-0_
  6
CONTINUOUS
 62
    7
 10
258.5649397566512
 20
117.5838985958615
 11
258.5649397566512
 21
80.270270270270274
  0
LINE
  8
_1-0_
  6
CONTINUOUS
 62
    7
 10
73.271187447212839
 20
59.249700597814609
 11
258.5649397566512
 21
142.6319101694468
  0
LINE
  8
_1-0_
  6
CONTINUOUS
 62
    7
 10
73.271187447212839
 20
72.408729759422513
 11
258.5649397566512
 21
155.79093314505914
  0
LINE
  8
_1-0_
  6
CONTINUOUS
 62
    7
 10
73.271187447212839
 20
75.040536828943203
 11
258.5649397566512
 21
158.4227278425887
  0
LINE
  8
_1-0_
  6
DASHED1
 62
    3
 10
73.271187447212839
 20
75.698491689321159
 11
258.03059345967063
 21
158.84024542731208
  0
LINE
  8
_1-1_
  6
CONTINUOUS
 62
    7
 10
251.47576409417232
 20
157.20646213840794
 11
246.58279006545609
 21
155.00464362067146
  0
LINE
  8
_1-0_
  6
CONTINUOUS
 62
    7
 10
73.271187447212839
 20
76.356440363703555
 11
251.7220162056588
 21
156.65929845861487
  0
LINE
  8
_1-0_
  6
CONTINUOUS
 62
    7
 10
73.271187447212839
 20
77.014389038085938
 11
251.47576409417232
 21
157.20646213840794
  0
LINE
  8
_1-0_
  6
CONTINUOUS
 62
    7
 10
251.47576409417232
 20
157.20646213840794
 11
251.7220162056588
 21
156.65929845861487
  0
LINE
  8
_1-0_
  6
CONTINUOUS
 62
    7
 10
258.5649397566512
 20
117.5838985958615
 11
258.5649397566512
 21
241.62162162162164
  0
LINE
  8
_1-0_
  6
DASHED1
 62
    3
 10
258.03059345967063
 20
158.84024542731208
 11
258.03059345967063
 21
218.84023305532097
  0
LINE
  8
_1-1_
  6
CONTINUOUS
 62
    7
 10
246.56494965424409
 20
115.33429944837417
 11
258.5649397566512
 21
115.33429944837417
  0
LINE
  8
_1-1_
  6
CONTINUOUS
 62
    7
 10
251.23693517736487
 20
139.33430439717063
 11
258.5649397566512
 21
139.33430439717063
  0
LINE
  8
_1-1_
  6
CONTINUOUS
 62
    7
 10
246.56494965424409
 20
137.23190720016893
 11
246.56494965424409
 21
115.33429944837417
  0
LINE
  8
_1-1_
  6
CONTINUOUS
 62
    7
 10
258.5649397566512
 20
139.33430439717063
 11
246.56494965424409
 21
115.33429944837417
  0
LINE
  8
_1-1_
  6
CONTINUOUS
 62
    7
 10
247.40589863545188
 20
137.65238169077281
 11
258.5649397566512
 21
115.33429944837417
  0
LINE
  8
_1-4_
  6
CONTINUOUS
 62
    7
 10
322.54698882231844
 20
158.84024542731208
 11
322.54698882231844
 21
218.84023305532097
  0
LINE
  8
_1-4_
  6
CONTINUOUS
 62
    7
 10
271.04954075168922
 20
158.84024542731208
 11
322.54698882231844
 21
158.84024542731208
  0
LINE
  8
_1-4_
  6
CONTINUOUS
 62
    7
 10
271.04954075168922
 20
218.84023305532097
 11
322.54698882231844
 21
218.84023305532097
  0
LINE
  8
_1-4_
  6
CONTINUOUS
 62
    7
 10
218.56493150865711
 20
103.78378378378379
 11
223.60104947476776
 21
106.69137490762247
  0
LINE
  8
ADD_LINE
  6
DOT
 62
    7
 10
215.16307933910474
 20
103.78378378378379
 11
227.3252415012669
 21
103.78378378378379
  0
LINE
  8
_1-4_
  6
CONTINUOUS
 62
    7
 10
218.56493150865711
 20
103.78378378378379
 11
223.60104947476776
 21
100.8761926599451
  0
LINE
  8
ADD_LINE
  6
DOT
 62
    7
 10
215.16307933910474
 20
103.78378378378379
 11
216.49512213629646
 21
103.78378378378379
  0
LINE
  8
ADD_LINE
  6
DOT
 62
    7
 10
217.01635412267737
 20
103.78378378378379
 11
227.3252415012669
 21
103.78378378378379
  0
LINE
  8
_1-4_
  6
CONTINUOUS
 62
    7
 10
274.08199001002959
 20
103.78378378378379
 11
218.56493150865711
 21
103.78378378378379
  0
LINE
  8
_1-4_
  6
CONTINUOUS
 62
    7
 10
218.56493150865711
 20
115.94594594594595
 11
218.56493150865711
 21
96.515449317725938
  0
LINE
  8
_1-4_
  6
CONTINUOUS
 62
    7
 10
284.08199825802365
 20
218.84023305532097
 11
282.11480218010979
 21
215.43296195365289
  0
LINE
  8
_1-4_
  6
CONTINUOUS
 62
    7
 10
284.08199825802365
 20
218.84023305532097
 11
286.0491943359375
 21
215.43296195365289
  0
LINE
  8
_1-4_
  6
CONTINUOUS
 62
    7
 10
284.08199825802365
 20
113.78377965978675
 11
284.08199825802365
 21
218.84023305532097
  0
LINE
  8
_1-4_
  6
CONTINUOUS
 62
    7
 10
231.6522959116343
 20
224.68800312763938
 11
227.65230745882602
 21
224.68800312763938
  0
LINE
  8
_1-4_
  6
CONTINUOUS
 62
    7
 10
228.70424837679477
 20
204.80299666121201
 11
224.70425992398651
 21
204.80299666121201
  0
LINE
  8
_1-4_
  6
CONTINUOUS
 62
    7
 10
99.21713339315879
 20
77.027027027027032
 11
64.390102077174845
 21
172.71349107896961
  0
LINE
  8
_1-4_
  6
CONTINUOUS
 62
    7
 10
252.67010663006758
 20
216.07796333931589
 11
243.04123337204393
 21
242.53309095228042
  0
LINE
  8
_1-4_
  6
CONTINUOUS
 62
    7
 10
243.04123337204393
 20
242.53309095228042
 11
239.04124491923565
 21
242.53309095228042
  0
LINE
  8
_1-4_
  6
CONTINUOUS
 62
    7
 10
284.08199825802365
 20
120.57680697054477
 11
288.63694474503802
 21
123.22838448189401
  0
LINE
  8
_1-4_
  6
CONTINUOUS
 62
    7
 10
284.08199825802365
 20
120.57680697054477
 11
294.31888064822635
 21
120.57680697054477
  0
LINE
  8
_1-4_
  6
CONTINUOUS
 62
    7
 10
218.56488202069258
 20
111.60779385953337
 11
258.56491501266891
 21
111.60779385953337
  0
LINE
  8
_1-4_
  6
CONTINUOUS
 62
    7
 10
303.71362634607266
 20
218.84023305532097
 11
301.7464302681588
 21
215.43296195365289
  0
LINE
  8
_1-4_
  6
CONTINUOUS
 62
    7
 10
303.71362634607266
 20
218.84023305532097
 11
305.68082242398651
 21
215.43296195365289
  0
LINE
  8
_1-4_
  6
CONTINUOUS
 62
    7
 10
303.74203243771115
 20
207.96322384396117
 11
310.55221970016896
 21
233.37917843380492
  0
LINE
  8
_1-4_
  6
CONTINUOUS
 62
    7
 10
310.55221970016896
 20
233.37917843380492
 11
313.758544921875
 21
233.37917843380492
  0
LINE
  8
_1-4_
  6
CONTINUOUS
 62
    7
 10
315.42049923458615
 20
140.174560546875
 11
318.83937526393584
 21
140.174560546875
  0
ARC
  8
_1-2_
  6
CONTINUOUS
 62
    3
 10
87.807485219594597
 20
91.071785591744089
 40
6.01062568458351
 50
107.389892578125
 51
141.6080322265625
  0
ARC
  8
_1-2_
  6
CONTINUOUS
 62
    3
 10
86.728895032728047
 20
92.834336564347552
 40
0.9999999162313101
 50
108.07392883300781
 51
175.50869750976562
  0
ARC
  8
_1-2_
  6
CONTINUOUS
 62
    3
 10
138.87508083034206
 20
114.05221475137247
 40
6.01062568458351
 50
107.389892578125
 51
141.6080322265625
  0
ARC
  8
_1-2_
  6
CONTINUOUS
 62
    3
 10
137.79649064347552
 20
115.81476572397594
 40
0.9999999162313101
 50
108.07392883300781
 51
175.50869750976562
  0
ARC
  8
_1-2_
  6
CONTINUOUS
 62
    3
 10
189.94267644108953
 20
137.03264391100086
 40
6.01062568458351
 50
107.389892578125
 51
141.6080322265625
  0
ARC
  8
_1-2_
  6
CONTINUOUS
 62
    3
 10
188.864086254223
 20
138.79518251161318
 40
0.9999999162313101
 50
108.07392883300781
 51
175.50869750976562
  0
ARC
  8
_1-4_
  6
CONTINUOUS
 62
    7
 10
274.08199001002959
 20
113.78377965978675
 40
9.9999997422501856
 50
270
 51
0
  0
TEXT
  8
_0-0_
 62
    7
 10
147.56756962956609
 20
22.702702702702709
 40
2.5
 41
1
 50
0
  1
図名
  0
TEXT
  8
_0-0_
 62
    7
 10
147.56756962956609
 20
12.972972972972968
 40
2.5
 41
1
 50
0
  1
縮尺
  0
TEXT
  8
_0-0_
 62
    7
 10
382.77784605284
 20
21.243871740392734
 40
2.5
 41
1
 50
0
  1
ＮＯ
  0
TEXT
  8
_0-0_
 62
    7
 10
31.231870393495313
 20
18.589955922719582
 40
2.5
 41
1
 50
0
  1
木造
  0
TEXT
  8
_0-0_
 62
    7
 10
20.270270012520456
 20
22.702702702702709
 40
2.5
 41
1
 50
0
  1
Ｆ形
  0
TEXT
  8
_0-0_
 62
    7
 10
389.99062615471917
 20
16.178650211643514
 40
2.5
 41
1
 50
0
  1
Ｆ
  0
TEXT
  8
_0-0_
 62
    7
 10
171.37221877639359
 20
12.362518826046511
 40
2.5
 41
1
 50
0
  1
1/5
  0
TEXT
  8
_0-1_
 62
    7
 10
87.155801927721186
 20
170.82510458456505
 40
2.5
 41
1
 50
0
  1
瓦桟
  0
TEXT
  8
_0-1_
 62
    7
 10
87.155802958720443
 20
149.41688331397805
 40
2.5
 41
1
 50
0
  1
野地板
  0
TEXT
  8
_0-1_
 62
    7
 10
101.53750239191828
 20
149.41688331397805
 40
2.5
 41
1
 50
0
  1
耐水合板　ｔ＝12
  0
TEXT
  8
_1-4_
 62
    7
 10
225.33421284443625
 20
241.19743553367823
 40
2.5
 41
1
 50
0
  1
外壁
  0
TEXT
  8
_1-4_
 62
    7
 10
214.99091483451224
 20
223.46602156355576
 40
2.5
 41
1
 50
0
  1
水切鉄板
  0
TEXT
  8
_1-4_
 62
    7
 10
201.3229493837099
 20
202.77940904771961
 40
2.5
 41
1
 50
0
  1
発泡弾性シール材
  0
TEXT
  8
_1-4_
 62
    7
 10
236.68989851668076
 20
112.10779550913219
 40
2.5
 41
1
 50
0
  1
200
  0
TEXT
  8
_1-4_
 62
    7
 10
320.72654517921239
 20
139.58964992213893
 40
2.5
 41
1
 50
0
  1
水切り鉄板立上がり寸法
  0
TEXT
  8
_1-4_
 62
    7
 10
322.04698717271964
 20
186.96523305532097
 40
2.5
 41
1
 50
90
  1
300　以上
  0
TEXT
  8
_1-4_
 62
    7
 10
314.82592196077917
 20
231.82740907411318
 40
2.5
 41
1
 50
0
  1
水切鉄板上端より
  0
TEXT
  8
_1-4_
 62
    7
 10
315.31283404376057
 20
229.10069646062078
 40
2.5
 41
1
 50
0
  1
50ｍｍ以上
  0
TEXT
  8
_1-4_
 62
    7
 10
310.00319939690667
 20
236.64085594383448
 40
3
 41
1
 50
0
  1
水切鉄板上端より50mm以上とする
  0
TEXT
  8
_1-4_
 62
    7
 10
101.53750032991977
 20
170.82510458456505
 40
2.5
 41
1
 50
0
  1
１５×２１　以上　（防腐処理）
  0
TEXT
  8
_1-2_
 62
    7
 10
101.75749598322687
 20
167.43744308884081
 40
2.5
 41
1
 50
0
  1
※　地域により瓦桟木の大きさは、異なります
  0
POINT
  8
_1-4_
 62
    7
 10
322.54698882231844
 20
158.84024542731208
  0
POINT
  8
_1-4_
 62
    7
 10
322.54698882231844
 20
218.84023305532097
  0
POINT
  8
_1-4_
 62
    7
 10
218.56488202069258
 20
111.60779385953337
  0
POINT
  8
_1-4_
 62
    7
 10
258.56491501266891
 20
111.60779385953337
  0
LINE
  8
_1-3_
  6
CONTINUOUS
 62
    7
 10
255.5123320035849
 20
163.24910237323758
 11
284.05999384214147
 21
84.815009420455851
  0
LINE
  8
_1-3_
  6
CONTINUOUS
 62
    7
 10
284.05999384214147
 20
84.815009420455851
 11
289.84760375112029
 21
84.815009420455851
  0
TEXT
  8
_0-1_
 62
    7
 10
87.155802958720443
 20
163.3211950353674
 40
2.5
 41
1
 50
0
  1
縦桟
  0
TEXT
  8
_1-4_
 62
    7
 10
87.155802958720443
 20
156.03797706397805
 40
2.5
 41
1
 50
0
  1
ルーフィング
  0
TEXT
  8
_0-1_
 62
    7
 10
87.155801927721186
 20
142.79577719198693
 40
2.5
 41
1
 50
0
  1
たる木
  0
TEXT
  8
_1-4_
 62
    7
 10
309.61657632363813
 20
242.28795231999578
 40
3
 41
1
 50
0
  1
ルーフィング立上げ長さは、300ｍｍ以上かつ
  0
TEXT
  8
_1-4_
 62
    7
 10
324.88953049118459
 20
191.29341331688136
 40
2.5
 41
1
 50
0
  1
ルーフィング立上がり寸法
  0
TEXT
  8
_1-4_
 62
    7
 10
297.47296173044924
 20
119.24875207986689
 40
2.5
 41
1
 50
0
  1
ルーフィング
  0
TEXT
  8
_1-4_
 62
    7
 10
314.15141430948421
 20
119.24875207986689
 40
2.5
 41
1
 50
0
  1
２重貼り
  0
TEXT
  8
_1-3_
 62
    7
 10
291.31492305657054
 20
83.280200226200094
 40
2.5
 41
1
 50
0
  1
葺き土
  0
LINE
  8
_1-1_
  6
CONTINUOUS
 62
    7
 10
240.95833899769022
 20
161.91771526798905
 11
257.33044687900298
 21
169.39796148871307
  0
LINE
  8
_1-1_
  6
CONTINUOUS
 62
    7
 10
257.33044687900298
 20
169.39796148871307
 11
255.83439763485819
 21
172.67238306497563
  0
LINE
  8
_1-1_
  6
CONTINUOUS
 62
    7
 10
255.83439763485819
 20
172.67238306497563
 11
239.46228975354541
 21
165.19213684425159
  0
LINE
  8
_1-1_
  6
CONTINUOUS
 62
    7
 10
239.46228975354541
 20
165.19213684425159
 11
240.95833899769022
 21
161.91771526798905
  0
LINE
  8
_1-1_
  6
CONTINUOUS
 62
    7
 10
244.50217343458314
 20
163.536856452839
 11
245.52383405692163
 21
161.49353520816203
  0
LINE
  8
_1-1_
  6
CONTINUOUS
 62
    7
 10
242.3158591664361
 20
162.53795214801892
 11
241.8542781567777
 21
160.29598724396382
  0
LINE
  8
_1-1_
  6
CONTINUOUS
 62
    7
 10
244.82827245038192
 20
161.26654087736227
 11
245.36764496500828
 21
161.80591339198864
  0
LINE
  8
_1-1_
  6
CONTINUOUS
 62
    7
 10
243.56868044509605
 20
160.85547700949968
 11
245.08480225253396
 21
162.37159881693759
  0
LINE
  8
_1-1_
  6
CONTINUOUS
 62
    7
 10
242.30908843981044
 20
160.44441314163734
 11
244.80195954005939
 21
162.93728424188629
  0
LINE
  8
_1-1_
  6
CONTINUOUS
 62
    7
 10
241.99483394434998
 20
160.97868678360197
 11
244.51911682758436
 21
163.50296966683635
  0
LINE
  8
_1-1_
  6
CONTINUOUS
 62
    7
 10
242.21482272071873
 20
162.047203697394
 11
243.03341497539287
 21
162.86579595206811
  0
LINE
  8
_1-1_
  6
CONTINUOUS
 62
    7
 10
244.82827245038192
 20
161.26654087736227
 11
245.36764496500828
 21
161.80591339198864
  0
LINE
  8
_1-1_
  6
CONTINUOUS
 62
    7
 10
243.56868044509605
 20
160.85547700949968
 11
245.08480225253396
 21
162.37159881693759
  0
LINE
  8
_1-1_
  6
CONTINUOUS
 62
    7
 10
242.30908843981044
 20
160.44441314163734
 11
244.80195954005939
 21
162.93728424188629
  0
LINE
  8
_1-1_
  6
CONTINUOUS
 62
    7
 10
241.99483394434998
 20
160.97868678360197
 11
244.51911682758436
 21
163.50296966683635
  0
LINE
  8
_1-1_
  6
CONTINUOUS
 62
    7
 10
242.21482272071873
 20
162.047203697394
 11
243.03341497539287
 21
162.86579595206811
  0
LINE
  8
_1-1_
  6
CONTINUOUS
 62
    7
 10
244.82827245038192
 20
161.26654087736227
 11
245.36764496500828
 21
161.80591339198864
  0
LINE
  8
_1-1_
  6
CONTINUOUS
 62
    7
 10
243.56868044509605
 20
160.85547700949968
 11
245.08480225253396
 21
162.37159881693759
  0
LINE
  8
_1-1_
  6
CONTINUOUS
 62
    7
 10
242.30908843981044
 20
160.44441314163734
 11
244.80195954005939
 21
162.93728424188629
  0
LINE
  8
_1-1_
  6
CONTINUOUS
 62
    7
 10
241.99483394434998
 20
160.97868678360197
 11
244.51911682758436
 21
163.50296966683635
  0
LINE
  8
_1-1_
  6
CONTINUOUS
 62
    7
 10
242.21482272071873
 20
162.047203697394
 11
243.03341497539287
 21
162.86579595206811
  0
LINE
  8
_1-1_
  6
CONTINUOUS
 62
    7
 10
241.93506801573159
 20
160.68839513030952
 11
242.21104588284152
 21
160.41241726319959
  0
LINE
  8
_1-1_
  6
CONTINUOUS
 62
    7
 10
242.07993867334019
 20
161.39205261012418
 11
242.85079418489289
 21
160.62119709857149
  0
LINE
  8
_1-1_
  6
CONTINUOUS
 62
    7
 10
242.22480933094909
 20
162.09571008993856
 11
243.49054248694415
 21
160.8299769339435
  0
LINE
  8
_1-1_
  6
CONTINUOUS
 62
    7
 10
242.53223536856956
 20
162.63681218974321
 11
244.13029078899683
 21
161.03875676931591
  0
LINE
  8
_1-1_
  6
CONTINUOUS
 62
    7
 10
243.11465981803028
 20
162.90291587770574
 11
244.77003909104795
 21
161.24753660468807
  0
LINE
  8
_1-1_
  6
CONTINUOUS
 62
    7
 10
243.69708426749102
 20
163.16901956566826
 11
245.40978739309907
 21
161.45631644006022
  0
LINE
  8
_1-1_
  6
CONTINUOUS
 62
    7
 10
244.27950871695325
 20
163.43512325363113
 11
244.82657135141994
 21
162.88806061916443
  0
LINE
  8
_1-1_
  6
CONTINUOUS
 62
    7
 10
239.46228975354541
 20
165.19213684425159
 11
257.33044687900298
 21
169.39796148871307
  0
LINE
  8
_1-1_
  6
CONTINUOUS
 62
    7
 10
257.70476470122469
 20
209.89948823238245
 11
257.70476470122469
 21
201.8994865827836
  0
LINE
  8
_1-1_
  6
CONTINUOUS
 62
    7
 10
254.03060500686234
 20
209.89948823238245
 11
257.70476470122469
 21
209.89948823238245
  0
LINE
  8
_1-1_
  6
CONTINUOUS
 62
    7
 10
254.03060500686234
 20
201.8994865827836
 11
257.70476470122469
 21
201.8994865827836
  0
LINE
  8
_1-1_
  6
CONTINUOUS
 62
    7
 10
254.03060500686234
 20
209.89948823238245
 11
257.70476470122469
 21
201.8994865827836
  0
LINE
  8
_1-1_
  6
CONTINUOUS
 62
    2
 10
237.87437913491124
 20
165.37061875364475
 11
240.10125862980635
 21
160.49661992260673
  0
LINE
  8
_1-1_
  6
CONTINUOUS
 62
    2
 10
240.10125862980635
 20
160.49661992260673
 11
234.300772874713
 21
158.60364973835564
  0
LINE
  8
_1-1_
  6
CONTINUOUS
 62
    2
 10
234.300772874713
 20
158.60364973835564
 11
237.02803445797298
 21
158.82816240706242
  0
LINE
  8
_1-1_
  6
CONTINUOUS
 62
    7
 10
251.63061193517737
 20
175.50214043251896
 11
254.03060500686234
 21
175.50214043251896
  0
LINE
  8
_1-1_
  6
CONTINUOUS
 62
    7
 10
251.63061193517737
 20
175.50214043251896
 11
251.63061193517737
 21
238.89423920894495
  0
LINE
  8
_1-1_
  6
CONTINUOUS
 62
    7
 10
254.03060500686234
 20
175.50214043251896
 11
254.03060500686234
 21
238.89423920894495
  0
LINE
  8
_1-1_
  6
CONTINUOUS
 62
    2
 10
237.87437913491124
 20
165.37061875364475
 11
245.68949174953187
 21
168.84977621697513
  0
LINE
  8
_1-1_
  6
CONTINUOUS
 62
    2
 10
245.68949174953187
 20
168.84977621697513
 11
257.11862924936656
 21
173.93783713084969
  0
LINE
  8
_1-4_
  6
CONTINUOUS
 62
    7
 10
251.09918760097509
 20
171.25808235714325
 11
231.6522959116343
 21
224.68800312763938
  0
LINE
  8
_1-4_
  6
CONTINUOUS
 62
    7
 10
244.17156104368996
 20
162.30688574551687
 11
228.70424837679477
 21
204.80299666121201
  0
LINE
  8
_1-4_
  6
CONTINUOUS
 62
    7
 10
303.71362634607266
 20
173.93783713084969
 11
303.71362634607266
 21
195.93783548125083
  0
LINE
  8
_1-4_
  6
CONTINUOUS
 62
    7
 10
271.04954075168922
 20
173.93783713084969
 11
303.71362634607266
 21
173.93783713084969
  0
LINE
  8
_1-4_
  6
CONTINUOUS
 62
    7
 10
303.71362634607266
 20
195.93783548125083
 11
303.71362634607266
 21
218.84023305532097
  0
LINE
  8
_1-4_
  6
CONTINUOUS
 62
    7
 10
303.59685949377115
 20
180.90777154280067
 11
315.42049923458615
 21
140.174560546875
  0
LINE
  8
_1-4_
  6
CONTINUOUS
 62
    7
 10
271.04954075168922
 20
197.937829707655
 11
303.71362634607266
 21
197.937829707655
  0
LINE
  8
_1-4_
  6
CONTINUOUS
 62
    7
 10
303.71362634607266
 20
197.937829707655
 11
301.7464302681588
 21
204.73835300754857
  0
LINE
  8
_1-4_
  6
CONTINUOUS
 62
    7
 10
303.71362634607266
 20
197.937829707655
 11
305.68082242398651
 21
204.73835300754857
  0
TEXT
  8
_1-4_
 62
    7
 10
303.21362469647386
 20
183.06283630605026
 40
2.5
 41
1
 50
90
  1
120
  0
POINT
  8
_1-4_
 62
    7
 10
303.71362634607266
 20
173.93783713084969
  0
POINT
  8
_1-4_
 62
    7
 10
303.71362634607266
 20
197.937829707655
  0
LINE
  8
_1-1_
  6
CONTINUOUS
 62
    2
 10
257.11862924936656
 20
173.93783713084969
 11
257.11862924936656
 21
197.937829707655
  0
LINE
  8
ADD_LINE
  6
DOT
 62
    4
 10
257.33044687900298
 20
169.39796148871307
 11
258.13332260853826
 21
169.54928713627862
  0
LINE
  8
ADD_LINE
  6
DOT
 62
    4
 10
252.56494470544766
 20
158.11112687394427
 11
253.25787769711837
 21
156.39082828932817
  0
LINE
  8
ADD_LINE
  6
DOT
 62
    4
 10
250.14505747202281
 20
165.52623027079815
 11
249.8503086730077
 21
166.14171811216795
  0
SOLID
  8
ADD_LINE
  6
DOT
 62
    8
 10
257.33044687900298
 20
169.39796148871307
 11
249.91370745361388
 21
166.00933019828614
 12
250.14505747202281
 22
165.52623027079815
 13
250.14505747202281
 23
165.52623027079815
  0
SOLID
  8
ADD_LINE
  6
DOT
 62
    8
 10
257.33044687900298
 20
169.39796148871307
 11
250.14505747202281
 21
165.52623027079815
 12
253.1550027552733
 22
156.64622905531257
 13
253.1550027552733
 23
156.64622905531257
  0
SOLID
  8
ADD_LINE
  6
DOT
 62
    8
 10
257.33044687900298
 20
169.39796148871307
 11
253.1550027552733
 21
156.64622905531257
 12
258.03059345967063
 22
158.84024542731208
 13
258.03059345967063
 23
158.84024542731208
  0
SOLID
  8
ADD_LINE
  6
DOT
 62
    8
 10
257.33044687900298
 20
169.39796148871307
 11
258.03059345967063
 21
158.84024542731208
 12
258.03059345967063
 22
169.52992479363408
 13
258.03059345967063
 23
169.52992479363408
  0
TEXT
  8
_1-4_
 62
    7
 10
397.66983444626271
 20
13.624907313166432
 40
2.5
 41
1
 50
0
  1
16
  0
TEXT
  8
_1-4_
 62
    7
 10
45.397583729511979
 20
13.77361400707349
 40
2.5
 41
1
 50
0
  1
壁際　4
  0
ENDSEC
  0
EOF
