  0
SECTION
  2
HEADER
  9
$ACADVER
  1
AC1009
  9
$INSBASE
 10
0
 20
0
 30
0
  9
$EXTMIN
 10
0
 20
0
  9
$EXTMAX
 10
420
 20
297
  9
$LIMMIN
 10
0
 20
0
  9
$LIMMAX
 10
420
 20
297
  9
$LTSCALE
 40
1
  0
ENDSEC
  0
SECTION
  2
TABLES
  0
TABLE
  2
LTYPE
 70
     9
  0
LTYPE
  2
CONTINUOUS
 70
    64
  3
実線
 72
    65
 73
     0
 40
0.0
  0
LTYPE
  2
DASHED1
 70
    64
  3
--  --  --  --  --  --  --  --  
 72
    65
 73
     2
 40
2.5
 49
1.25
 49
-1.25
  0
LTYPE
  2
DASHED2
 70
    64
  3
----    ----    ----    ----    
 72
    65
 73
     2
 40
5.0
 49
2.5
 49
-2.5
  0
LTYPE
  2
DASHED3
 70
    64
  3
------  ------  ------  ------  
 72
    65
 73
     2
 40
5.0
 49
3.75
 49
-1.25
  0
LTYPE
  2
CENTER1
 70
    64
  3
----- - ----- - ----- - ----- - 
 72
    65
 73
     4
 40
10.0
 49
6.25
 49
-1.25
 49
1.25
 49
-1.25
  0
LTYPE
  2
CENTER2
 70
    64
  3
----------  --  ----------  --  
 72
    65
 73
     4
 40
20.0
 49
12.5
 49
-2.5
 49
2.5
 49
-2.5
  0
LTYPE
  2
PHANTOM1
 70
    64
  3
--- - - --- - - --- - - --- - - 
 72
    65
 73
     6
 40
10.0
 49
3.25
 49
-1.25
 49
1.25
 49
-1.25
 49
1.25
 49
-1.25
  0
LTYPE
  2
PHANTOM2
 70
    64
  3
--------  -  -  --------  -  -  
 72
    65
 73
     6
 40
20.0
 49
10.0
 49
-2.5
 49
1.25
 49
-2.5
 49
1.25
 49
-2.5
  0
LTYPE
  2
DOT
 70
    64
  3
-   -   -   -   -   -   -   -   
 72
    65
 73
     2
 40
2.5
 49
0.625
 49
-1.875
  0
LTYPE
  2
DUMMY
 70
    64
  3
ダミー
 72
    65
 73
     0
 40
0.0
  0
LTYPE
  2
RAND1
 70
    64
  3
ランダム線1
 72
    65
 73
     4
 40
10.0
 49
1.0
 49
-2.0
 49
3.0
 49
-4.0
  0
LTYPE
  2
RAND2
 70
    64
  3
ランダム線2
 72
    65
 73
     4
 40
14.0
 49
2.0
 49
-3.0
 49
4.0
 49
-5.0
  0
LTYPE
  2
RAND3
 70
    64
  3
ランダム線3
 72
    65
 73
     4
 40
18.0
 49
3.0
 49
-4.0
 49
5.0
 49
-6.0
  0
LTYPE
  2
RAND4
 70
    64
  3
ランダム線4
 72
    65
 73
     4
 40
22.0
 49
4.0
 49
-5.0
 49
6.0
 49
-7.0
  0
LTYPE
  2
RAND5
 70
    64
  3
ランダム線5
 72
    65
 73
     4
 40
26.0
 49
5.0
 49
-6.0
 49
7.0
 49
-8.0
  0
LTYPE
  2
LONG1
 70
    64
  3
----------  --  ----------  --  
 72
    65
 73
     4
 40
40.0
 49
32.5
 49
-2.5
 49
2.5
 49
-2.5
  0
LTYPE
  2
LONG2
 70
    64
  3
--------  -  -  --------  -  -  
 72
    65
 73
     6
 40
40.0
 49
30.0
 49
-2.5
 49
1.25
 49
-2.5
 49
1.25
 49
-2.5
  0
LTYPE
  2
LONG3
 70
    64
  3
+++++++++++++++..+++++++++++++++
 72
    65
 73
     2
 40
40.0
 49
37.5
 49
-2.5
  0
LTYPE
  2
LONG4
 70
    64
  3
+++++++++++++++..+++++++++++++++
 72
    65
 73
     2
 40
80.0
 49
75.0
 49
-5.0
  0
LTYPE
  2
LONG5
 70
    64
  3
----------  --  ----------  --  
 72
    65
 73
     4
 40
60.0
 49
37.5
 49
-7.5
 49
7.5
 49
-7.5
  0
LTYPE
  2
dashed
 70
   64
  3
-------   -------------   ------
 72
   65
 73
    2
 40
7.5
 49
6
 49
-1.5
  0
LTYPE
  2
dashed_spaced
 70
   64
  3
----        --------        ----
 72
   65
 73
    2
 40
12
 49
6
 49
-6
  0
LTYPE
  2
long_dashed_dotted
 70
   64
  3
------------- --- --------------
 72
   65
 73
    4
 40
15.25
 49
12
 49
-1.5
 49
0.25
 49
-1.5
  0
LTYPE
  2
long_dashed_double-dotted
 70
   64
  3
----------- --- --- ------------
 72
   65
 73
    6
 40
17
 49
12
 49
-1.5
 49
0.25
 49
-1.5
 49
0.25
 49
-1.5
  0
LTYPE
  2
long_dashed_triplicate-dotted
 70
   64
  3
--------- --- --- --- ----------
 72
   65
 73
    8
 40
18.75
 49
12
 49
-1.5
 49
0.25
 49
-1.5
 49
0.25
 49
-1.5
 49
0.25
 49
-1.5
  0
LTYPE
  2
dotted
 70
   64
  3
   -       -       -       -    
 72
   65
 73
    2
 40
1.75
 49
0.25
 49
-1.5
  0
LTYPE
  2
chain
 70
   64
  3
-------------- -- --------------
 72
   65
 73
    4
 40
18.5
 49
12
 49
-1.5
 49
3.5
 49
-1.5
  0
LTYPE
  2
chain_double_dash
 70
   64
  3
------------ -- -- -------------
 72
   65
 73
    6
 40
23.5
 49
12
 49
-1.5
 49
3.5
 49
-1.5
 49
3.5
 49
-1.5
  0
LTYPE
  2
dashed_dotted
 70
   64
  3
-----------     -     ----------
 72
   65
 73
    4
 40
9.25
 49
6
 49
-1.5
 49
0.25
 49
-1.5
  0
LTYPE
  2
double-dashed_dotted
 70
   64
  3
------   -----------   -   -----
 72
   65
 73
    6
 40
16.75
 49
6
 49
-1.5
 49
6
 49
-1.5
 49
0.25
 49
-1.5
  0
LTYPE
  2
dashed_double-dotted
 70
   64
  3
---------    -    -    ---------
 72
   65
 73
    6
 40
11
 49
6
 49
-1.5
 49
0.25
 49
-1.5
 49
0.25
 49
-1.5
  0
LTYPE
  2
double-dashed_double-dotted
 70
   64
  3
-----   ---------   -   -   ----
 72
   65
 73
    8
 40
18.5
 49
6
 49
-1.5
 49
6
 49
-1.5
 49
0.25
 49
-1.5
 49
0.25
 49
-1.5
  0
LTYPE
  2
dashed_triplicate-dotted
 70
   64
  3
-------    -    -    -    ------
 72
   65
 73
    8
 40
12.75
 49
6
 49
-1.5
 49
0.25
 49
-1.5
 49
0.25
 49
-1.5
 49
0.25
 49
-1.5
  0
LTYPE
  2
double-dashed_triplicate-dotted
 70
   64
  3
-----  ---------  -  -  -  -----
 72
   65
 73
   10
 40
20.25
 49
6
 49
-1.5
 49
6
 49
-1.5
 49
0.25
 49
-1.5
 49
0.25
 49
-1.5
 49
0.25
 49
-1.5
  0
LTYPE
  2
undefined
 70
   64
  3
--------------------------------
 72
   65
 73
    0
 40
0
  0
ENDTAB
  0
TABLE
  2
STYLE
  5
3
100
AcDbSymbolTable
 70
     1
  0
STYLE
  5
10
100
AcDbSymbolTableRecord
100
AcDbTextStyleTableRecord
  2
STANDARD
 70
     0
 40
0.0
 41
1.0
 50
0.0
 71
     0
 42
0.2
  3
txt
  4
bigfont.shx
  0
STYLE
  5
26
100
AcDbSymbolTableRecord
100
AcDbTextStyleTableRecord
  2
TATEGAKI
 70
    68
 40
0.0
 41
1.0
 50
0.0
 71
     0
 42
1.0
  3
txt
  4
bigfont.shx
  0
ENDTAB
  0
TABLE
  2
LAYER
 70
    7
  0
LAYER
  2
_0-0_
 70
   64
 62
    7
  6
CONTINUOUS
  0
LAYER
  2
_1-0_
 70
   64
 62
    7
  6
CONTINUOUS
  0
LAYER
  2
_1-1_
 70
   64
 62
    7
  6
CONTINUOUS
  0
LAYER
  2
_1-2_
 70
   64
 62
    7
  6
CONTINUOUS
  0
LAYER
  2
_1-3_
 70
   64
 62
    7
  6
CONTINUOUS
  0
LAYER
  2
_1-4_
 70
   64
 62
    7
  6
CONTINUOUS
  0
LAYER
  2
ADD_LINE
 70
   64
 62
    7
  6
CONTINUOUS
  0
ENDTAB
  0
ENDSEC
  0
SECTION
  2
BLOCKS
  0
ENDSEC
  0
SECTION
  2
ENTITIES
  0
LINE
  8
_0-0_
  6
CONTINUOUS
 62
    5
 10
6.7567526327597136
 20
280.13513513513516
 11
406.75677325274495
 21
280.13513513513516
  0
LINE
  8
_0-0_
  6
CONTINUOUS
 62
    5
 10
406.75677325274495
 20
10.13513513513513
 11
6.7567526327597136
 21
10.13513513513513
  0
LINE
  8
_0-0_
  6
CONTINUOUS
 62
    5
 10
406.75677325274495
 20
30.135133073136615
 11
6.7567402607685949
 21
30.135133073136615
  0
LINE
  8
_0-0_
  6
CONTINUOUS
 62
    5
 10
371.75678150073907
 20
10.13513513513513
 11
371.75678150073907
 21
30.135133073136615
  0
LINE
  8
_0-0_
  6
CONTINUOUS
 62
    5
 10
137.02703939901818
 20
30.135133073136615
 11
137.02703939901818
 21
10.13513513513513
  0
LINE
  8
_0-0_
  6
CONTINUOUS
 62
    5
 10
214.86486486486487
 20
30.135133073136615
 11
214.86486486486487
 21
10.13513513513513
  0
LINE
  8
_0-0_
  6
CONTINUOUS
 62
    5
 10
137.02703939901818
 20
20.135134104135886
 11
214.86486486486487
 21
20.135134104135886
  0
LINE
  8
_0-0_
  6
CONTINUOUS
 62
    5
 10
396.48648648648651
 20
25.945945945945951
 11
383.91891891891896
 21
13.378379924877265
  0
LINE
  8
_1-1_
  6
CONTINUOUS
 62
    7
 10
258.98969495618667
 20
132.72644867768159
 11
258.98969495618667
 21
133.32644075960727
  0
LINE
  8
_1-1_
  6
CONTINUOUS
 62
    7
 10
258.98969495618667
 20
133.32644075960727
 11
263.78968109955662
 21
133.32644075960727
  0
LINE
  8
_1-1_
  6
CONTINUOUS
 62
    7
 10
263.78968109955662
 20
133.32644075960727
 11
263.78968109955662
 21
132.72644867768159
  0
LINE
  8
_1-1_
  6
CONTINUOUS
 62
    7
 10
263.78968109955662
 20
132.72644867768159
 11
258.98969495618667
 21
132.72644867768159
  0
LINE
  8
_1-1_
  6
CONTINUOUS
 62
    7
 10
258.98969495618667
 20
132.72644867768159
 11
263.78968109955662
 21
133.32644075960727
  0
LINE
  8
_1-1_
  6
CONTINUOUS
 62
    7
 10
226.60860628695102
 20
132.72644867768159
 11
226.60860628695102
 21
133.32644075960727
  0
LINE
  8
_1-1_
  6
CONTINUOUS
 62
    7
 10
226.60860628695102
 20
133.32644075960727
 11
231.40859243032097
 21
133.32644075960727
  0
LINE
  8
_1-1_
  6
CONTINUOUS
 62
    7
 10
231.40859243032097
 20
133.32644075960727
 11
231.40859243032097
 21
132.72644867768159
  0
LINE
  8
_1-1_
  6
CONTINUOUS
 62
    7
 10
231.40859243032097
 20
132.72644867768159
 11
226.60860628695102
 21
132.72644867768159
  0
LINE
  8
_1-1_
  6
CONTINUOUS
 62
    7
 10
226.60860628695102
 20
132.72644867768159
 11
231.40859243032097
 21
133.32644075960727
  0
LINE
  8
_1-1_
  6
CONTINUOUS
 62
    7
 10
164.96857514252534
 20
132.72644867768159
 11
164.96857514252534
 21
133.32644075960727
  0
LINE
  8
_1-1_
  6
CONTINUOUS
 62
    7
 10
164.96857514252534
 20
133.32644075960727
 11
169.76856128589529
 21
133.32644075960727
  0
LINE
  8
_1-1_
  6
CONTINUOUS
 62
    7
 10
169.76856128589529
 20
133.32644075960727
 11
169.76856128589529
 21
132.72644867768159
  0
LINE
  8
_1-1_
  6
CONTINUOUS
 62
    7
 10
169.76856128589529
 20
132.72644867768159
 11
164.96857514252534
 21
132.72644867768159
  0
LINE
  8
_1-1_
  6
CONTINUOUS
 62
    7
 10
164.96857514252534
 20
132.72644867768159
 11
169.76856128589529
 21
133.32644075960727
  0
LINE
  8
_1-1_
  6
CONTINUOUS
 62
    7
 10
138.29307762352198
 20
136.32645065720018
 11
138.29307762352198
 21
133.32645313159841
  0
LINE
  8
_1-1_
  6
CONTINUOUS
 62
    7
 10
145.65000791807432
 20
132.72644867768159
 11
145.65000791807432
 21
133.32644075960727
  0
LINE
  8
_1-1_
  6
CONTINUOUS
 62
    7
 10
145.65000791807432
 20
133.32644075960727
 11
140.85007126266893
 21
133.32644075960727
  0
LINE
  8
_1-1_
  6
CONTINUOUS
 62
    7
 10
140.85007126266893
 20
133.32644075960727
 11
140.85007126266893
 21
132.72644867768159
  0
LINE
  8
_1-1_
  6
CONTINUOUS
 62
    7
 10
140.85007126266893
 20
132.72644867768159
 11
145.65000791807432
 21
132.72644867768159
  0
LINE
  8
_1-1_
  6
CONTINUOUS
 62
    7
 10
145.65000791807432
 20
132.72644867768159
 11
140.85007126266893
 21
133.32644075960727
  0
LINE
  8
_1-1_
  6
CONTINUOUS
 62
    3
 10
137.23804370777029
 20
132.47366415487755
 11
137.23804370777029
 21
136.32645065720018
  0
LINE
  8
_1-1_
  6
CONTINUOUS
 62
    3
 10
137.23804370777029
 20
136.32645065720018
 11
133.12925596494932
 21
136.32645065720018
  0
LINE
  8
_1-1_
  6
CONTINUOUS
 62
    3
 10
137.23804370777029
 20
132.47366415487755
 11
113.32315805796031
 21
132.47366415487755
  0
LINE
  8
_1-1_
  6
DASHED1
 62
    3
 10
109.32042302312078
 20
131.99859206740922
 11
109.32042302312078
 21
191.49927087732266
  0
LINE
  8
_1-1_
  6
CONTINUOUS
 62
    7
 10
109.81696051520271
 20
132.3484348606419
 11
112.81697041279561
 21
132.3484348606419
  0
LINE
  8
_1-3_
  6
CONTINUOUS
 62
    7
 10
115.02086742504224
 20
190.16409796637458
 11
124.68222953177788
 21
216.70846475137247
  0
LINE
  8
_1-3_
  6
CONTINUOUS
 62
    7
 10
147.5093697212838
 20
165.87186658704604
 11
140.13556403082771
 21
145.61244655299831
  0
LINE
  8
_1-3_
  6
CONTINUOUS
 62
    7
 10
126.09335409628379
 20
133.70864868164062
 11
148.28890413851352
 21
72.726918813344597
  0
LINE
  8
_1-3_
  6
CONTINUOUS
 62
    7
 10
126.09335409628379
 20
133.70864868164062
 11
125.15201877903294
 21
132.41811391469597
  0
LINE
  8
_1-3_
  6
CONTINUOUS
 62
    7
 10
124.68222953177788
 20
216.70846475137247
 11
128.20243216849664
 21
216.70846475137247
  0
LINE
  8
_1-3_
  6
CONTINUOUS
 62
    7
 10
131.40638196790542
 20
203.15468865471919
 11
134.2034912109375
 21
203.15468865471919
  0
LINE
  8
_1-3_
  6
CONTINUOUS
 62
    7
 10
138.26363228462839
 20
189.93169011296453
 11
140.2474068306588
 21
189.93169011296453
  0
LINE
  8
_1-3_
  6
CONTINUOUS
 62
    7
 10
147.5093697212838
 20
165.87186658704604
 11
151.0400390625
 21
165.87186658704604
  0
LINE
  8
_1-3_
  6
CONTINUOUS
 62
    7
 10
148.28890413851352
 20
72.726918813344597
 11
157.34243032094597
 21
72.726918813344597
  0
LINE
  8
_1-1_
  6
CONTINUOUS
 62
    7
 10
149.82692821605787
 20
136.32645065720018
 11
138.29307762352198
 21
136.32645065720018
  0
LINE
  8
_1-1_
  6
CONTINUOUS
 62
    7
 10
149.82692821605787
 20
136.32645065720018
 11
346.21621621621625
 21
136.32645065720018
  0
LINE
  8
_1-1_
  6
CONTINUOUS
 62
    7
 10
138.29307762352198
 20
133.32645313159841
 11
346.21621621621625
 21
133.32645313159841
  0
LINE
  8
_1-1_
  6
CONTINUOUS
 62
    7
 10
140.85007126266893
 20
132.72644867768159
 11
346.21621621621625
 21
132.72644867768159
  0
LINE
  8
_1-1_
  6
DASHED1
 62
    3
 10
346.21621621621625
 20
131.99859206740922
 11
108.85586712811445
 21
131.99859206740922
  0
LINE
  8
_1-3_
  6
CONTINUOUS
 62
    7
 10
260.30157140783365
 20
174.37440614442568
 11
245.90769999736065
 21
174.37440614442568
  0
LINE
  8
_1-3_
  6
CONTINUOUS
 62
    7
 10
260.53636705553208
 20
180.47896926467484
 11
248.12958588471284
 21
180.47896926467484
  0
LINE
  8
_1-3_
  6
CONTINUOUS
 62
    7
 10
260.30157140783365
 20
186.81832803262247
 11
250.43691274282097
 21
186.81832803262247
  0
LINE
  8
_1-3_
  6
CONTINUOUS
 62
    7
 10
259.83200485641891
 20
192.2185042097762
 11
252.40242622994089
 21
192.2185042097762
  0
LINE
  8
_1-2_
  6
CONTINUOUS
 62
    7
 10
73.519858282965572
 20
131.49927087732263
 11
73.519858282965572
 21
191.49927087732266
  0
LINE
  8
_1-2_
  6
CONTINUOUS
 62
    7
 10
96.695993784311668
 20
131.49927087732263
 11
73.519858282965572
 21
131.49927087732263
  0
LINE
  8
_1-2_
  6
CONTINUOUS
 62
    7
 10
96.695993784311668
 20
191.49927087732266
 11
73.519858282965572
 21
191.49927087732266
  0
LINE
  8
_1-1_
  6
CONTINUOUS
 62
    7
 10
108.85587950010559
 20
191.49927087732266
 11
113.85588362410263
 21
191.49927087732266
  0
LINE
  8
_1-1_
  6
CONTINUOUS
 62
    7
 10
113.85588362410263
 20
191.49927087732266
 11
113.85588362410263
 21
215.01043371252112
  0
LINE
  8
_1-1_
  6
DASHED1
 62
    7
 10
108.85587950010559
 20
191.49927087732266
 11
108.85587950010559
 21
214.75967819626268
  0
LINE
  8
_1-1_
  6
CONTINUOUS
 62
    3
 10
109.57291061813767
 20
188.49927335172086
 11
113.85588362410263
 21
188.49927335172086
  0
LINE
  8
_1-2_
  6
CONTINUOUS
 62
    3
 10
109.57291061813767
 20
188.49927335172086
 11
109.57291061813767
 21
191.49927087732266
  0
LINE
  8
_1-1_
  6
CONTINUOUS
 62
    7
 10
112.98020646378801
 20
188.49927335172086
 11
112.98083743533573
 21
188.49990432326859
  0
LINE
  8
_1-1_
  6
CONTINUOUS
 62
    7
 10
112.1316858240076
 20
188.49927335172086
 11
112.89701719541809
 21
189.26460472313136
  0
LINE
  8
_1-1_
  6
CONTINUOUS
 62
    7
 10
111.28315281223607
 20
188.49927335172086
 11
112.85673399229309
 21
190.07285453177789
  0
LINE
  8
_1-1_
  6
CONTINUOUS
 62
    7
 10
110.43463217245566
 20
188.49927335172086
 11
112.86790590028505
 21
190.93254707955026
  0
LINE
  8
_1-1_
  6
CONTINUOUS
 62
    7
 10
109.58611153267526
 20
188.49927335172086
 11
112.58610905827703
 21
191.49927087732266
  0
LINE
  8
_1-1_
  6
CONTINUOUS
 62
    7
 10
109.57291061813767
 20
189.33460544895482
 11
111.7375760465055
 21
191.49927087732266
  0
LINE
  8
_1-1_
  6
CONTINUOUS
 62
    7
 10
109.57291061813767
 20
190.18312608873524
 11
110.88905540672509
 21
191.49927087732266
  0
LINE
  8
_1-1_
  6
CONTINUOUS
 62
    7
 10
109.57291061813767
 20
191.03164672851563
 11
110.04053476694469
 21
191.49927087732266
  0
LINE
  8
_1-1_
  6
CONTINUOUS
 62
    7
 10
110.10074924778294
 20
187.94375857791385
 11
113.10075914537585
 21
187.94375857791385
  0
LINE
  8
_1-1_
  6
CONTINUOUS
 62
    7
 10
115.02086742504224
 20
190.16409796637458
 11
111.96076676652238
 21
190.16409796637458
  0
LINE
  8
_1-1_
  6
CONTINUOUS
 62
    7
 10
346.21621621621625
 20
131.49927087732263
 11
108.85587950010559
 21
131.49927087732263
  0
LINE
  8
_1-1_
  6
CONTINUOUS
 62
    7
 10
108.85587950010559
 20
191.49927087732266
 11
108.85587950010559
 21
131.49927087732263
  0
LINE
  8
_1-1_
  6
CONTINUOUS
 62
    7
 10
109.45945945945947
 20
107.49926592852619
 11
346.21621621621625
 21
107.49926592852619
  0
LINE
  8
_1-1_
  6
CONTINUOUS
 62
    7
 10
143.67364419473185
 20
125.49927582611909
 11
135.27365607184333
 21
125.49927582611909
  0
LINE
  8
_1-1_
  6
CONTINUOUS
 62
    7
 10
136.073653762405
 20
131.49927087732263
 11
135.27365607184333
 21
125.49927582611909
  0
LINE
  8
_1-1_
  6
CONTINUOUS
 62
    7
 10
136.073653762405
 20
131.49927087732263
 11
142.87364650417018
 21
131.49927087732263
  0
LINE
  8
_1-1_
  6
CONTINUOUS
 62
    7
 10
142.87364650417018
 20
131.49927087732263
 11
143.67364419473185
 21
125.49927582611909
  0
LINE
  8
_1-1_
  6
CONTINUOUS
 62
    7
 10
143.0737016007707
 20
125.49927582611909
 11
143.6030743573163
 21
126.02863621067357
  0
LINE
  8
_1-1_
  6
CONTINUOUS
 62
    7
 10
142.22518096099029
 20
125.49927582611909
 11
143.50323238888302
 21
126.77732725401184
  0
LINE
  8
_1-1_
  6
CONTINUOUS
 62
    7
 10
141.3766603212099
 20
125.49927582611909
 11
143.403415164432
 21
127.52603066934122
  0
LINE
  8
_1-1_
  6
CONTINUOUS
 62
    7
 10
140.52813968142948
 20
125.49927582611909
 11
143.30357319599875
 21
128.27472171267948
  0
LINE
  8
_1-1_
  6
CONTINUOUS
 62
    7
 10
139.67959429766682
 20
125.49927582611909
 11
143.20375597154774
 21
129.0234375
  0
LINE
  8
_1-1_
  6
CONTINUOUS
 62
    7
 10
138.83107365788641
 20
125.49927582611909
 11
143.10393874709672
 21
129.7721409153294
  0
LINE
  8
_1-1_
  6
CONTINUOUS
 62
    7
 10
137.98255301810602
 20
125.49927582611909
 11
143.00409677866344
 21
130.52081958667654
  0
LINE
  8
_1-1_
  6
CONTINUOUS
 62
    7
 10
137.13400763434333
 20
125.49927582611909
 11
142.90427955421242
 21
131.26953537399706
  0
LINE
  8
_1-1_
  6
CONTINUOUS
 62
    7
 10
136.28548699456292
 20
125.49927582611909
 11
142.28548204576649
 21
131.49927087732263
  0
LINE
  8
_1-1_
  6
CONTINUOUS
 62
    7
 10
135.43696635478253
 20
125.49927582611909
 11
141.43696140598607
 21
131.49927087732263
  0
LINE
  8
_1-1_
  6
CONTINUOUS
 62
    7
 10
135.37906543628591
 20
126.28989554740288
 11
140.58844076620568
 21
131.49927087732263
  0
LINE
  8
_1-1_
  6
CONTINUOUS
 62
    7
 10
135.5096146867082
 20
127.26896543760559
 11
139.73992012642526
 21
131.49927087732263
  0
LINE
  8
_1-1_
  6
CONTINUOUS
 62
    7
 10
135.6401639371305
 20
128.24803532780828
 11
138.89139948664484
 21
131.49927087732263
  0
LINE
  8
_1-1_
  6
CONTINUOUS
 62
    7
 10
135.77068844357052
 20
129.22710521801099
 11
138.04287884686445
 21
131.49927087732263
  0
LINE
  8
_1-1_
  6
CONTINUOUS
 62
    7
 10
135.90123769399284
 20
130.2061751082137
 11
137.19433346310177
 21
131.49927087732263
  0
LINE
  8
_1-1_
  6
CONTINUOUS
 62
    7
 10
136.03178694441513
 20
131.18524499841638
 11
136.34581282332138
 21
131.49927087732263
  0
LINE
  8
_1-1_
  6
CONTINUOUS
 62
    7
 10
233.67363182274073
 20
125.49927582611909
 11
225.27364369985222
 21
125.49927582611909
  0
LINE
  8
_1-1_
  6
CONTINUOUS
 62
    7
 10
226.07364139041385
 20
131.49927087732263
 11
225.27364369985222
 21
125.49927582611909
  0
LINE
  8
_1-1_
  6
CONTINUOUS
 62
    7
 10
226.07364139041385
 20
131.49927087732263
 11
232.87363413217906
 21
131.49927087732263
  0
LINE
  8
_1-1_
  6
CONTINUOUS
 62
    7
 10
232.87363413217906
 20
131.49927087732263
 11
233.67363182274073
 21
125.49927582611909
  0
LINE
  8
_1-1_
  6
CONTINUOUS
 62
    7
 10
233.07368922877959
 20
125.49927582611909
 11
233.60306198532518
 21
126.02863621067357
  0
LINE
  8
_1-1_
  6
CONTINUOUS
 62
    7
 10
232.22516858899917
 20
125.49927582611909
 11
233.5032200168919
 21
126.77732725401184
  0
LINE
  8
_1-1_
  6
CONTINUOUS
 62
    7
 10
231.37664794921875
 20
125.49927582611909
 11
233.40340279244089
 21
127.52603066934122
  0
LINE
  8
_1-1_
  6
CONTINUOUS
 62
    7
 10
230.52812730943836
 20
125.49927582611909
 11
233.3035608240076
 21
128.27472171267948
  0
LINE
  8
_1-1_
  6
CONTINUOUS
 62
    7
 10
229.67958192567568
 20
125.49927582611909
 11
233.20374359955659
 21
129.0234375
  0
LINE
  8
_1-1_
  6
CONTINUOUS
 62
    7
 10
228.83106128589529
 20
125.49927582611909
 11
233.1039263751056
 21
129.7721409153294
  0
LINE
  8
_1-1_
  6
CONTINUOUS
 62
    7
 10
227.98254064611487
 20
125.49927582611909
 11
233.00408440667232
 21
130.52081958667654
  0
LINE
  8
_1-1_
  6
CONTINUOUS
 62
    7
 10
227.13399526235222
 20
125.49927582611909
 11
232.9042671822213
 21
131.26953537399706
  0
LINE
  8
_1-1_
  6
CONTINUOUS
 62
    7
 10
226.2854746225718
 20
125.49927582611909
 11
232.28546967377534
 21
131.49927087732263
  0
LINE
  8
_1-1_
  6
CONTINUOUS
 62
    7
 10
225.43695398279141
 20
125.49927582611909
 11
231.43694903399495
 21
131.49927087732263
  0
LINE
  8
_1-1_
  6
CONTINUOUS
 62
    7
 10
225.37905306429477
 20
126.28989554740288
 11
230.58842839421453
 21
131.49927087732263
  0
LINE
  8
_1-1_
  6
CONTINUOUS
 62
    7
 10
225.50960231471709
 20
127.26896543760559
 11
229.73990775443414
 21
131.49927087732263
  0
LINE
  8
_1-1_
  6
CONTINUOUS
 62
    7
 10
225.64015156513938
 20
128.24803532780828
 11
228.89138711465372
 21
131.49927087732263
  0
LINE
  8
_1-1_
  6
CONTINUOUS
 62
    7
 10
225.7706760715794
 20
129.22710521801099
 11
228.04286647487334
 21
131.49927087732263
  0
LINE
  8
_1-1_
  6
CONTINUOUS
 62
    7
 10
225.90122532200169
 20
130.2061751082137
 11
227.19432109111065
 21
131.49927087732263
  0
LINE
  8
_1-1_
  6
CONTINUOUS
 62
    7
 10
226.03177457242401
 20
131.18524499841638
 11
226.34580045133026
 21
131.49927087732263
  0
LINE
  8
_1-1_
  6
CONTINUOUS
 62
    7
 10
323.67363182274073
 20
125.49927582611909
 11
315.27364369985219
 21
125.49927582611909
  0
LINE
  8
_1-1_
  6
CONTINUOUS
 62
    7
 10
316.07364139041385
 20
131.49927087732263
 11
315.27364369985219
 21
125.49927582611909
  0
LINE
  8
_1-1_
  6
CONTINUOUS
 62
    7
 10
316.07364139041385
 20
131.49927087732263
 11
322.87363413217906
 21
131.49927087732263
  0
LINE
  8
_1-1_
  6
CONTINUOUS
 62
    7
 10
322.87363413217906
 20
131.49927087732263
 11
323.67363182274073
 21
125.49927582611909
  0
LINE
  8
_1-1_
  6
CONTINUOUS
 62
    7
 10
323.07368922877959
 20
125.49927582611909
 11
323.60306198532521
 21
126.02863621067357
  0
LINE
  8
_1-1_
  6
CONTINUOUS
 62
    7
 10
322.22516858899917
 20
125.49927582611909
 11
323.50322001689193
 21
126.77732725401184
  0
LINE
  8
_1-1_
  6
CONTINUOUS
 62
    7
 10
321.37664794921875
 20
125.49927582611909
 11
323.40340279244089
 21
127.52603066934122
  0
LINE
  8
_1-1_
  6
CONTINUOUS
 62
    7
 10
320.52812730943839
 20
125.49927582611909
 11
323.3035608240076
 21
128.27472171267948
  0
LINE
  8
_1-1_
  6
CONTINUOUS
 62
    7
 10
319.67958192567568
 20
125.49927582611909
 11
323.20374359955662
 21
129.0234375
  0
LINE
  8
_1-1_
  6
CONTINUOUS
 62
    7
 10
318.83106128589532
 20
125.49927582611909
 11
323.10392637510557
 21
129.7721409153294
  0
LINE
  8
_1-1_
  6
CONTINUOUS
 62
    7
 10
317.9825406461149
 20
125.49927582611909
 11
323.00408440667229
 21
130.52081958667654
  0
LINE
  8
_1-1_
  6
CONTINUOUS
 62
    7
 10
317.13399526235219
 20
125.49927582611909
 11
322.9042671822213
 21
131.26953537399706
  0
LINE
  8
_1-1_
  6
CONTINUOUS
 62
    7
 10
316.28547462257183
 20
125.49927582611909
 11
322.28546967377537
 21
131.49927087732263
  0
LINE
  8
_1-1_
  6
CONTINUOUS
 62
    7
 10
315.43695398279141
 20
125.49927582611909
 11
321.43694903399495
 21
131.49927087732263
  0
LINE
  8
_1-1_
  6
CONTINUOUS
 62
    7
 10
315.37905306429479
 20
126.28989554740288
 11
320.58842839421453
 21
131.49927087732263
  0
LINE
  8
_1-1_
  6
CONTINUOUS
 62
    7
 10
315.50960231471709
 20
127.26896543760559
 11
319.73990775443411
 21
131.49927087732263
  0
LINE
  8
_1-1_
  6
CONTINUOUS
 62
    7
 10
315.64015156513938
 20
128.24803532780828
 11
318.89138711465375
 21
131.49927087732263
  0
LINE
  8
_1-1_
  6
CONTINUOUS
 62
    7
 10
315.77067607157943
 20
129.22710521801099
 11
318.04286647487334
 21
131.49927087732263
  0
LINE
  8
_1-1_
  6
CONTINUOUS
 62
    7
 10
315.90122532200172
 20
130.2061751082137
 11
317.19432109111068
 21
131.49927087732263
  0
LINE
  8
_1-1_
  6
CONTINUOUS
 62
    7
 10
316.03177457242401
 20
131.18524499841638
 11
316.34580045133026
 21
131.49927087732263
  0
LINE
  8
ADD_LINE
  6
DOT
 62
    7
 10
319.60970491976354
 20
133.65528828388938
 11
319.60970491976354
 21
124.13217080605997
  0
LINE
  8
_1-1_
  6
CONTINUOUS
 62
    7
 10
296.35162353515625
 20
131.49927087732263
 11
272.35161858635979
 21
107.49926592852619
  0
LINE
  8
_1-1_
  6
CONTINUOUS
 62
    7
 10
294.08888533308703
 20
131.49927087732263
 11
270.08888038429058
 21
107.49926592852619
  0
LINE
  8
_1-1_
  6
CONTINUOUS
 62
    7
 10
291.82614713101776
 20
131.49927087732263
 11
267.8261421822213
 21
107.49926592852619
  0
LINE
  8
_1-1_
  6
CONTINUOUS
 62
    7
 10
186.70027449324326
 20
131.49927087732263
 11
162.7002695444468
 21
107.49926592852619
  0
LINE
  8
_1-1_
  6
CONTINUOUS
 62
    7
 10
184.43753629117398
 20
131.49927087732263
 11
160.43753134237755
 21
107.49926592852619
  0
LINE
  8
_1-1_
  6
CONTINUOUS
 62
    7
 10
182.17479808910474
 20
131.49927087732263
 11
158.17479314030828
 21
107.49926592852619
  0
LINE
  8
_1-1_
  6
CONTINUOUS
 62
    7
 10
113.85588362410263
 20
209.42188159839529
 11
91.621621621621628
 21
187.18760722392315
  0
LINE
  8
_1-1_
  6
CONTINUOUS
 62
    7
 10
113.85588362410263
 20
211.68461980046453
 11
91.621621621621628
 21
189.4503454259924
  0
LINE
  8
_1-1_
  6
CONTINUOUS
 62
    7
 10
113.85588362410263
 20
213.9473580025338
 11
91.621621621621628
 21
191.71308362806167
  0
LINE
  8
_1-3_
  6
CONTINUOUS
 62
    7
 10
229.18227737014359
 20
128.42168859533362
 11
254.6243121172931
 21
198.32306733002534
  0
LINE
  8
_1-3_
  6
CONTINUOUS
 62
    7
 10
259.83200485641891
 20
198.32306733002534
 11
254.6243121172931
 21
198.32306733002534
  0
LINE
  8
_1-0_
  6
CONTINUOUS
 62
    3
 10
173.59417889569258
 20
146.16986661343961
 11
174.98365247571792
 21
146.16986661343961
  0
LINE
  8
_1-0_
  6
CONTINUOUS
 62
    3
 10
113.98359968855576
 20
145.82708822714318
 11
113.98359968855576
 21
143.02713342615075
  0
LINE
  8
_1-0_
  6
CONTINUOUS
 62
    3
 10
118.55606491501267
 20
145.39577587230787
 11
113.98359968855576
 21
143.02713342615075
  0
LINE
  8
_1-0_
  6
CONTINUOUS
 62
    3
 10
174.98365247571792
 20
146.16986661343961
 11
174.98365247571792
 21
142.98863178974875
  0
LINE
  8
_1-0_
  6
CONTINUOUS
 62
    3
 10
174.98365247571792
 20
146.16986661343961
 11
174.98365247571792
 21
142.98863178974875
  0
LINE
  8
_1-0_
  6
CONTINUOUS
 62
    3
 10
172.6552437447213
 20
149.05205803948482
 11
166.98360133815456
 21
145.82708822714318
  0
LINE
  8
_1-0_
  6
CONTINUOUS
 62
    3
 10
226.59418054529141
 20
146.16985424144849
 11
227.98367886929901
 21
146.16985424144849
  0
LINE
  8
_1-0_
  6
CONTINUOUS
 62
    3
 10
166.98360133815456
 20
145.82708822714318
 11
166.98360133815456
 21
143.02713342615075
  0
LINE
  8
_1-0_
  6
CONTINUOUS
 62
    3
 10
171.55606656461148
 20
145.39576350031672
 11
166.98360133815456
 21
143.02713342615075
  0
LINE
  8
_1-0_
  6
CONTINUOUS
 62
    3
 10
227.98367886929901
 20
146.16985424144849
 11
227.98367886929901
 21
142.98863178974875
  0
LINE
  8
_1-0_
  6
CONTINUOUS
 62
    3
 10
227.98367886929901
 20
146.16985424144849
 11
227.98367886929901
 21
142.98863178974875
  0
LINE
  8
_1-0_
  6
CONTINUOUS
 62
    3
 10
226.59425477723818
 20
146.16986661343961
 11
227.98372835726352
 21
146.16986661343961
  0
LINE
  8
_1-0_
  6
CONTINUOUS
 62
    3
 10
227.98372835726352
 20
146.16986661343961
 11
227.98372835726352
 21
142.98863178974875
  0
LINE
  8
_1-0_
  6
CONTINUOUS
 62
    3
 10
227.98372835726352
 20
146.16986661343961
 11
227.98372835726352
 21
142.98863178974875
  0
LINE
  8
_1-0_
  6
CONTINUOUS
 62
    3
 10
225.6553196262669
 20
149.05204566749367
 11
219.98365247571792
 21
145.82708822714318
  0
LINE
  8
_1-0_
  6
CONTINUOUS
 62
    3
 10
219.98365247571792
 20
145.82708822714318
 11
219.98365247571792
 21
143.02713342615075
  0
LINE
  8
_1-0_
  6
CONTINUOUS
 62
    3
 10
224.55611770217484
 20
145.39577587230787
 11
219.98365247571792
 21
143.02713342615075
  0
LINE
  8
_1-0_
  6
CONTINUOUS
 62
    3
 10
280.98370526288011
 20
146.16986661343961
 11
280.98370526288011
 21
142.98863178974875
  0
LINE
  8
_1-0_
  6
CONTINUOUS
 62
    3
 10
280.98370526288011
 20
146.16986661343961
 11
280.98370526288011
 21
142.98863178974875
  0
LINE
  8
_1-0_
  6
CONTINUOUS
 62
    3
 10
119.65526683910474
 20
149.05204566749367
 11
113.98359968855576
 21
145.82708822714318
  0
LINE
  8
_1-0_
  6
CONTINUOUS
 62
    3
 10
278.65529653188344
 20
149.05204566749367
 11
272.98365412531672
 21
145.82708822714318
  0
LINE
  8
_1-0_
  6
CONTINUOUS
 62
    3
 10
332.59423333245354
 20
146.16986661343961
 11
333.98373165646115
 21
146.16986661343961
  0
LINE
  8
_1-0_
  6
CONTINUOUS
 62
    3
 10
272.98365412531672
 20
145.82708822714318
 11
272.98365412531672
 21
143.02713342615075
  0
LINE
  8
_1-0_
  6
CONTINUOUS
 62
    3
 10
277.55611935177365
 20
145.39577587230787
 11
272.98365412531672
 21
143.02713342615075
  0
LINE
  8
_1-0_
  6
CONTINUOUS
 62
    3
 10
333.98373165646115
 20
146.16986661343961
 11
333.98373165646115
 21
142.98863178974875
  0
LINE
  8
_1-0_
  6
CONTINUOUS
 62
    3
 10
333.98373165646115
 20
146.16986661343961
 11
333.98373165646115
 21
142.98863178974875
  0
LINE
  8
_1-0_
  6
CONTINUOUS
 62
    3
 10
331.65529818148229
 20
149.05204566749367
 11
325.98365577491558
 21
145.82708822714318
  0
LINE
  8
_1-0_
  6
CONTINUOUS
 62
    3
 10
325.98365577491558
 20
145.82708822714318
 11
325.98365577491558
 21
143.02713342615075
  0
LINE
  8
_1-0_
  6
CONTINUOUS
 62
    3
 10
330.5561210013725
 20
145.39577587230787
 11
325.98365577491558
 21
143.02713342615075
  0
LINE
  8
_1-0_
  6
CONTINUOUS
 62
    3
 10
279.5942069388725
 20
146.16986661343961
 11
280.98370526288011
 21
146.16986661343961
  0
LINE
  8
_1-1_
  6
CONTINUOUS
 62
    7
 10
112.81697041279561
 20
132.3484348606419
 11
112.81697041279561
 21
154.03167312209672
  0
LINE
  8
_1-1_
  6
CONTINUOUS
 62
    7
 10
112.81697041279561
 20
154.03167312209672
 11
109.81696051520271
 21
154.03167312209672
  0
LINE
  8
_1-1_
  6
CONTINUOUS
 62
    7
 10
109.81696051520271
 20
154.03167312209672
 11
109.81696051520271
 21
132.3484348606419
  0
LINE
  8
_1-1_
  6
CONTINUOUS
 62
    7
 10
112.81697041279561
 20
154.03167312209672
 11
109.81696051520271
 21
132.3484348606419
  0
LINE
  8
_1-1_
  6
CONTINUOUS
 62
    3
 10
113.32315805796031
 20
132.47366415487755
 11
113.32315805796031
 21
154.15690241633234
  0
LINE
  8
_1-0_
  6
CONTINUOUS
 62
    3
 10
136.0947727512669
 20
154.90262418179898
 11
136.0947727512669
 21
149.50262121252112
  0
LINE
  8
_1-2_
  6
CONTINUOUS
 62
    3
 10
115.59475460567991
 20
158.50262616131758
 11
115.59475460567991
 21
154.90262418179898
  0
LINE
  8
_1-1_
  6
CONTINUOUS
 62
    7
 10
128.46006651182432
 20
157.66936018660263
 11
129.00057406038852
 21
160.62026565139359
  0
LINE
  8
_1-1_
  6
CONTINUOUS
 62
    7
 10
129.00057406038852
 20
160.62026565139359
 11
111.29511652766048
 21
163.86333568676099
  0
LINE
  8
_1-1_
  6
CONTINUOUS
 62
    7
 10
111.29511652766048
 20
163.86333568676099
 11
110.75460897909629
 21
160.91243022197003
  0
LINE
  8
_1-1_
  6
CONTINUOUS
 62
    7
 10
129.00057406038852
 20
160.62026565139359
 11
110.75460897909629
 21
160.91243022197003
  0
LINE
  8
_1-1_
  6
CONTINUOUS
 62
    3
 10
129.88442910684122
 20
160.84685866897172
 11
129.99399546030406
 21
157.23108240076013
  0
LINE
  8
_1-3_
  6
CONTINUOUS
 62
    7
 10
119.21165672508447
 20
161.33315215239654
 11
131.40638196790542
 21
203.15468865471919
  0
LINE
  8
_1-3_
  6
CONTINUOUS
 62
    7
 10
129.96618322423987
 20
158.81782737938136
 11
138.26363228462839
 21
189.93169011296453
  0
LINE
  8
_1-3_
  6
CONTINUOUS
 62
    7
 10
133.54089685388513
 20
153.30382888381547
 11
139.86773516680745
 21
170.68666200380068
  0
LINE
  8
_1-3_
  6
CONTINUOUS
 62
    7
 10
139.86773516680745
 20
170.68666200380068
 11
142.19005687816724
 21
170.68666200380068
  0
LINE
  8
_1-2_
  6
CONTINUOUS
 62
    3
 10
129.99399546030406
 20
157.23108240076013
 11
129.57990491712417
 21
157.87956031593117
  0
LINE
  8
_1-1_
  6
CONTINUOUS
 62
    3
 10
129.88442910684122
 20
160.84685866897172
 11
113.85588362410263
 21
163.78276928051099
  0
LINE
  8
_1-1_
  6
CONTINUOUS
 62
    3
 10
113.85588362410263
 20
188.49927335172086
 11
113.85588362410263
 21
163.78276928051099
  0
LINE
  8
_1-1_
  6
CONTINUOUS
 62
    7
 10
110.10074924778294
 20
164.62699683936867
 11
110.10074924778294
 21
187.94375857791385
  0
LINE
  8
_1-1_
  6
CONTINUOUS
 62
    7
 10
113.10075914537585
 20
187.94375857791385
 11
113.10075914537585
 21
164.62699683936867
  0
LINE
  8
_1-1_
  6
CONTINUOUS
 62
    7
 10
113.10075914537585
 20
164.62699683936867
 11
110.10074924778294
 21
164.62699683936867
  0
LINE
  8
_1-1_
  6
CONTINUOUS
 62
    7
 10
110.10074924778294
 20
187.94375857791385
 11
113.10075914537585
 21
164.62699683936867
  0
LINE
  8
_1-0_
  6
CONTINUOUS
 62
    7
 10
110.75460897909629
 20
160.91243022197003
 11
128.46006651182432
 21
157.66936018660263
  0
ARC
  8
_1-1_
  6
CONTINUOUS
 62
    3
 10
126.14729597761826
 20
190.3301053433805
 40
13.293051848540436
 50
174.95413208007812
 51
187.91642761230469
  0
ARC
  8
_1-0_
  6
CONTINUOUS
 62
    3
 10
121.49513038429055
 20
146.60362862251901
 40
3.0627306731971538
 50
42.6905517578125
 51
126.92074584960937
  0
ARC
  8
_1-0_
  6
CONTINUOUS
 62
    3
 10
172.55431304106841
 20
146.14047076251057
 40
1.0402513194728542
 50
309.08184814453125
 51
1.6144714355468908
  0
ARC
  8
_1-0_
  6
CONTINUOUS
 62
    3
 10
151.11634950380068
 20
185.99196562895904
 40
46.274049088761615
 50
233.73811340332031
 51
298.51937866210937
  0
ARC
  8
_1-0_
  6
CONTINUOUS
 62
    3
 10
121.30841229413008
 20
141.67720072978253
 40
4.6263270764737516
 50
47.123046875000007
 51
126.50717163085939
  0
ARC
  8
_1-0_
  6
CONTINUOUS
 62
    3
 10
151.42324911581505
 20
185.43134122281461
 40
48.543530025997683
 50
236.25315856933597
 51
299.03501892089844
  0
ARC
  8
_1-0_
  6
CONTINUOUS
 62
    3
 10
174.49513203388938
 20
146.60362862251901
 40
3.0627306731971538
 50
42.6905517578125
 51
126.92074584960937
  0
ARC
  8
_1-0_
  6
CONTINUOUS
 62
    3
 10
225.55431469066724
 20
146.14045839051943
 40
1.0402513194728542
 50
309.08184814453125
 51
1.6144714355468908
  0
ARC
  8
_1-0_
  6
CONTINUOUS
 62
    3
 10
204.11632640941724
 20
185.99196562895904
 40
46.274049088761615
 50
233.73811340332031
 51
298.51937866210937
  0
ARC
  8
_1-0_
  6
CONTINUOUS
 62
    3
 10
174.30841394372891
 20
141.67718835779138
 40
4.6263270764737516
 50
47.123046875000007
 51
126.50717163085939
  0
ARC
  8
_1-0_
  6
CONTINUOUS
 62
    3
 10
204.42325076541385
 20
185.43134122281461
 40
48.543530025997683
 50
236.25315856933597
 51
299.03501892089844
  0
ARC
  8
_1-0_
  6
CONTINUOUS
 62
    3
 10
225.55436417863177
 20
146.14047076251057
 40
1.0402513194728542
 50
309.08184814453125
 51
1.6144714355468908
  0
ARC
  8
_1-0_
  6
CONTINUOUS
 62
    3
 10
227.49518317145271
 20
146.60362862251901
 40
3.0627306731971538
 50
42.6905517578125
 51
126.92074584960937
  0
ARC
  8
_1-0_
  6
CONTINUOUS
 62
    3
 10
257.11640229096287
 20
185.99196562895904
 40
46.274049088761615
 50
233.73811340332031
 51
298.51937866210937
  0
ARC
  8
_1-0_
  6
CONTINUOUS
 62
    3
 10
227.30846508129224
 20
141.67720072978253
 40
4.6263270764737516
 50
47.123046875000007
 51
126.50717163085939
  0
ARC
  8
_1-0_
  6
CONTINUOUS
 62
    3
 10
257.42330190297719
 20
185.43134122281461
 40
48.543530025997683
 50
236.25315856933597
 51
299.03501892089844
  0
ARC
  8
_1-0_
  6
CONTINUOUS
 62
    3
 10
280.49518482105151
 20
146.60362862251901
 40
3.0627306731971538
 50
42.6905517578125
 51
126.92074584960937
  0
ARC
  8
_1-0_
  6
CONTINUOUS
 62
    3
 10
331.55436747782943
 20
146.14047076251057
 40
1.0402513194728542
 50
309.08184814453125
 51
1.6144714355468908
  0
ARC
  8
_1-0_
  6
CONTINUOUS
 62
    3
 10
310.11637919657943
 20
185.99196562895904
 40
46.274049088761615
 50
233.73811340332031
 51
298.51937866210937
  0
ARC
  8
_1-0_
  6
CONTINUOUS
 62
    3
 10
280.30846673089104
 20
141.67720072978253
 40
4.6263270764737516
 50
47.123046875000007
 51
126.50717163085939
  0
ARC
  8
_1-0_
  6
CONTINUOUS
 62
    3
 10
310.42330355257604
 20
185.43134122281461
 40
48.543530025997683
 50
236.25315856933597
 51
299.03501892089844
  0
ARC
  8
_1-0_
  6
CONTINUOUS
 62
    3
 10
333.49518647065037
 20
146.60362862251901
 40
3.0627306731971538
 50
42.6905517578125
 51
126.92074584960937
  0
ARC
  8
_1-0_
  6
CONTINUOUS
 62
    3
 10
333.3084683804899
 20
141.67720072978253
 40
4.6263270764737516
 50
47.123046875000007
 51
126.50717163085939
  0
ARC
  8
_1-0_
  6
CONTINUOUS
 62
    3
 10
278.55434108424834
 20
146.14047076251057
 40
1.0402513194728542
 50
309.08184814453125
 51
1.6144714355468908
  0
ARC
  8
_1-0_
  6
CONTINUOUS
 62
    3
 10
363.42330520217484
 20
185.43134122281461
 40
48.543530025997683
 50
236.25315856933597
 51
240.35987854003909
  0
ARC
  8
_1-0_
  6
CONTINUOUS
 62
    3
 10
363.11638084617823
 20
185.99196562895904
 40
46.274049088761615
 50
233.73811340332031
 51
239.19131469726562
  0
ARC
  8
_1-0_
  6
CONTINUOUS
 62
    3
 10
115.59475460567991
 20
113.29060734929266
 40
41.612016832506335
 50
60.485351562499993
 51
90
  0
ARC
  8
_1-0_
  6
CONTINUOUS
 62
    3
 10
115.59475460567991
 20
98.334595963761615
 40
60.168024011560391
 50
70.079711914062528
 51
90.000000000000028
  0
TEXT
  8
_0-0_
 62
    7
 10
141.89189395389042
 20
14.594594594594582
 40
2.5
 41
1
 50
0
  1
縮尺
  0
TEXT
  8
_0-0_
 62
    7
 10
377.10214563318203
 20
22.865493362014362
 40
2.5
 41
1
 50
0
  1
ＮＯ
  0
TEXT
  8
_0-0_
 62
    7
 10
14.594594336844779
 20
24.324324324324323
 40
2.5
 41
1
 50
0
  1
和形
  0
TEXT
  8
_0-0_
 62
    7
 10
383.23801896378802
 20
18.523427086907475
 40
3
 41
1
 50
0
  1
Ｊ
  0
TEXT
  8
_1-0_
 62
    7
 10
169.90681828679266
 20
13.3181144095756
 40
2.5
 41
1
 50
0
  1
1/5
  0
TEXT
  8
_1-3_
 62
    7
 10
261.66961257522172
 20
197.21641746727198
 40
2.5
 41
1
 50
0
  1
桟瓦
  0
TEXT
  8
_1-3_
 62
    7
 10
261.66961257522172
 20
191.21642241606841
 40
2.5
 41
1
 50
0
  1
瓦桟
  0
TEXT
  8
_1-3_
 62
    7
 10
145.0132937044711
 20
201.92221564215583
 40
2.5
 41
1
 50
0
  1
雨押え板
  0
TEXT
  8
_1-3_
 62
    7
 10
135.04018422719597
 20
201.64808943464951
 40
2.5
 41
1
 50
0
  1
15ｘ90
  0
TEXT
  8
_1-3_
 62
    7
 10
141.77450850203232
 20
189.01361413904141
 40
2.5
 41
1
 50
0
  1
水切り鉄板
  0
TEXT
  8
_1-3_
 62
    7
 10
158.26306935903187
 20
72.245122548696159
 40
2.5
 41
1
 50
0
  1
捨谷
  0
TEXT
  8
_1-2_
 62
    7
 10
73.019856633366771
 20
159.62427087732266
 40
2.5
 41
1
 50
90
  1
300
  0
TEXT
  8
_1-3_
 62
    7
 10
39.721904445338907
 20
15.395235628695104
 40
2.5
 41
1
 50
0
  1
壁際　　4
  0
TEXT
  8
_1-1_
 62
    7
 10
130.14139742464633
 20
215.54497796135982
 40
2.5
 41
1
 50
0
  1
コーキング
  0
TEXT
  8
_1-1_
 62
    7
 10
25.556194717819636
 20
20.211577544341225
 40
2.5
 41
1
 50
0
  1
ＲＣ
  0
TEXT
  8
_1-1_
 62
    7
 10
37.028066789781718
 20
160.4935764622044
 40
2.5
 41
1
 50
0
  1
下葺き材立上がり寸法
  0
TEXT
  8
_1-1_
 62
    7
 10
262.32703956397808
 20
173.07836584142737
 40
2.5
 41
1
 50
0
  1
木煉瓦　　防腐処理
  0
TEXT
  8
_1-1_
 62
    7
 10
393.99457364468964
 20
16.102734127560183
 40
2.5
 41
1
 50
0
  1
24
  0
TEXT
  8
_1-3_
 62
    7
 10
275.62190700221709
 20
188.21442062790331
 40
2.5
 41
1
 50
0
  1
※　地域により瓦桟木の大きさは、異なります
  0
TEXT
  8
_1-1_
 62
    7
 10
275.42831008498734
 20
191.18301804001268
 40
2.5
 41
1
 50
0
  1
15×21以上　（防腐処理）
  0
POINT
  8
_1-2_
 62
    7
 10
73.519858282965572
 20
131.49927087732263
  0
POINT
  8
_1-2_
 62
    7
 10
73.519858282965572
 20
191.49927087732266
  0
TEXT
  8
_1-3_
 62
    7
 10
261.66961257522172
 20
185.21642736486487
 40
2.5
 41
1
 50
0
  1
縦桟
  0
TEXT
  8
_1-1_
 62
    7
 10
261.7322478423248
 20
178.32829655827703
 40
2.5
 41
1
 50
0
  1
ルーフィング
  0
LINE
  8
ADD_LINE
  6
DOT
 62
    4
 10
110.75460897909629
 20
160.91243022197003
 11
109.32042302312078
 21
161.08088145166238
  0
LINE
  8
ADD_LINE
  6
DOT
 62
    4
 10
109.81696051520271
 20
154.03167312209672
 11
109.32042302312078
 21
154.03167312209672
  0
LINE
  8
ADD_LINE
  6
DOT
 62
    4
 10
115.75873297614021
 20
150.65303080790753
 11
115.75873297614021
 21
146.83644388068416
  0
LINE
  8
ADD_LINE
  6
DOT
 62
    4
 10
115.75873297614021
 20
154.15690241633234
 11
115.75873297614021
 21
154.90230108990855
  0
LINE
  8
ADD_LINE
  6
DOT
 62
    4
 10
115.59475460567991
 20
158.50261997532201
 11
115.59475460567991
 21
160.02587130535505
  0
ARC
  8
_1-4_
  6
CONTINUOUS
 62
    1
 10
142.61375958720848
 20
150.63137024097807
 40
13.525644576841509
 50
171.6126930300228
 51
206.730673537012
  0
SOLID
  8
_1-4_
  6
CONTINUOUS
 62
    8
 10
123.64072013843384
 20
148.79235985661552
 11
123.74631833319451
 21
148.6802778454867
 12
124.13755220126767
 22
148.4015186338529
 13
124.13755220126767
 23
148.4015186338529
  0
SOLID
  8
_1-4_
  6
CONTINUOUS
 62
    8
 10
123.64072013843384
 20
148.79235985661552
 11
124.13755220126767
 21
148.4015186338529
 12
124.54164227903919
 22
148.11004382365707
 13
124.54164227903919
 23
148.11004382365707
  0
SOLID
  8
_1-4_
  6
CONTINUOUS
 62
    8
 10
123.64072013843384
 20
148.79235985661552
 11
124.54164227903919
 21
148.11004382365707
 12
124.93910792930626
 22
147.84506672347902
 13
124.93910792930626
 23
147.84506672347902
  0
SOLID
  8
_1-4_
  6
CONTINUOUS
 62
    8
 10
123.64072013843384
 20
148.79235985661552
 11
124.93910792930626
 21
147.84506672347902
 12
125.4226911371312
 22
147.52046977576092
 13
125.4226911371312
 23
147.52046977576092
  0
SOLID
  8
_1-4_
  6
CONTINUOUS
 62
    8
 10
123.64072013843384
 20
148.79235985661552
 11
125.4226911371312
 21
147.52046977576092
 12
126.99049760815308
 22
146.50917131928557
 13
126.99049760815308
 23
146.50917131928557
  0
SOLID
  8
_1-4_
  6
CONTINUOUS
 62
    8
 10
123.64072013843384
 20
148.79235985661552
 11
126.99049760815308
 21
146.50917131928557
 12
127.52601255394654
 22
146.1776620671277
 13
127.52601255394654
 23
146.1776620671277
  0
SOLID
  8
_1-4_
  6
CONTINUOUS
 62
    8
 10
123.64072013843384
 20
148.79235985661552
 11
127.52601255394654
 21
146.1776620671277
 12
127.97652512739185
 22
145.9226549500832
 13
127.97652512739185
 23
145.9226549500832
  0
SOLID
  8
_1-4_
  6
CONTINUOUS
 62
    8
 10
123.64072013843384
 20
148.79235985661552
 11
127.97652512739185
 21
145.9226549500832
 12
128.72454600405575
 22
145.50614332557717
 13
128.72454600405575
 23
145.50614332557717
  0
SOLID
  8
_1-4_
  6
CONTINUOUS
 62
    8
 10
123.64072013843384
 20
148.79235985661552
 11
128.72454600405575
 21
145.50614332557717
 12
129.38756450837147
 22
145.16613383618449
 13
129.38756450837147
 23
145.16613383618449
  0
SOLID
  8
_1-4_
  6
CONTINUOUS
 62
    8
 10
123.64072013843384
 20
148.79235985661552
 11
129.38756450837147
 21
145.16613383618449
 12
129.95708040310421
 22
144.86012529573108
 13
129.95708040310421
 23
144.86012529573108
  0
SOLID
  8
_1-4_
  6
CONTINUOUS
 62
    8
 10
123.64072013843384
 20
148.79235985661552
 11
129.95708040310421
 21
144.86012529573108
 12
130.53359096872259
 22
144.5475731233885
 13
130.53359096872259
 23
144.5475731233885
  0
SOLID
  8
_1-4_
  6
CONTINUOUS
 62
    8
 10
123.64072013843384
 20
148.79235985661552
 11
130.53359096872259
 21
144.5475731233885
 12
128.60848844959651
 22
148.37011397894699
 13
128.60848844959651
 23
148.37011397894699
  0
SOLID
  8
_1-4_
  6
CONTINUOUS
 62
    8
 10
123.64072013843384
 20
148.79235985661552
 11
128.60848844959651
 21
148.37011397894699
 12
129.23277622614495
 22
152.60427305408948
 13
129.23277622614495
 23
152.60427305408948
  0
SOLID
  8
_1-4_
  6
CONTINUOUS
 62
    8
 10
129.23277622614495
 20
152.60427305408948
 11
123.33599647322907
 21
149.06396138429804
 12
123.64072013843384
 22
148.79235985661552
 13
123.64072013843384
 23
148.79235985661552
  0
SOLID
  8
_1-4_
  6
CONTINUOUS
 62
    8
 10
115.59475460567991
 20
160.02587130535505
 11
110.75460897909629
 21
160.91243022197003
 12
109.32042302312078
 22
161.08088145166238
 13
109.32042302312078
 23
161.08088145166238
  0
SOLID
  8
_1-4_
  6
CONTINUOUS
 62
    8
 10
115.59475460567991
 20
160.02587130535505
 11
109.32042302312078
 21
161.08088145166238
 12
109.32042302312078
 22
154.03167312209672
 13
109.32042302312078
 23
154.03167312209672
  0
SOLID
  8
_1-4_
  6
CONTINUOUS
 62
    8
 10
115.59475460567991
 20
160.02587130535505
 11
109.32042302312078
 21
154.03167312209672
 12
112.81697041279561
 22
154.03167312209672
 13
112.81697041279561
 23
154.03167312209672
  0
LINE
  8
_1-4_
  6
CONTINUOUS
 62
    7
 10
140.13556403082771
 20
145.61244655299831
 11
128.04006579298647
 21
150.1190006641782
  0
TEXT
  8
_1-1_
 62
    7
 10
151.49789413477538
 20
164.86257279534109
 40
2.5
 41
1
 50
0
  1
葺き土
  0
TEXT
  8
_1-3_
 62
    7
 10
143.20507487520797
 20
169.6101289517471
 40
2.5
 41
1
 50
0
  1
割のし
  0
LINE
  8
_1-1_
  6
CONTINUOUS
 62
    7
 10
115.19885516777128
 20
154.80208851472702
 11
115.19885516777128
 21
154.50208851472703
  0
LINE
  8
_1-1_
  6
DASHED1
 62
    7
 10
115.59885516777128
 20
154.28232568711829
 11
115.59885516777128
 21
150.78363913988767
  0
LINE
  8
_1-1_
  6
DASHED1
 62
    7
 10
115.99885516777128
 20
154.28232568711829
 11
115.99885516777128
 21
150.78363913988767
  0
LINE
  8
_1-1_
  6
DASHED1
 62
    7
 10
115.99885516777128
 20
150.78363913988767
 11
115.79885516777129
 21
150.4079554006162
  0
LINE
  8
_1-1_
  6
DASHED1
 62
    7
 10
115.59885516777128
 20
150.78363913988767
 11
115.79885516777129
 21
150.4079554006162
  0
LINE
  8
ADD_LINE
  6
DOT
 62
    4
 10
115.79885516777129
 20
154.84447470958085
 11
115.79885516777129
 21
150.4079554006162
  0
LINE
  8
_1-1_
  6
CONTINUOUS
 62
    7
 10
115.19885516777128
 20
154.50208851472703
 11
116.39885516777129
 21
154.50208851472703
  0
LINE
  8
_1-1_
  6
CONTINUOUS
 62
    7
 10
116.39885516777129
 20
154.50208851472703
 11
116.39885516777129
 21
154.80208851472702
  0
LINE
  8
_1-1_
  6
CONTINUOUS
 62
    7
 10
116.39885516777129
 20
154.80208851472702
 11
115.19885516777128
 21
154.80208851472702
  0
LINE
  8
_1-1_
  6
CONTINUOUS
 62
    7
 10
115.59885516777128
 20
154.50208851472703
 11
115.59885516777128
 21
154.28232568711829
  0
LINE
  8
_1-1_
  6
CONTINUOUS
 62
    7
 10
115.99885516777128
 20
154.50208851472703
 11
115.99885516777128
 21
154.28232568711829
  0
LINE
  8
_1-1_
  6
CONTINUOUS
 62
    7
 10
115.42337710015332
 20
158.65580773349538
 11
115.42337710015332
 21
154.84754563637674
  0
LINE
  8
_1-1_
  6
CONTINUOUS
 62
    7
 10
115.42337710015332
 20
158.65580773349538
 11
116.49516343886336
 21
158.65580773349538
  0
LINE
  8
_1-1_
  6
DASHED1
 62
    7
 10
116.49516343886336
 20
158.65580773349538
 11
116.49516343886336
 21
154.84754563637674
  0
LINE
  8
_1-1_
  6
CONTINUOUS
 62
    7
 10
115.42337710015332
 20
154.84754563637674
 11
116.48520330455135
 21
154.84754563637674
  0
LINE
  8
_1-1_
  6
CONTINUOUS
 62
    7
 10
116.48520330455135
 20
154.84754563637674
 11
116.49516343886336
 21
154.84754563637674
  0
LINE
  8
_1-1_
  6
CONTINUOUS
 62
    7
 10
116.49516343886336
 20
154.84754563637674
 11
116.49516343886336
 21
154.49651255985265
  0
LINE
  8
_1-1_
  6
CONTINUOUS
 62
    7
 10
116.49516343886336
 20
154.49651255985265
 11
115.38799490874018
 21
154.49651255985265
  0
LINE
  8
_1-1_
  6
CONTINUOUS
 62
    7
 10
113.38854666596464
 20
154.43221814845865
 11
113.38854666596464
 21
149.71436782898985
  0
LINE
  8
_1-1_
  6
CONTINUOUS
 62
    7
 10
113.38854666596464
 20
154.43221814845865
 11
121.66070570396464
 21
154.43221814845865
  0
LINE
  8
_1-1_
  6
CONTINUOUS
 62
    7
 10
121.66070570396464
 20
154.43221814845865
 11
121.66070570396464
 21
149.71436782898985
  0
LINE
  8
_1-1_
  6
CONTINUOUS
 62
    7
 10
113.38854666596464
 20
149.71436782898985
 11
121.66070570396464
 21
149.71436782898985
  0
LINE
  8
ADD_LINE
  6
DOT
 62
    7
 10
115.59475460567991
 20
154.90262418179898
 11
115.59475460567991
 21
154.67596674364006
  0
LINE
  8
ADD_LINE
  6
DOT
 62
    7
 10
115.19885516777128
 20
154.50208851472703
 11
115.19885516777128
 21
154.26122143893215
  0
SOLID
  8
ADD_LINE
  6
DOT
 62
    8
 10
115.59475460567991
 20
160.02587130535505
 11
112.81697041279561
 21
154.03167312209672
 12
113.38854666596464
 22
154.43221814845865
 13
113.38854666596464
 23
154.43221814845865
  0
SOLID
  8
ADD_LINE
  6
DOT
 62
    8
 10
113.38854666596464
 20
154.43221814845865
 11
115.19885516777128
 21
154.43221814845865
 12
115.19885516777128
 22
154.80208851472702
 13
115.19885516777128
 23
154.80208851472702
  0
SOLID
  8
ADD_LINE
  6
DOT
 62
    8
 10
113.38854666596464
 20
154.43221814845865
 11
115.19885516777128
 21
154.80208851472702
 12
115.59475460567991
 22
160.02587130535505
 13
115.59475460567991
 23
160.02587130535505
  0
SOLID
  8
ADD_LINE
  6
DOT
 62
    8
 10
115.59475460567991
 20
160.02587130535505
 11
115.19885516777128
 21
154.80208851472702
 12
115.59475460567991
 22
160.02587130535505
 13
115.59475460567991
 23
154.80208851472702
  0
SOLID
  8
ADD_LINE
  6
DOT
 62
    8
 10
121.66070570396464
 20
149.71436782898985
 11
122.16947990328619
 21
149.60496642500595
 12
121.66070570396464
 22
154.43221814845865
 13
122.74252733539339
 23
154.28619896898027
  0
SOLID
  8
ADD_LINE
  6
DOT
 62
    8
 10
122.16947990328619
 20
149.60496642500595
 11
128.11787367037081
 21
152.97061120231163
 12
122.74252733539339
 22
154.28619896898027
 13
124.39710090697052
 23
153.9633553452579
  0
SOLID
  8
ADD_LINE
  6
DOT
 62
    8
 10
128.11787367037081
 20
152.97061120231163
 11
126.56015318591038
 21
153.43873445670906
 12
124.39710090697052
 22
153.9633553452579
 13
125.13157015093891
 23
153.79386244280366
  0
SOLID
  8
ADD_LINE
  6
DOT
 62
    8
 10
122.16947990328619
 20
149.60496642500595
 11
122.48425243641549
 21
149.51618442848229
 12
128.11787367037081
 22
152.97061120231163
 13
129.23277622614495
 23
152.60427305408945
  0
SOLID
  8
ADD_LINE
  6
DOT
 62
    8
 10
122.48425243641549
 20
149.51618442848229
 11
122.87166478488233
 21
149.34669152602805
 12
122.48425243641549
 22
149.51618442848229
 13
129.23277622614756
 23
152.60427305408859
  0
SOLID
  8
ADD_LINE
  6
DOT
 62
    8
 10
123.08958423089493
 20
149.22562516713216
 11
123.33599647322907
 21
149.06396138429804
 12
129.23277622614495
 22
152.6042730540895
 13
129.23277622614495
 23
152.6042730540895
  0
SOLID
  8
ADD_LINE
  6
DOT
 62
    8
 10
123.08958423089493
 20
149.22562516713216
 11
129.23277622614495
 21
152.6042730540895
 12
122.87166478488233
 22
149.34669152602805
 13
122.87166478488233
 23
149.34669152602805
  0
LINE
  8
_1-1_
  6
CONTINUOUS
 62
    7
 10
121.66070570396464
 20
149.71436782898985
 11
113.38854666596464
 21
154.43221814845865
  0
ENDSEC
  0
EOF
