  0
SECTION
  2
HEADER
  9
$ACADVER
  1
AC1009
  9
$INSBASE
 10
0
 20
0
 30
0
  9
$EXTMIN
 10
0
 20
0
  9
$EXTMAX
 10
420
 20
297
  9
$LIMMIN
 10
0
 20
0
  9
$LIMMAX
 10
420
 20
297
  9
$LTSCALE
 40
1
  0
ENDSEC
  0
SECTION
  2
TABLES
  0
TABLE
  2
LTYPE
 70
     9
  0
LTYPE
  2
CONTINUOUS
 70
    64
  3
実線
 72
    65
 73
     0
 40
0.0
  0
LTYPE
  2
DASHED1
 70
    64
  3
--  --  --  --  --  --  --  --  
 72
    65
 73
     2
 40
2.5
 49
1.25
 49
-1.25
  0
LTYPE
  2
DASHED2
 70
    64
  3
----    ----    ----    ----    
 72
    65
 73
     2
 40
5.0
 49
2.5
 49
-2.5
  0
LTYPE
  2
DASHED3
 70
    64
  3
------  ------  ------  ------  
 72
    65
 73
     2
 40
5.0
 49
3.75
 49
-1.25
  0
LTYPE
  2
CENTER1
 70
    64
  3
----- - ----- - ----- - ----- - 
 72
    65
 73
     4
 40
10.0
 49
6.25
 49
-1.25
 49
1.25
 49
-1.25
  0
LTYPE
  2
CENTER2
 70
    64
  3
----------  --  ----------  --  
 72
    65
 73
     4
 40
20.0
 49
12.5
 49
-2.5
 49
2.5
 49
-2.5
  0
LTYPE
  2
PHANTOM1
 70
    64
  3
--- - - --- - - --- - - --- - - 
 72
    65
 73
     6
 40
10.0
 49
3.25
 49
-1.25
 49
1.25
 49
-1.25
 49
1.25
 49
-1.25
  0
LTYPE
  2
PHANTOM2
 70
    64
  3
--------  -  -  --------  -  -  
 72
    65
 73
     6
 40
20.0
 49
10.0
 49
-2.5
 49
1.25
 49
-2.5
 49
1.25
 49
-2.5
  0
LTYPE
  2
DOT
 70
    64
  3
-   -   -   -   -   -   -   -   
 72
    65
 73
     2
 40
2.5
 49
0.625
 49
-1.875
  0
LTYPE
  2
DUMMY
 70
    64
  3
ダミー
 72
    65
 73
     0
 40
0.0
  0
LTYPE
  2
RAND1
 70
    64
  3
ランダム線1
 72
    65
 73
     4
 40
10.0
 49
1.0
 49
-2.0
 49
3.0
 49
-4.0
  0
LTYPE
  2
RAND2
 70
    64
  3
ランダム線2
 72
    65
 73
     4
 40
14.0
 49
2.0
 49
-3.0
 49
4.0
 49
-5.0
  0
LTYPE
  2
RAND3
 70
    64
  3
ランダム線3
 72
    65
 73
     4
 40
18.0
 49
3.0
 49
-4.0
 49
5.0
 49
-6.0
  0
LTYPE
  2
RAND4
 70
    64
  3
ランダム線4
 72
    65
 73
     4
 40
22.0
 49
4.0
 49
-5.0
 49
6.0
 49
-7.0
  0
LTYPE
  2
RAND5
 70
    64
  3
ランダム線5
 72
    65
 73
     4
 40
26.0
 49
5.0
 49
-6.0
 49
7.0
 49
-8.0
  0
LTYPE
  2
LONG1
 70
    64
  3
----------  --  ----------  --  
 72
    65
 73
     4
 40
40.0
 49
32.5
 49
-2.5
 49
2.5
 49
-2.5
  0
LTYPE
  2
LONG2
 70
    64
  3
--------  -  -  --------  -  -  
 72
    65
 73
     6
 40
40.0
 49
30.0
 49
-2.5
 49
1.25
 49
-2.5
 49
1.25
 49
-2.5
  0
LTYPE
  2
LONG3
 70
    64
  3
+++++++++++++++..+++++++++++++++
 72
    65
 73
     2
 40
40.0
 49
37.5
 49
-2.5
  0
LTYPE
  2
LONG4
 70
    64
  3
+++++++++++++++..+++++++++++++++
 72
    65
 73
     2
 40
80.0
 49
75.0
 49
-5.0
  0
LTYPE
  2
LONG5
 70
    64
  3
----------  --  ----------  --  
 72
    65
 73
     4
 40
60.0
 49
37.5
 49
-7.5
 49
7.5
 49
-7.5
  0
LTYPE
  2
dashed
 70
   64
  3
-------   -------------   ------
 72
   65
 73
    2
 40
7.5
 49
6
 49
-1.5
  0
LTYPE
  2
dashed_spaced
 70
   64
  3
----        --------        ----
 72
   65
 73
    2
 40
12
 49
6
 49
-6
  0
LTYPE
  2
long_dashed_dotted
 70
   64
  3
------------- --- --------------
 72
   65
 73
    4
 40
15.25
 49
12
 49
-1.5
 49
0.25
 49
-1.5
  0
LTYPE
  2
long_dashed_double-dotted
 70
   64
  3
----------- --- --- ------------
 72
   65
 73
    6
 40
17
 49
12
 49
-1.5
 49
0.25
 49
-1.5
 49
0.25
 49
-1.5
  0
LTYPE
  2
long_dashed_triplicate-dotted
 70
   64
  3
--------- --- --- --- ----------
 72
   65
 73
    8
 40
18.75
 49
12
 49
-1.5
 49
0.25
 49
-1.5
 49
0.25
 49
-1.5
 49
0.25
 49
-1.5
  0
LTYPE
  2
dotted
 70
   64
  3
   -       -       -       -    
 72
   65
 73
    2
 40
1.75
 49
0.25
 49
-1.5
  0
LTYPE
  2
chain
 70
   64
  3
-------------- -- --------------
 72
   65
 73
    4
 40
18.5
 49
12
 49
-1.5
 49
3.5
 49
-1.5
  0
LTYPE
  2
chain_double_dash
 70
   64
  3
------------ -- -- -------------
 72
   65
 73
    6
 40
23.5
 49
12
 49
-1.5
 49
3.5
 49
-1.5
 49
3.5
 49
-1.5
  0
LTYPE
  2
dashed_dotted
 70
   64
  3
-----------     -     ----------
 72
   65
 73
    4
 40
9.25
 49
6
 49
-1.5
 49
0.25
 49
-1.5
  0
LTYPE
  2
double-dashed_dotted
 70
   64
  3
------   -----------   -   -----
 72
   65
 73
    6
 40
16.75
 49
6
 49
-1.5
 49
6
 49
-1.5
 49
0.25
 49
-1.5
  0
LTYPE
  2
dashed_double-dotted
 70
   64
  3
---------    -    -    ---------
 72
   65
 73
    6
 40
11
 49
6
 49
-1.5
 49
0.25
 49
-1.5
 49
0.25
 49
-1.5
  0
LTYPE
  2
double-dashed_double-dotted
 70
   64
  3
-----   ---------   -   -   ----
 72
   65
 73
    8
 40
18.5
 49
6
 49
-1.5
 49
6
 49
-1.5
 49
0.25
 49
-1.5
 49
0.25
 49
-1.5
  0
LTYPE
  2
dashed_triplicate-dotted
 70
   64
  3
-------    -    -    -    ------
 72
   65
 73
    8
 40
12.75
 49
6
 49
-1.5
 49
0.25
 49
-1.5
 49
0.25
 49
-1.5
 49
0.25
 49
-1.5
  0
LTYPE
  2
double-dashed_triplicate-dotted
 70
   64
  3
-----  ---------  -  -  -  -----
 72
   65
 73
   10
 40
20.25
 49
6
 49
-1.5
 49
6
 49
-1.5
 49
0.25
 49
-1.5
 49
0.25
 49
-1.5
 49
0.25
 49
-1.5
  0
LTYPE
  2
undefined
 70
   64
  3
--------------------------------
 72
   65
 73
    0
 40
0
  0
LTYPE
  2
DOT_17
 70
   64
  3
--             ---             -
 72
   65
 73
    2
 40
5
 49
1
 49
-4
  0
LTYPE
  2
DASHED
 70
   64
  3
---          ------          ---
 72
   65
 73
    2
 40
5
 49
2
 49
-3
  0
LTYPE
  2
DASHED2_19
 70
   64
  3
---          ------          ---
 72
   65
 73
    2
 40
10
 49
4
 49
-6
  0
LTYPE
  2
CENTER
 70
   64
  3
----------    ----    ----------
 72
   65
 73
    4
 40
9
 49
6
 49
-1
 49
1
 49
-1
  0
LTYPE
  2
CENTER2_21
 70
   64
  3
----------    ----    ----------
 72
   65
 73
    4
 40
18
 49
12
 49
-2
 49
2
 49
-2
  0
LTYPE
  2
PHANTOM
 70
   64
  3
---------   ---   ---   --------
 72
   65
 73
    6
 40
10
 49
5
 49
-1
 49
1
 49
-1
 49
1
 49
-1
  0
LTYPE
  2
PHANTOM2_23
 70
   64
  3
------    ----    ----    ------
 72
   65
 73
    6
 40
16
 49
6
 49
-2
 49
2
 49
-2
 49
2
 49
-2
  0
LTYPE
  2
HIDDEN
 70
   64
  3
--             ---             -
 72
   65
 73
    2
 40
2.5
 49
0.5
 49
-2
  0
ENDTAB
  0
TABLE
  2
STYLE
  5
3
100
AcDbSymbolTable
 70
     1
  0
STYLE
  5
10
100
AcDbSymbolTableRecord
100
AcDbTextStyleTableRecord
  2
STANDARD
 70
     0
 40
0.0
 41
1.0
 50
0.0
 71
     0
 42
0.2
  3
txt
  4
bigfont.shx
  0
STYLE
  5
26
100
AcDbSymbolTableRecord
100
AcDbTextStyleTableRecord
  2
TATEGAKI
 70
    68
 40
0.0
 41
1.0
 50
0.0
 71
     0
 42
1.0
  3
txt
  4
bigfont.shx
  0
ENDTAB
  0
TABLE
  2
LAYER
 70
    7
  0
LAYER
  2
_0-0_
 70
   64
 62
    7
  6
CONTINUOUS
  0
LAYER
  2
_1-0_
 70
   64
 62
    7
  6
CONTINUOUS
  0
LAYER
  2
_1-1_
 70
   64
 62
    7
  6
CONTINUOUS
  0
LAYER
  2
_1-2_
 70
   64
 62
    7
  6
CONTINUOUS
  0
LAYER
  2
_1-3_
 70
   64
 62
    7
  6
CONTINUOUS
  0
LAYER
  2
_1-4_
 70
   64
 62
    7
  6
CONTINUOUS
  0
LAYER
  2
ADD_LINE
 70
   64
 62
    7
  6
CONTINUOUS
  0
ENDTAB
  0
ENDSEC
  0
SECTION
  2
BLOCKS
  0
ENDSEC
  0
SECTION
  2
ENTITIES
  0
LINE
  8
_0-0_
  6
CONTINUOUS
 62
    5
 10
6.7567526327597136
 20
280.13513513513516
 11
406.75677325274495
 21
280.13513513513516
  0
LINE
  8
_0-0_
  6
CONTINUOUS
 62
    5
 10
406.75677325274495
 20
10.13513513513513
 11
6.7567526327597136
 21
10.13513513513513
  0
LINE
  8
_0-0_
  6
CONTINUOUS
 62
    5
 10
406.75677325274495
 20
30.135133073136615
 11
6.7567402607685949
 21
30.135133073136615
  0
LINE
  8
_0-0_
  6
CONTINUOUS
 62
    5
 10
371.75678150073907
 20
10.13513513513513
 11
371.75678150073907
 21
30.135133073136615
  0
LINE
  8
_0-0_
  6
CONTINUOUS
 62
    5
 10
137.02703939901818
 20
30.135133073136615
 11
137.02703939901818
 21
10.13513513513513
  0
LINE
  8
_0-0_
  6
CONTINUOUS
 62
    5
 10
214.86486486486487
 20
30.135133073136615
 11
214.86486486486487
 21
10.13513513513513
  0
LINE
  8
_0-0_
  6
CONTINUOUS
 62
    5
 10
137.02703939901818
 20
20.135134104135886
 11
214.86486486486487
 21
20.135134104135886
  0
LINE
  8
_0-0_
  6
CONTINUOUS
 62
    5
 10
396.48648648648651
 20
25.945945945945951
 11
383.91891891891896
 21
13.378379924877265
  0
LINE
  8
_1-1_
  6
CONTINUOUS
 62
    7
 10
126.31341470254435
 20
136.32645065720018
 11
66.486474114495365
 21
136.32645065720018
  0
LINE
  8
_1-1_
  6
CONTINUOUS
 62
    7
 10
268.30924369193411
 20
132.3484348606419
 11
268.30924369193411
 21
162.3484348606419
  0
LINE
  8
_1-1_
  6
CONTINUOUS
 62
    7
 10
268.30924369193411
 20
162.3484348606419
 11
271.30925358952703
 21
162.3484348606419
  0
LINE
  8
_1-1_
  6
CONTINUOUS
 62
    7
 10
271.30925358952703
 20
162.3484348606419
 11
271.30925358952703
 21
132.3484348606419
  0
LINE
  8
_1-1_
  6
CONTINUOUS
 62
    7
 10
268.30924369193411
 20
162.3484348606419
 11
271.30925358952703
 21
132.3484348606419
  0
LINE
  8
_1-1_
  6
CONTINUOUS
 62
    7
 10
126.31341470254435
 20
136.32645065720018
 11
242.83313648120779
 21
136.32645065720018
  0
LINE
  8
_1-1_
  6
CONTINUOUS
 62
    7
 10
66.486474114495365
 20
133.32645313159841
 11
242.83313648120779
 21
133.32645313159841
  0
LINE
  8
_1-1_
  6
CONTINUOUS
 62
    7
 10
242.83313648120779
 20
136.32645065720018
 11
242.83313648120779
 21
133.32645313159841
  0
LINE
  8
_1-1_
  6
CONTINUOUS
 62
    7
 10
235.47618144267315
 20
132.72644867768159
 11
235.47618144267315
 21
133.32644075960727
  0
LINE
  8
_1-1_
  6
CONTINUOUS
 62
    7
 10
235.47618144267315
 20
133.32644075960727
 11
240.2761675860431
 21
133.32644075960727
  0
LINE
  8
_1-1_
  6
CONTINUOUS
 62
    7
 10
240.2761675860431
 20
133.32644075960727
 11
240.2761675860431
 21
132.72644867768159
  0
LINE
  8
_1-1_
  6
CONTINUOUS
 62
    7
 10
240.2761675860431
 20
132.72644867768159
 11
235.47618144267315
 21
132.72644867768159
  0
LINE
  8
_1-1_
  6
CONTINUOUS
 62
    7
 10
235.47618144267315
 20
132.72644867768159
 11
240.2761675860431
 21
133.32644075960727
  0
LINE
  8
_1-1_
  6
CONTINUOUS
 62
    7
 10
66.486474114495365
 20
132.72644867768159
 11
240.2761675860431
 21
132.72644867768159
  0
LINE
  8
_1-1_
  6
CONTINUOUS
 62
    3
 10
243.88814565297722
 20
132.47366415487755
 11
243.88814565297722
 21
136.32645065720018
  0
LINE
  8
_1-1_
  6
CONTINUOUS
 62
    3
 10
243.88814565297722
 20
136.32645065720018
 11
247.99698288376268
 21
136.32645065720018
  0
LINE
  8
_1-1_
  6
CONTINUOUS
 62
    3
 10
267.80305604676943
 20
132.47366415487755
 11
267.80305604676943
 21
162.47366415487755
  0
LINE
  8
_1-0_
  6
CONTINUOUS
 62
    3
 10
242.81123805690459
 20
156.28124752560177
 11
242.81123805690459
 21
150.88124455632391
  0
LINE
  8
_1-2_
  6
CONTINUOUS
 62
    3
 10
263.31123145850933
 20
159.88124950512037
 11
263.31123145850933
 21
156.28124752560177
  0
LINE
  8
_1-0_
  6
CONTINUOUS
 62
    3
 10
245.0314660974451
 20
163.21938592034419
 11
245.0314660974451
 21
157.8193829510663
  0
LINE
  8
_1-2_
  6
CONTINUOUS
 62
    3
 10
265.53145949904984
 20
166.81938789986276
 11
265.53145949904984
 21
163.21938592034419
  0
LINE
  8
_1-1_
  6
CONTINUOUS
 62
    7
 10
272.27033460462417
 20
131.49927087732263
 11
66.486474114495365
 21
131.49927087732263
  0
LINE
  8
_1-1_
  6
CONTINUOUS
 62
    3
 10
243.88814565297722
 20
132.47366415487755
 11
267.80305604676943
 21
132.47366415487755
  0
LINE
  8
_1-1_
  6
DASHED1
 62
    3
 10
271.80579108160896
 20
131.99859206740922
 11
66.486474114495365
 21
131.99859206740922
  0
LINE
  8
_1-1_
  6
CONTINUOUS
 62
    7
 10
271.30925358952703
 20
132.3484348606419
 11
268.30924369193411
 21
132.3484348606419
  0
LINE
  8
_1-1_
  6
CONTINUOUS
 62
    7
 10
252.66617233688768
 20
165.98612192514781
 11
252.12566478832349
 21
168.93702738993878
  0
LINE
  8
_1-1_
  6
CONTINUOUS
 62
    7
 10
252.12566478832349
 20
168.93702738993878
 11
269.83109757706927
 21
172.18009742530617
  0
LINE
  8
_1-1_
  6
CONTINUOUS
 62
    7
 10
269.83109757706927
 20
172.18009742530617
 11
270.37160512563344
 21
169.22919196051521
  0
LINE
  8
_1-1_
  6
CONTINUOUS
 62
    7
 10
270.37160512563344
 20
169.22919196051521
 11
252.66617233688768
 21
165.98612192514781
  0
LINE
  8
_1-1_
  6
CONTINUOUS
 62
    7
 10
252.12566478832349
 20
168.93702738993878
 11
270.37160512563344
 21
169.22919196051521
  0
LINE
  8
_1-1_
  6
CONTINUOUS
 62
    3
 10
251.24178499788852
 20
169.1636204075169
 11
251.13221864442568
 21
165.54784413930534
  0
LINE
  8
_1-1_
  6
CONTINUOUS
 62
    7
 10
265.27033625422297
 20
172.77940904771961
 11
267.67032932590797
 21
172.77940904771961
  0
LINE
  8
_1-1_
  6
CONTINUOUS
 62
    7
 10
267.67032932590797
 20
174.34112548828125
 11
267.67032932590797
 21
182.34112713788008
  0
LINE
  8
_1-1_
  6
CONTINUOUS
 62
    7
 10
267.67032932590797
 20
182.34112713788008
 11
271.27033130542651
 21
182.34112713788008
  0
LINE
  8
_1-1_
  6
CONTINUOUS
 62
    7
 10
271.27033130542651
 20
182.34112713788008
 11
271.27033130542651
 21
174.34112548828125
  0
LINE
  8
_1-1_
  6
CONTINUOUS
 62
    7
 10
271.27033130542651
 20
174.34112548828125
 11
267.67032932590797
 21
174.34112548828125
  0
LINE
  8
_1-1_
  6
CONTINUOUS
 62
    7
 10
271.27033130542651
 20
182.34112713788008
 11
267.67032932590797
 21
174.34112548828125
  0
LINE
  8
_1-1_
  6
CONTINUOUS
 62
    3
 10
251.24178499788852
 20
169.1636204075169
 11
271.55330348659209
 21
172.88403897672086
  0
LINE
  8
_1-1_
  6
CONTINUOUS
 62
    3
 10
271.55330348659209
 20
172.88403897672086
 11
271.55330348659209
 21
184.88897787558068
  0
LINE
  8
_1-1_
  6
CONTINUOUS
 62
    7
 10
272.27033460462417
 20
199.29039620064401
 11
272.27033460462417
 21
214.86486486486487
  0
LINE
  8
_1-1_
  6
CONTINUOUS
 62
    7
 10
267.67032932590797
 20
172.77940904771961
 11
267.67032932590797
 21
214.86486486486487
  0
LINE
  8
_1-1_
  6
CONTINUOUS
 62
    7
 10
265.27033625422297
 20
172.77940904771961
 11
265.27033625422297
 21
214.86486486486487
  0
LINE
  8
_1-1_
  6
CONTINUOUS
 62
    7
 10
203.09510514542865
 20
132.72644867768159
 11
203.09510514542865
 21
133.32644075960727
  0
LINE
  8
_1-1_
  6
CONTINUOUS
 62
    7
 10
203.09510514542865
 20
133.32644075960727
 11
207.89507891680745
 21
133.32644075960727
  0
LINE
  8
_1-1_
  6
CONTINUOUS
 62
    7
 10
207.89507891680745
 20
133.32644075960727
 11
207.89507891680745
 21
132.72644867768159
  0
LINE
  8
_1-1_
  6
CONTINUOUS
 62
    7
 10
207.89507891680745
 20
132.72644867768159
 11
203.09510514542865
 21
132.72644867768159
  0
LINE
  8
_1-1_
  6
CONTINUOUS
 62
    7
 10
203.09510514542865
 20
132.72644867768159
 11
207.89507891680745
 21
133.32644075960727
  0
LINE
  8
_1-1_
  6
CONTINUOUS
 62
    7
 10
141.45506162901182
 20
132.72644867768159
 11
141.45506162901182
 21
133.32644075960727
  0
LINE
  8
_1-1_
  6
CONTINUOUS
 62
    7
 10
141.45506162901182
 20
133.32644075960727
 11
146.25504777238177
 21
133.32644075960727
  0
LINE
  8
_1-1_
  6
CONTINUOUS
 62
    7
 10
146.25504777238177
 20
133.32644075960727
 11
146.25504777238177
 21
132.72644867768159
  0
LINE
  8
_1-1_
  6
CONTINUOUS
 62
    7
 10
146.25504777238177
 20
132.72644867768159
 11
141.45506162901182
 21
132.72644867768159
  0
LINE
  8
_1-1_
  6
CONTINUOUS
 62
    7
 10
141.45506162901182
 20
132.72644867768159
 11
146.25504777238177
 21
133.32644075960727
  0
LINE
  8
_1-1_
  6
CONTINUOUS
 62
    7
 10
80.341879354940886
 20
132.72644867768159
 11
80.341879354940886
 21
133.32644075960727
  0
LINE
  8
_1-1_
  6
CONTINUOUS
 62
    7
 10
80.341879354940886
 20
133.32644075960727
 11
85.141865498310821
 21
133.32644075960727
  0
LINE
  8
_1-1_
  6
CONTINUOUS
 62
    7
 10
85.141865498310821
 20
133.32644075960727
 11
85.141865498310821
 21
132.72644867768159
  0
LINE
  8
_1-1_
  6
CONTINUOUS
 62
    7
 10
85.141865498310821
 20
132.72644867768159
 11
80.341879354940886
 21
132.72644867768159
  0
LINE
  8
_1-1_
  6
CONTINUOUS
 62
    7
 10
80.341879354940886
 20
132.72644867768159
 11
85.141865498310821
 21
133.32644075960727
  0
LINE
  8
_1-3_
  6
CONTINUOUS
 62
    7
 10
265.93233675570104
 20
200.51151172534841
 11
256.27097464896536
 21
227.0558785103463
  0
LINE
  8
_1-3_
  6
CONTINUOUS
 62
    7
 10
261.91455737964526
 20
169.64991389094172
 11
249.71980739284209
 21
203.15468865471919
  0
LINE
  8
_1-3_
  6
CONTINUOUS
 62
    7
 10
251.16003088048987
 20
167.13458911792654
 11
242.86255707611909
 21
189.93169011296453
  0
LINE
  8
_1-3_
  6
CONTINUOUS
 62
    7
 10
247.58531725084461
 20
161.62059062236065
 11
241.25847893792232
 21
179.00342374234586
  0
LINE
  8
_1-3_
  6
CONTINUOUS
 62
    7
 10
233.6168196394637
 20
165.87186658704604
 11
240.99065007390203
 21
145.61244655299831
  0
LINE
  8
_1-3_
  6
CONTINUOUS
 62
    7
 10
245.76331886085305
 20
154.33268366633234
 11
241.25847893792232
 21
179.00342374234586
  0
LINE
  8
_1-3_
  6
CONTINUOUS
 62
    7
 10
240.91253332189612
 20
145.82708822714318
 11
251.83658084353885
 21
147.65210538297086
  0
LINE
  8
_1-3_
  6
CONTINUOUS
 62
    7
 10
255.03286000844597
 20
133.70864868164062
 11
232.83733471019849
 21
72.726918813344597
  0
LINE
  8
_1-3_
  6
CONTINUOUS
 62
    7
 10
255.03286000844597
 20
133.70864868164062
 11
255.9741953256968
 21
132.41811391469597
  0
LINE
  8
_1-3_
  6
CONTINUOUS
 62
    7
 10
256.27097464896536
 20
227.0558785103463
 11
252.75077201224664
 21
227.0558785103463
  0
LINE
  8
_1-3_
  6
CONTINUOUS
 62
    7
 10
249.71980739284209
 20
203.15468865471919
 11
246.92272289379224
 21
203.15468865471919
  0
LINE
  8
_1-3_
  6
CONTINUOUS
 62
    7
 10
242.86255707611909
 20
189.93169011296453
 11
240.87883201805323
 21
189.93169011296453
  0
LINE
  8
_1-3_
  6
CONTINUOUS
 62
    7
 10
241.25847893792232
 20
179.00342374234586
 11
238.9361572265625
 21
179.00342374234586
  0
LINE
  8
_1-3_
  6
CONTINUOUS
 62
    7
 10
233.6168196394637
 20
165.87186658704604
 11
230.08617504222974
 21
165.87186658704604
  0
LINE
  8
_1-3_
  6
CONTINUOUS
 62
    7
 10
232.83733471019849
 20
72.726918813344597
 11
223.7837837837838
 21
72.726918813344597
  0
LINE
  8
_1-3_
  6
CONTINUOUS
 62
    7
 10
113.60742929819469
 20
176.82719050226987
 11
126.5013328758446
 21
176.82719050226987
  0
LINE
  8
_1-3_
  6
CONTINUOUS
 62
    7
 10
113.60742929819469
 20
182.51539900496201
 11
124.43100387985642
 21
182.51539900496201
  0
LINE
  8
_1-3_
  6
CONTINUOUS
 62
    7
 10
113.60742929819469
 20
187.95627903293919
 11
122.45068111935178
 21
187.95627903293919
  0
LINE
  8
_1-3_
  6
CONTINUOUS
 62
    7
 10
113.60742929819469
 20
193.89179126636404
 11
120.29033351588895
 21
193.89179126636404
  0
LINE
  8
_1-3_
  6
CONTINUOUS
 62
    7
 10
117.64015403953759
 20
201.17309157912797
 11
113.60742929819469
 21
201.17309157912797
  0
LINE
  8
_1-3_
  6
CONTINUOUS
 62
    3
 10
271.55330348659209
 20
184.88897787558068
 11
271.55330348659209
 21
202.88897540118245
  0
LINE
  8
_1-1_
  6
CONTINUOUS
 62
    7
 10
272.27033460462417
 20
127.89926889780406
 11
66.486474114495365
 21
127.89926889780406
  0
LINE
  8
_1-1_
  6
CONTINUOUS
 62
    4
 10
66.486474114495365
 20
128.10928344726562
 11
66.696482477961354
 21
127.89926889780406
  0
LINE
  8
_1-1_
  6
CONTINUOUS
 62
    4
 10
66.486474114495365
 20
130.37200927734375
 11
68.959208308039479
 21
127.89926889780406
  0
LINE
  8
_1-1_
  6
CONTINUOUS
 62
    4
 10
67.621925972603464
 20
131.49927087732263
 11
71.221940324113177
 21
127.89926889780406
  0
LINE
  8
_1-1_
  6
CONTINUOUS
 62
    4
 10
69.884676546663854
 20
131.49927087732263
 11
73.484678526182449
 21
127.89926889780406
  0
LINE
  8
_1-1_
  6
CONTINUOUS
 62
    4
 10
72.147414748733127
 20
131.49927087732263
 11
75.747416728251693
 21
127.89926889780406
  0
LINE
  8
_1-1_
  6
CONTINUOUS
 62
    4
 10
74.41015295080237
 20
131.49927087732263
 11
78.010154930320937
 21
127.89926889780406
  0
LINE
  8
_1-1_
  6
CONTINUOUS
 62
    4
 10
76.672891152871614
 20
131.49927087732263
 11
80.272893132390209
 21
127.89926889780406
  0
LINE
  8
_1-1_
  6
CONTINUOUS
 62
    4
 10
78.935629354940886
 20
131.49927087732263
 11
82.535625148463893
 21
127.89926889780406
  0
LINE
  8
_1-1_
  6
CONTINUOUS
 62
    4
 10
81.198367557010158
 20
131.49927087732263
 11
84.798363350533151
 21
127.89926889780406
  0
LINE
  8
_1-1_
  6
CONTINUOUS
 62
    4
 10
83.461105759079402
 20
131.49927087732263
 11
87.061089180611276
 21
127.89926889780406
  0
LINE
  8
_1-1_
  6
CONTINUOUS
 62
    4
 10
85.723819217166394
 20
131.49927087732263
 11
89.323827382680534
 21
127.89926889780406
  0
LINE
  8
_1-1_
  6
CONTINUOUS
 62
    4
 10
87.986569791226785
 20
131.49927087732263
 11
91.586559398754233
 21
127.89926889780406
  0
LINE
  8
_1-1_
  6
CONTINUOUS
 62
    4
 10
90.24929562130491
 20
131.49927087732263
 11
93.84929760082349
 21
127.89926889780406
  0
LINE
  8
_1-1_
  6
CONTINUOUS
 62
    4
 10
92.512021451383035
 20
131.49927087732263
 11
96.112035802892748
 21
127.89926889780406
  0
LINE
  8
_1-1_
  6
CONTINUOUS
 62
    4
 10
94.774772025443411
 20
131.49927087732263
 11
98.374774004961992
 21
127.89926889780406
  0
LINE
  8
_1-1_
  6
CONTINUOUS
 62
    4
 10
97.037497855521536
 20
131.49927087732263
 11
100.63751220703125
 21
127.89926889780406
  0
LINE
  8
_1-1_
  6
CONTINUOUS
 62
    4
 10
99.300236057590794
 20
131.49927087732263
 11
102.90024422310495
 21
127.89926889780406
  0
LINE
  8
_1-1_
  6
CONTINUOUS
 62
    4
 10
101.56296188766892
 20
131.49927087732263
 11
105.1629638671875
 21
127.89926889780406
  0
LINE
  8
_1-1_
  6
CONTINUOUS
 62
    4
 10
103.82570008973818
 20
131.49927087732263
 11
107.42570206925676
 21
127.89926889780406
  0
LINE
  8
_1-1_
  6
CONTINUOUS
 62
    4
 10
106.0884259198163
 20
131.49927087732263
 11
109.68844027132602
 21
127.89926889780406
  0
LINE
  8
_1-1_
  6
CONTINUOUS
 62
    4
 10
108.35116412188556
 20
131.49927087732263
 11
111.95117847339527
 21
127.89926889780406
  0
LINE
  8
_1-1_
  6
CONTINUOUS
 62
    4
 10
110.61390232395482
 20
131.49927087732263
 11
114.21391667546453
 21
127.89926889780406
  0
LINE
  8
_1-1_
  6
CONTINUOUS
 62
    4
 10
112.87665289801521
 20
131.49927087732263
 11
116.47665487753379
 21
127.89926889780406
  0
LINE
  8
_1-1_
  6
CONTINUOUS
 62
    4
 10
115.13939110008447
 20
131.49927087732263
 11
118.73939307960305
 21
127.89926889780406
  0
LINE
  8
_1-1_
  6
CONTINUOUS
 62
    4
 10
117.40210455817146
 20
131.49927087732263
 11
121.00213128167231
 21
127.89926889780406
  0
LINE
  8
_1-1_
  6
CONTINUOUS
 62
    4
 10
119.66485513223185
 20
131.49927087732263
 11
123.26485711175043
 21
127.89926889780406
  0
LINE
  8
_1-1_
  6
CONTINUOUS
 62
    4
 10
121.92759333430111
 20
131.49927087732263
 11
125.52758294182856
 21
127.89926889780406
  0
LINE
  8
_1-1_
  6
CONTINUOUS
 62
    4
 10
124.19031916437923
 20
131.49927087732263
 11
127.79032114389781
 21
127.89926889780406
  0
LINE
  8
_1-1_
  6
CONTINUOUS
 62
    4
 10
126.45305736644849
 20
131.49927087732263
 11
130.05305934596706
 21
127.89926889780406
  0
LINE
  8
_1-1_
  6
CONTINUOUS
 62
    4
 10
128.71579556851773
 20
131.49927087732263
 11
132.31578517604518
 21
127.89926889780406
  0
LINE
  8
_1-1_
  6
CONTINUOUS
 62
    4
 10
130.97853377058701
 20
131.49927087732263
 11
134.57853575010557
 21
127.89926889780406
  0
LINE
  8
_1-1_
  6
CONTINUOUS
 62
    4
 10
133.24125960066513
 20
131.49927087732263
 11
136.84127395217484
 21
127.89926889780406
  0
LINE
  8
_1-1_
  6
CONTINUOUS
 62
    4
 10
135.50399780273438
 20
131.49927087732263
 11
139.10401215424409
 21
127.89926889780406
  0
LINE
  8
_1-1_
  6
CONTINUOUS
 62
    4
 10
137.7667236328125
 20
131.49927087732263
 11
141.36672561233109
 21
127.89926889780406
  0
LINE
  8
_1-1_
  6
CONTINUOUS
 62
    4
 10
140.02944946289062
 20
131.49927087732263
 11
143.62946381440034
 21
127.89926889780406
  0
LINE
  8
_1-1_
  6
CONTINUOUS
 62
    4
 10
142.29220003695102
 20
131.49927087732263
 11
145.89220201646961
 21
127.89926889780406
  0
LINE
  8
_1-1_
  6
CONTINUOUS
 62
    4
 10
144.55493823902029
 20
131.49927087732263
 11
148.15494021853885
 21
127.89926889780406
  0
LINE
  8
_1-1_
  6
CONTINUOUS
 62
    4
 10
146.81767644108953
 20
131.49927087732263
 11
150.41767842060813
 21
127.89926889780406
  0
LINE
  8
_1-1_
  6
CONTINUOUS
 62
    4
 10
149.08040227116766
 20
131.49927087732263
 11
152.68041662267737
 21
127.89926889780406
  0
LINE
  8
_1-1_
  6
CONTINUOUS
 62
    4
 10
151.34315284522805
 20
131.49927087732263
 11
154.94315482474664
 21
127.89926889780406
  0
LINE
  8
_1-1_
  6
CONTINUOUS
 62
    4
 10
153.60589104729732
 20
131.49927087732263
 11
157.20589302681589
 21
127.89926889780406
  0
LINE
  8
_1-1_
  6
CONTINUOUS
 62
    4
 10
155.8686045053843
 20
131.49927087732263
 11
159.46861885689401
 21
127.89926889780406
  0
LINE
  8
_1-1_
  6
CONTINUOUS
 62
    4
 10
158.13134270745357
 20
131.49927087732263
 11
161.73134468697214
 21
127.89926889780406
  0
LINE
  8
_1-1_
  6
CONTINUOUS
 62
    4
 10
160.39408090952281
 20
131.49927087732263
 11
163.99408288904141
 21
127.89926889780406
  0
LINE
  8
_1-1_
  6
CONTINUOUS
 62
    4
 10
162.65681911159206
 20
131.49927087732263
 11
166.25683346310177
 21
127.89926889780406
  0
LINE
  8
_1-1_
  6
CONTINUOUS
 62
    4
 10
164.91954494167018
 20
131.49927087732263
 11
168.5195592931799
 21
127.89926889780406
  0
LINE
  8
_1-1_
  6
CONTINUOUS
 62
    4
 10
167.18228314373945
 20
131.49927087732263
 11
170.78229749524917
 21
127.89926889780406
  0
LINE
  8
_1-1_
  6
CONTINUOUS
 62
    4
 10
169.44503371779984
 20
131.49927087732263
 11
173.04503569731841
 21
127.89926889780406
  0
LINE
  8
_1-1_
  6
CONTINUOUS
 62
    4
 10
171.70775954787797
 20
131.49927087732263
 11
175.30777389938768
 21
127.89926889780406
  0
LINE
  8
_1-1_
  6
CONTINUOUS
 62
    4
 10
173.97048537795609
 20
131.49927087732263
 11
177.57049972946581
 21
127.89926889780406
  0
LINE
  8
_1-1_
  6
CONTINUOUS
 62
    4
 10
176.23322358002534
 20
131.49927087732263
 11
179.83322555954393
 21
127.89926889780406
  0
LINE
  8
_1-1_
  6
CONTINUOUS
 62
    4
 10
178.49596178209461
 20
131.49927087732263
 11
182.09597613360432
 21
127.89926889780406
  0
LINE
  8
_1-1_
  6
CONTINUOUS
 62
    4
 10
180.75869998416385
 20
131.49927087732263
 11
184.35870196368245
 21
127.89926889780406
  0
LINE
  8
_1-1_
  6
CONTINUOUS
 62
    4
 10
183.02143818623313
 20
131.49927087732263
 11
186.62144016575169
 21
127.89926889780406
  0
LINE
  8
_1-1_
  6
CONTINUOUS
 62
    4
 10
185.28417638830237
 20
131.49927087732263
 11
188.88419073981208
 21
127.89926889780406
  0
LINE
  8
_1-1_
  6
CONTINUOUS
 62
    4
 10
187.54691459037164
 20
131.49927087732263
 11
191.14691656989021
 21
127.89926889780406
  0
LINE
  8
_1-1_
  6
CONTINUOUS
 62
    4
 10
189.80965279244089
 20
131.49927087732263
 11
193.40965477195948
 21
127.89926889780406
  0
LINE
  8
_1-1_
  6
CONTINUOUS
 62
    4
 10
192.07236625052789
 20
131.49927087732263
 11
195.67238060203761
 21
127.89926889780406
  0
LINE
  8
_1-1_
  6
CONTINUOUS
 62
    4
 10
194.33510445259714
 20
131.49927087732263
 11
197.93511880410685
 21
127.89926889780406
  0
LINE
  8
_1-1_
  6
CONTINUOUS
 62
    4
 10
196.59785502665753
 20
131.49927087732263
 11
200.19784463418497
 21
127.89926889780406
  0
LINE
  8
_1-1_
  6
CONTINUOUS
 62
    4
 10
198.86058085673565
 20
131.49927087732263
 11
202.46059520824537
 21
127.89926889780406
  0
LINE
  8
_1-1_
  6
CONTINUOUS
 62
    4
 10
201.12331905880492
 20
131.49927087732263
 11
204.72332103832349
 21
127.89926889780406
  0
LINE
  8
_1-1_
  6
CONTINUOUS
 62
    4
 10
203.38604488888305
 20
131.49927087732263
 11
206.9860344964105
 21
127.89926889780406
  0
LINE
  8
_1-1_
  6
CONTINUOUS
 62
    4
 10
205.64879546294341
 20
131.49927087732263
 11
209.24877269847974
 21
127.89926889780406
  0
LINE
  8
_1-1_
  6
CONTINUOUS
 62
    4
 10
207.91150892103042
 20
131.49927087732263
 11
211.51151090054898
 21
127.89926889780406
  0
LINE
  8
_1-1_
  6
CONTINUOUS
 62
    4
 10
210.17424712309966
 20
131.49927087732263
 11
213.77424910261826
 21
127.89926889780406
  0
LINE
  8
_1-1_
  6
CONTINUOUS
 62
    4
 10
212.43698532516893
 20
131.49927087732263
 11
216.0369873046875
 21
127.89926889780406
  0
LINE
  8
_1-1_
  6
CONTINUOUS
 62
    4
 10
214.69972352723818
 20
131.49927087732263
 11
218.29972550675677
 21
127.89926889780406
  0
LINE
  8
_1-1_
  6
CONTINUOUS
 62
    4
 10
216.96246172930745
 20
131.49927087732263
 11
220.56246370882602
 21
127.89926889780406
  0
LINE
  8
_1-1_
  6
CONTINUOUS
 62
    4
 10
219.22519993137669
 20
131.49927087732263
 11
222.82520191089529
 21
127.89926889780406
  0
LINE
  8
_1-1_
  6
CONTINUOUS
 62
    4
 10
221.48793813344597
 20
131.49927087732263
 11
225.08794011296453
 21
127.89926889780406
  0
LINE
  8
_1-1_
  6
CONTINUOUS
 62
    4
 10
223.75067633551521
 20
131.49927087732263
 11
227.3506783150338
 21
127.89926889780406
  0
LINE
  8
_1-1_
  6
CONTINUOUS
 62
    4
 10
226.01341453758448
 20
131.49927087732263
 11
229.61341651710305
 21
127.89926889780406
  0
LINE
  8
_1-1_
  6
CONTINUOUS
 62
    4
 10
228.27615273965372
 20
131.49927087732263
 11
231.87615471917232
 21
127.89926889780406
  0
LINE
  8
_1-1_
  6
CONTINUOUS
 62
    4
 10
230.538890941723
 20
131.49927087732263
 11
234.13889292124156
 21
127.89926889780406
  0
LINE
  8
_1-1_
  6
CONTINUOUS
 62
    4
 10
232.80160439980997
 20
131.49927087732263
 11
236.40163112331084
 21
127.89926889780406
  0
LINE
  8
_1-1_
  6
CONTINUOUS
 62
    4
 10
235.06436734586151
 20
131.49927087732263
 11
238.66436932538008
 21
127.89926889780406
  0
LINE
  8
_1-1_
  6
CONTINUOUS
 62
    4
 10
237.32708080394849
 20
131.49927087732263
 11
240.92705803948482
 21
127.89926889780406
  0
LINE
  8
_1-1_
  6
CONTINUOUS
 62
    4
 10
239.5897942620355
 20
131.49927087732263
 11
243.18979624155406
 21
127.89926889780406
  0
LINE
  8
_1-1_
  6
CONTINUOUS
 62
    4
 10
241.85253246410474
 20
131.49927087732263
 11
245.45253444362334
 21
127.89926889780406
  0
LINE
  8
_1-1_
  6
CONTINUOUS
 62
    4
 10
244.11529541015625
 20
131.49927087732263
 11
247.71527264569258
 21
127.89926889780406
  0
LINE
  8
_1-1_
  6
CONTINUOUS
 62
    4
 10
246.37800886824326
 20
131.49927087732263
 11
249.97801084776185
 21
127.89926889780406
  0
LINE
  8
_1-1_
  6
CONTINUOUS
 62
    4
 10
248.6407470703125
 20
131.49927087732263
 11
252.24074904983109
 21
127.89926889780406
  0
LINE
  8
_1-1_
  6
CONTINUOUS
 62
    4
 10
250.90348527238177
 20
131.49927087732263
 11
254.50348725190034
 21
127.89926889780406
  0
LINE
  8
_1-1_
  6
CONTINUOUS
 62
    4
 10
253.16622347445102
 20
131.49927087732263
 11
256.76622545396958
 21
127.89926889780406
  0
LINE
  8
_1-1_
  6
CONTINUOUS
 62
    4
 10
255.42896167652029
 20
131.49927087732263
 11
259.02896365603885
 21
127.89926889780406
  0
LINE
  8
_1-1_
  6
CONTINUOUS
 62
    4
 10
257.69169987858953
 20
131.49927087732263
 11
261.29170185810813
 21
127.89926889780406
  0
LINE
  8
_1-1_
  6
CONTINUOUS
 62
    4
 10
259.9544380806588
 20
131.49927087732263
 11
263.5544400601774
 21
127.89926889780406
  0
LINE
  8
_1-1_
  6
CONTINUOUS
 62
    4
 10
262.21717628272808
 20
131.49927087732263
 11
265.81717826224661
 21
127.89926889780406
  0
LINE
  8
_1-1_
  6
CONTINUOUS
 62
    4
 10
264.47988974081505
 20
131.49927087732263
 11
268.07991646431589
 21
127.89926889780406
  0
LINE
  8
_1-1_
  6
CONTINUOUS
 62
    4
 10
266.74262794288433
 20
131.49927087732263
 11
270.34265466638516
 21
127.89926889780406
  0
LINE
  8
_1-1_
  6
CONTINUOUS
 62
    4
 10
269.00539088893584
 20
131.49927087732263
 11
272.27033460462417
 21
128.23431478964318
  0
LINE
  8
_1-1_
  6
CONTINUOUS
 62
    4
 10
271.26810434702281
 20
131.49927087732263
 11
272.27033460462417
 21
130.49705299171242
  0
LINE
  8
_1-1_
  6
CONTINUOUS
 62
    4
 10
270.4519983240076
 20
127.89926889780406
 11
272.27033460462417
 21
129.71760517842063
  0
LINE
  8
_1-1_
  6
CONTINUOUS
 62
    4
 10
268.18923537795609
 20
127.89926889780406
 11
271.78926210145693
 21
131.49927087732263
  0
LINE
  8
_1-1_
  6
CONTINUOUS
 62
    4
 10
265.92649717588682
 20
127.89926889780406
 11
269.52649915540542
 21
131.49927087732263
  0
LINE
  8
_1-1_
  6
CONTINUOUS
 62
    4
 10
263.66378371779984
 20
127.89926889780406
 11
267.26376095333615
 21
131.49927087732263
  0
LINE
  8
_1-1_
  6
CONTINUOUS
 62
    4
 10
261.40102077174834
 20
127.89926889780406
 11
265.00102275126693
 21
131.49927087732263
  0
LINE
  8
_1-1_
  6
CONTINUOUS
 62
    4
 10
259.13828256967906
 20
127.89926889780406
 11
262.73828454919766
 21
131.49927087732263
  0
LINE
  8
_1-1_
  6
CONTINUOUS
 62
    4
 10
256.87554436760979
 20
127.89926889780406
 11
260.47554634712839
 21
131.49927087732263
  0
LINE
  8
_1-1_
  6
CONTINUOUS
 62
    4
 10
254.61280616554055
 20
127.89926889780406
 11
258.21280814505911
 21
131.49927087732263
  0
LINE
  8
_1-1_
  6
CONTINUOUS
 62
    4
 10
252.3500679634713
 20
127.89926889780406
 11
255.9500451990076
 21
131.49927087732263
  0
LINE
  8
_1-1_
  6
CONTINUOUS
 62
    4
 10
250.08732976140203
 20
127.89926889780406
 11
253.68730699693836
 21
131.49927087732263
  0
LINE
  8
_1-1_
  6
CONTINUOUS
 62
    4
 10
247.82456681535052
 20
127.89926889780406
 11
251.42454405088685
 21
131.49927087732263
  0
LINE
  8
_1-1_
  6
CONTINUOUS
 62
    4
 10
245.56180386929901
 20
127.89926889780406
 11
249.16183059279984
 21
131.49927087732263
  0
LINE
  8
_1-1_
  6
CONTINUOUS
 62
    4
 10
243.29909041121201
 20
127.89926889780406
 11
246.89906764674834
 21
131.49927087732263
  0
LINE
  8
_1-1_
  6
CONTINUOUS
 62
    4
 10
241.03635220914276
 20
127.89926889780406
 11
244.63632944467906
 21
131.49927087732263
  0
LINE
  8
_1-1_
  6
CONTINUOUS
 62
    4
 10
238.77358926309122
 20
127.89926889780406
 11
242.37359124260982
 21
131.49927087732263
  0
LINE
  8
_1-1_
  6
CONTINUOUS
 62
    4
 10
236.51085106102198
 20
127.89926889780406
 11
240.11085304054055
 21
131.49927087732263
  0
LINE
  8
_1-1_
  6
CONTINUOUS
 62
    4
 10
234.24811285895271
 20
127.89926889780406
 11
237.8481148384713
 21
131.49927087732263
  0
LINE
  8
_1-1_
  6
CONTINUOUS
 62
    4
 10
231.98537465688347
 20
127.89926889780406
 11
235.58535189241977
 21
131.49927087732263
  0
LINE
  8
_1-1_
  6
CONTINUOUS
 62
    4
 10
229.72261171083193
 20
127.89926889780406
 11
233.32261369035052
 21
131.49927087732263
  0
LINE
  8
_1-1_
  6
CONTINUOUS
 62
    4
 10
227.45984876478042
 20
127.89926889780406
 11
231.05987548828125
 21
131.49927087732263
  0
LINE
  8
_1-1_
  6
CONTINUOUS
 62
    4
 10
225.19713530669341
 20
127.89926889780406
 11
228.79711254222974
 21
131.49927087732263
  0
LINE
  8
_1-1_
  6
CONTINUOUS
 62
    4
 10
222.93439710462417
 20
127.89926889780406
 11
226.5343743401605
 21
131.49927087732263
  0
LINE
  8
_1-1_
  6
CONTINUOUS
 62
    4
 10
220.67163415857266
 20
127.89926889780406
 11
224.27163613809122
 21
131.49927087732263
  0
LINE
  8
_1-1_
  6
CONTINUOUS
 62
    4
 10
218.40889595650339
 20
127.89926889780406
 11
222.00889793602198
 21
131.49927087732263
  0
LINE
  8
_1-1_
  6
CONTINUOUS
 62
    4
 10
216.14615775443414
 20
127.89926889780406
 11
219.74615973395271
 21
131.49927087732263
  0
LINE
  8
_1-1_
  6
CONTINUOUS
 62
    4
 10
213.88341955236487
 20
127.89926889780406
 11
217.48342153188347
 21
131.49927087732263
  0
LINE
  8
_1-1_
  6
CONTINUOUS
 62
    4
 10
211.62065660631336
 20
127.89926889780406
 11
215.22065858583193
 21
131.49927087732263
  0
LINE
  8
_1-1_
  6
CONTINUOUS
 62
    4
 10
209.35791840424409
 20
127.89926889780406
 11
212.95789563978042
 21
131.49927087732263
  0
LINE
  8
_1-1_
  6
CONTINUOUS
 62
    4
 10
207.0951678301837
 20
127.89926889780406
 11
210.69518218169341
 21
131.49927087732263
  0
LINE
  8
_1-1_
  6
CONTINUOUS
 62
    4
 10
204.83242962811445
 20
127.89926889780406
 11
208.4324192356419
 21
131.49927087732263
  0
LINE
  8
_1-1_
  6
CONTINUOUS
 62
    4
 10
202.56969142604521
 20
127.89926889780406
 11
206.16968103357266
 21
131.49927087732263
  0
LINE
  8
_1-1_
  6
CONTINUOUS
 62
    4
 10
200.30695322397594
 20
127.89926889780406
 11
203.90694283150339
 21
131.49927087732263
  0
LINE
  8
_1-1_
  6
CONTINUOUS
 62
    4
 10
198.04420264991555
 20
127.89926889780406
 11
201.64420462943414
 21
131.49927087732263
  0
LINE
  8
_1-1_
  6
CONTINUOUS
 62
    4
 10
195.7814644478463
 20
127.89926889780406
 11
199.38146642736487
 21
131.49927087732263
  0
LINE
  8
_1-1_
  6
CONTINUOUS
 62
    4
 10
193.51873861776818
 20
127.89926889780406
 11
197.11872822529563
 21
131.49927087732263
  0
LINE
  8
_1-1_
  6
CONTINUOUS
 62
    4
 10
191.25598804370779
 20
127.89926889780406
 11
194.85599002322635
 21
131.49927087732263
  0
LINE
  8
_1-1_
  6
CONTINUOUS
 62
    4
 10
188.99326221362966
 20
127.89926889780406
 11
192.59325182115711
 21
131.49927087732263
  0
LINE
  8
_1-1_
  6
CONTINUOUS
 62
    4
 10
186.73052401156039
 20
127.89926889780406
 11
190.33051361908784
 21
131.49927087732263
  0
LINE
  8
_1-1_
  6
CONTINUOUS
 62
    4
 10
184.4677734375
 20
127.89926889780406
 11
188.06776304502745
 21
131.49927087732263
  0
LINE
  8
_1-1_
  6
CONTINUOUS
 62
    4
 10
182.20502286343961
 20
127.89926889780406
 11
185.80503721494932
 21
131.49927087732263
  0
LINE
  8
_1-1_
  6
CONTINUOUS
 62
    4
 10
179.94229703336148
 20
127.89926889780406
 11
183.54228664088893
 21
131.49927087732263
  0
LINE
  8
_1-1_
  6
CONTINUOUS
 62
    4
 10
177.67955883129224
 20
127.89926889780406
 11
181.27954843881969
 21
131.49927087732263
  0
LINE
  8
_1-1_
  6
CONTINUOUS
 62
    4
 10
175.41680825723185
 20
127.89926889780406
 11
179.01682260874156
 21
131.49927087732263
  0
LINE
  8
_1-1_
  6
CONTINUOUS
 62
    4
 10
173.15408242715372
 20
127.89926889780406
 11
176.75407203468117
 21
131.49927087732263
  0
LINE
  8
_1-1_
  6
CONTINUOUS
 62
    4
 10
170.89134422508448
 20
127.89926889780406
 11
174.49134620460305
 21
131.49927087732263
  0
LINE
  8
_1-1_
  6
CONTINUOUS
 62
    4
 10
168.62860602301521
 20
127.89926889780406
 11
172.2286080025338
 21
131.49927087732263
  0
LINE
  8
_1-1_
  6
CONTINUOUS
 62
    4
 10
166.36586782094597
 20
127.89926889780406
 11
169.96585742847341
 21
131.49927087732263
  0
LINE
  8
_1-1_
  6
CONTINUOUS
 62
    4
 10
164.10310487489443
 20
127.89926889780406
 11
167.70309448242187
 21
131.49927087732263
  0
LINE
  8
_1-1_
  6
CONTINUOUS
 62
    4
 10
161.84036667282518
 20
127.89926889780406
 11
165.44036865234375
 21
131.49927087732263
  0
LINE
  8
_1-1_
  6
CONTINUOUS
 62
    4
 10
159.57762847075591
 20
127.89926889780406
 11
163.17763045027451
 21
131.49927087732263
  0
LINE
  8
_1-1_
  6
CONTINUOUS
 62
    4
 10
157.31489026868667
 20
127.89926889780406
 11
160.91486750422297
 21
131.49927087732263
  0
LINE
  8
_1-1_
  6
CONTINUOUS
 62
    4
 10
155.0521520666174
 20
127.89926889780406
 11
158.65214167414484
 21
131.49927087732263
  0
LINE
  8
_1-1_
  6
CONTINUOUS
 62
    4
 10
152.789401492557
 20
127.89926889780406
 11
156.3894034720756
 21
131.49927087732263
  0
LINE
  8
_1-1_
  6
CONTINUOUS
 62
    4
 10
150.52666329048776
 20
127.89926889780406
 11
154.12667764199747
 21
131.49927087732263
  0
LINE
  8
_1-1_
  6
CONTINUOUS
 62
    4
 10
148.26391271642737
 20
127.89926889780406
 11
151.86391469594597
 21
131.49927087732263
  0
LINE
  8
_1-1_
  6
CONTINUOUS
 62
    4
 10
146.00117451435813
 20
127.89926889780406
 11
149.60118886586784
 21
131.49927087732263
  0
LINE
  8
_1-1_
  6
CONTINUOUS
 62
    4
 10
143.73843631228885
 20
127.89926889780406
 11
147.33845066379857
 21
131.49927087732263
  0
LINE
  8
_1-1_
  6
CONTINUOUS
 62
    4
 10
141.47569811021961
 20
127.89926889780406
 11
145.07568771774706
 21
131.49927087732263
  0
LINE
  8
_1-1_
  6
CONTINUOUS
 62
    4
 10
139.21295990815034
 20
127.89926889780406
 11
142.81294951567779
 21
131.49927087732263
  0
LINE
  8
_1-1_
  6
CONTINUOUS
 62
    4
 10
136.95022170608109
 20
127.89926889780406
 11
140.55022368559966
 21
131.49927087732263
  0
LINE
  8
_1-1_
  6
CONTINUOUS
 62
    4
 10
134.68748350401182
 20
127.89926889780406
 11
138.28747311153927
 21
131.49927087732263
  0
LINE
  8
_1-1_
  6
CONTINUOUS
 62
    4
 10
132.42472055796031
 20
127.89926889780406
 11
136.02471016548776
 21
131.49927087732263
  0
LINE
  8
_1-1_
  6
CONTINUOUS
 62
    4
 10
130.16198235589104
 20
127.89926889780406
 11
133.76198433540964
 21
131.49927087732263
  0
LINE
  8
_1-1_
  6
CONTINUOUS
 62
    4
 10
127.8992441538218
 20
127.89926889780406
 11
131.49923376134925
 21
131.49927087732263
  0
LINE
  8
_1-1_
  6
CONTINUOUS
 62
    4
 10
125.63650595175254
 20
127.89926889780406
 11
129.23650793127112
 21
131.49927087732263
  0
LINE
  8
_1-1_
  6
CONTINUOUS
 62
    4
 10
123.37376774968328
 20
127.89926889780406
 11
126.97375735721073
 21
131.49927087732263
  0
LINE
  8
_1-1_
  6
CONTINUOUS
 62
    4
 10
121.11101717562289
 20
127.89926889780406
 11
124.7110315271326
 21
131.49927087732263
  0
LINE
  8
_1-1_
  6
CONTINUOUS
 62
    4
 10
118.8482666015625
 20
127.89926889780406
 11
122.44828095307221
 21
131.49927087732263
  0
LINE
  8
_1-1_
  6
CONTINUOUS
 62
    4
 10
116.58554077148437
 20
127.89926889780406
 11
120.18553037901184
 21
131.49927087732263
  0
LINE
  8
_1-1_
  6
CONTINUOUS
 62
    4
 10
114.322790197424
 20
127.89926889780406
 11
117.92279217694258
 21
131.49927087732263
  0
LINE
  8
_1-1_
  6
CONTINUOUS
 62
    4
 10
112.06005199535474
 20
127.89926889780406
 11
115.66005397487332
 21
131.49927087732263
  0
LINE
  8
_1-1_
  6
CONTINUOUS
 62
    4
 10
109.79731379328548
 20
127.89926889780406
 11
113.39730340081293
 21
131.49927087732263
  0
LINE
  8
_1-1_
  6
CONTINUOUS
 62
    4
 10
107.53457559121622
 20
127.89926889780406
 11
111.13457757073481
 21
131.49927087732263
  0
LINE
  8
_1-1_
  6
CONTINUOUS
 62
    4
 10
105.27183738914697
 20
127.89926889780406
 11
108.87183936866555
 21
131.49927087732263
  0
LINE
  8
_1-1_
  6
CONTINUOUS
 62
    4
 10
103.00908681508658
 20
127.89926889780406
 11
106.60908879460516
 21
131.49927087732263
  0
LINE
  8
_1-1_
  6
CONTINUOUS
 62
    4
 10
100.74634861301732
 20
127.89926889780406
 11
104.3463505925359
 21
131.49927087732263
  0
LINE
  8
_1-1_
  6
CONTINUOUS
 62
    4
 10
98.48361041094806
 20
127.89926889780406
 11
102.08361239046664
 21
131.49927087732263
  0
LINE
  8
_1-1_
  6
CONTINUOUS
 62
    4
 10
96.220872208878802
 20
127.89926889780406
 11
99.820874188397383
 21
131.49927087732263
  0
LINE
  8
_1-1_
  6
CONTINUOUS
 62
    4
 10
93.958121634818411
 20
127.89926889780406
 11
97.558123614336992
 21
131.49927087732263
  0
LINE
  8
_1-1_
  6
CONTINUOUS
 62
    4
 10
91.695377246753594
 20
127.89926889780406
 11
95.295385412267748
 21
131.49927087732263
  0
LINE
  8
_1-1_
  6
CONTINUOUS
 62
    4
 10
89.432639044684336
 20
127.89926889780406
 11
93.03264721019849
 21
131.49927087732263
  0
LINE
  8
_1-1_
  6
CONTINUOUS
 62
    4
 10
87.169900842615078
 20
127.89926889780406
 11
90.769909008129233
 21
131.49927087732263
  0
LINE
  8
_1-1_
  6
CONTINUOUS
 62
    4
 10
84.90716264054582
 20
127.89926889780406
 11
88.507158434068842
 21
131.49927087732263
  0
LINE
  8
_1-1_
  6
CONTINUOUS
 62
    4
 10
82.644424438476563
 20
127.89926889780406
 11
86.244420231999584
 21
131.49927087732263
  0
LINE
  8
_1-1_
  6
CONTINUOUS
 62
    4
 10
80.381680050411745
 20
127.89926889780406
 11
83.981669657939193
 21
131.49927087732263
  0
LINE
  8
_1-1_
  6
CONTINUOUS
 62
    4
 10
78.118941848342502
 20
127.89926889780406
 11
81.718943827861068
 21
131.49927087732263
  0
LINE
  8
_1-1_
  6
CONTINUOUS
 62
    4
 10
75.856203646273229
 20
127.89926889780406
 11
79.456193253800677
 21
131.49927087732263
  0
LINE
  8
_1-1_
  6
CONTINUOUS
 62
    4
 10
73.593465444203957
 20
127.89926889780406
 11
77.193479795713699
 21
131.49927087732263
  0
LINE
  8
_1-1_
  6
CONTINUOUS
 62
    4
 10
71.330727242134714
 20
127.89926889780406
 11
74.93072922165328
 21
131.49927087732263
  0
LINE
  8
_1-1_
  6
CONTINUOUS
 62
    4
 10
69.06798904006547
 20
127.89926889780406
 11
72.667978647592918
 21
131.49927087732263
  0
LINE
  8
_1-1_
  6
CONTINUOUS
 62
    4
 10
66.805250837996198
 20
127.89926889780406
 11
70.405252817514793
 21
131.49927087732263
  0
LINE
  8
_1-1_
  6
CONTINUOUS
 62
    4
 10
66.486474114495365
 20
129.84323037637247
 11
68.142514615445521
 21
131.49927087732263
  0
LINE
  8
_1-1_
  6
CONTINUOUS
 62
    7
 10
272.27033460462417
 20
127.89926889780406
 11
274.67032767630911
 21
127.89926889780406
  0
LINE
  8
_1-1_
  6
CONTINUOUS
 62
    7
 10
272.27033460462417
 20
199.29039620064401
 11
272.27033460462417
 21
127.89926889780406
  0
LINE
  8
_1-1_
  6
CONTINUOUS
 62
    3
 10
274.07033559438344
 20
123.89926807300465
 11
274.67032767630911
 21
123.89926807300465
  0
LINE
  8
_1-1_
  6
CONTINUOUS
 62
    3
 10
274.67032767630911
 20
111.89927797059755
 11
274.07033559438344
 21
111.89927797059755
  0
LINE
  8
_1-1_
  6
CONTINUOUS
 62
    3
 10
273.07033229518584
 20
127.29926444388725
 11
266.27033955342063
 21
127.29926444388725
  0
LINE
  8
_1-1_
  6
CONTINUOUS
 62
    3
 10
274.07033559438344
 20
126.29926114468962
 11
274.07033559438344
 21
123.89926807300465
  0
LINE
  8
_1-1_
  6
CONTINUOUS
 62
    3
 10
274.67032767630911
 20
126.89926559860642
 11
274.67032767630911
 21
123.89926807300465
  0
LINE
  8
_1-1_
  6
CONTINUOUS
 62
    3
 10
273.67032437711151
 20
127.89926889780406
 11
265.67034747149495
 21
127.89926889780406
  0
LINE
  8
_1-1_
  6
CONTINUOUS
 62
    3
 10
274.07033559438344
 20
109.49928489891259
 11
274.07033559438344
 21
111.89927797059755
  0
LINE
  8
_1-1_
  6
CONTINUOUS
 62
    3
 10
274.67032767630911
 20
108.89928044499578
 11
274.67032767630911
 21
111.89927797059755
  0
LINE
  8
_1-1_
  6
CONTINUOUS
 62
    3
 10
266.27033955342063
 20
108.49928159971496
 11
273.07033229518584
 21
108.49928159971496
  0
LINE
  8
_1-1_
  6
CONTINUOUS
 62
    3
 10
265.27033625422297
 20
109.49928489891259
 11
265.27033625422297
 21
126.29926114468962
  0
LINE
  8
_1-1_
  6
CONTINUOUS
 62
    3
 10
264.67034417229729
 20
108.89928044499578
 11
264.67034417229729
 21
126.89926559860642
  0
LINE
  8
_1-1_
  6
CONTINUOUS
 62
    3
 10
188.86777310758023
 20
123.89926807300465
 11
189.46776518950591
 21
123.89926807300465
  0
LINE
  8
_1-1_
  6
CONTINUOUS
 62
    3
 10
189.46776518950591
 20
111.89927797059755
 11
188.86777310758023
 21
111.89927797059755
  0
LINE
  8
_1-1_
  6
CONTINUOUS
 62
    3
 10
187.8677698083826
 20
127.29926444388725
 11
181.0677770666174
 21
127.29926444388725
  0
LINE
  8
_1-1_
  6
CONTINUOUS
 62
    3
 10
188.86777310758023
 20
126.29926114468962
 11
188.86777310758023
 21
123.89926807300465
  0
LINE
  8
_1-1_
  6
CONTINUOUS
 62
    3
 10
189.46776518950591
 20
126.89926559860642
 11
189.46776518950591
 21
123.89926807300465
  0
LINE
  8
_1-1_
  6
CONTINUOUS
 62
    3
 10
188.46776189030828
 20
127.89926889780406
 11
180.46778498469175
 21
127.89926889780406
  0
LINE
  8
_1-1_
  6
CONTINUOUS
 62
    3
 10
188.86777310758023
 20
109.49928489891259
 11
188.86777310758023
 21
111.89927797059755
  0
LINE
  8
_1-1_
  6
CONTINUOUS
 62
    3
 10
189.46776518950591
 20
108.89928044499578
 11
189.46776518950591
 21
111.89927797059755
  0
LINE
  8
_1-1_
  6
CONTINUOUS
 62
    3
 10
181.0677770666174
 20
108.49928159971496
 11
187.8677698083826
 21
108.49928159971496
  0
LINE
  8
_1-1_
  6
CONTINUOUS
 62
    3
 10
180.06777376741977
 20
109.49928489891259
 11
180.06777376741977
 21
126.29926114468962
  0
LINE
  8
_1-1_
  6
CONTINUOUS
 62
    3
 10
179.46778168549409
 20
108.89928044499578
 11
179.46778168549409
 21
126.89926559860642
  0
LINE
  8
_1-1_
  6
CONTINUOUS
 62
    3
 10
180.46778498469175
 20
107.89927714579815
 11
188.46776189030828
 21
107.89927714579815
  0
LINE
  8
ADD_LINE
  6
DOT
 62
    3
 10
188.46776189030828
 20
127.89926889780406
 11
190.08299956450591
 21
127.89926889780406
  0
LINE
  8
ADD_LINE
  6
DOT
 62
    3
 10
189.46776518950591
 20
126.89926559860642
 11
189.46776518950591
 21
128.59800184095229
  0
LINE
  8
_1-1_
  6
CONTINUOUS
 62
    3
 10
99.070327346389362
 20
123.89926807300465
 11
99.67031942831504
 21
123.89926807300465
  0
LINE
  8
_1-1_
  6
CONTINUOUS
 62
    3
 10
99.67031942831504
 20
111.89927797059755
 11
99.070327346389362
 21
111.89927797059755
  0
LINE
  8
_1-1_
  6
CONTINUOUS
 62
    3
 10
98.070324047191733
 20
127.29926444388725
 11
91.270331305426524
 21
127.29926444388725
  0
LINE
  8
_1-1_
  6
CONTINUOUS
 62
    3
 10
99.070327346389362
 20
126.29926114468962
 11
99.070327346389362
 21
123.89926807300465
  0
LINE
  8
_1-1_
  6
CONTINUOUS
 62
    3
 10
98.67031612911741
 20
127.89926889780406
 11
90.670339223500847
 21
127.89926889780406
  0
LINE
  8
_1-1_
  6
CONTINUOUS
 62
    3
 10
99.070327346389362
 20
109.49928489891259
 11
99.070327346389362
 21
111.89927797059755
  0
LINE
  8
_1-1_
  6
CONTINUOUS
 62
    3
 10
99.67031942831504
 20
108.89928044499578
 11
99.67031942831504
 21
111.89927797059755
  0
LINE
  8
_1-1_
  6
CONTINUOUS
 62
    3
 10
91.270331305426524
 20
108.49928159971496
 11
98.070324047191733
 21
108.49928159971496
  0
LINE
  8
_1-1_
  6
CONTINUOUS
 62
    3
 10
90.270328006228894
 20
109.49928489891259
 11
90.270328006228894
 21
126.29926114468962
  0
LINE
  8
_1-1_
  6
CONTINUOUS
 62
    3
 10
89.670335924303217
 20
108.89928044499578
 11
89.670335924303217
 21
126.89926559860642
  0
LINE
  8
_1-1_
  6
CONTINUOUS
 62
    3
 10
90.670339223500847
 20
107.89927714579815
 11
98.67031612911741
 21
107.89927714579815
  0
LINE
  8
ADD_LINE
  6
DOT
 62
    3
 10
98.67031612911741
 20
127.89926889780406
 11
100.28555380331504
 21
127.89926889780406
  0
LINE
  8
_1-3_
  6
CONTINUOUS
 62
    7
 10
144.30963877085094
 20
127.89926889780406
 11
117.64015403953759
 21
201.17309157912797
  0
LINE
  8
_1-1_
  6
CONTINUOUS
 62
    3
 10
99.67031942831504
 20
126.89926559860642
 11
99.67031942831504
 21
123.89926807300465
  0
LINE
  8
_1-1_
  6
CONTINUOUS
 62
    7
 10
274.67032767630911
 20
214.86486486486487
 11
274.67032767630911
 21
127.89926889780406
  0
LINE
  8
_1-1_
  6
CONTINUOUS
 62
    7
 10
273.67032437711151
 20
107.89926477380702
 11
66.486474114495365
 21
107.89926477380702
  0
LINE
  8
_1-1_
  6
DASHED1
 62
    3
 10
271.80579108160896
 20
131.99859206740922
 11
271.80579108160896
 21
212.88898364917654
  0
LINE
  8
_1-3_
  6
CONTINUOUS
 62
    7
 10
305.13472273543078
 20
212.88898364917654
 11
279.11427265888938
 21
212.88898364917654
  0
LINE
  8
_1-3_
  6
CONTINUOUS
 62
    7
 10
305.13472273543078
 20
202.88897540118245
 11
279.11427265888938
 21
202.88897540118245
  0
LINE
  8
_1-3_
  6
CONTINUOUS
 62
    7
 10
305.13472273543078
 20
212.88898364917654
 11
305.13472273543078
 21
202.88897540118245
  0
LINE
  8
_1-3_
  6
CONTINUOUS
 62
    7
 10
305.13472273543078
 20
172.88403897672086
 11
279.11427265888938
 21
172.88403897672086
  0
LINE
  8
_1-3_
  6
CONTINUOUS
 62
    7
 10
305.13472273543078
 20
202.88897540118245
 11
305.13472273543078
 21
172.88403897672086
  0
LINE
  8
_1-3_
  6
CONTINUOUS
 62
    7
 10
293.08314143000422
 20
212.88898364917654
 11
279.11427265888938
 21
212.88898364917654
  0
LINE
  8
_1-3_
  6
CONTINUOUS
 62
    7
 10
293.08314143000422
 20
131.99859206740922
 11
279.11427265888938
 21
131.99859206740922
  0
LINE
  8
_1-3_
  6
CONTINUOUS
 62
    7
 10
293.08314143000422
 20
212.88898364917654
 11
293.08314143000422
 21
131.99859206740922
  0
LINE
  8
_1-3_
  6
CONTINUOUS
 62
    7
 10
113.60742929819469
 20
201.17309157912797
 11
74.569559870539479
 21
201.17309157912797
  0
LINE
  8
_1-3_
  6
CONTINUOUS
 62
    7
 10
113.60742929819469
 20
187.95627903293919
 11
74.784096382759714
 21
187.95627903293919
  0
LINE
  8
_1-3_
  6
CONTINUOUS
 62
    7
 10
113.60742929819469
 20
182.51539900496201
 11
103.31715558026289
 21
182.51539900496201
  0
LINE
  8
_1-3_
  6
CONTINUOUS
 62
    7
 10
113.60742929819469
 20
176.82719050226987
 11
103.42442074337522
 21
176.82719050226987
  0
LINE
  8
_1-0_
  6
CONTINUOUS
 62
    3
 10
106.77321562895904
 20
146.16986661343961
 11
108.16268920898437
 21
146.16986661343961
  0
LINE
  8
_1-0_
  6
CONTINUOUS
 62
    3
 10
108.16268920898437
 20
146.16986661343961
 11
108.16268920898437
 21
142.98863178974875
  0
LINE
  8
_1-0_
  6
CONTINUOUS
 62
    3
 10
108.16268920898437
 20
146.16986661343961
 11
108.16268920898437
 21
142.98863178974875
  0
LINE
  8
_1-0_
  6
CONTINUOUS
 62
    3
 10
105.83428047798776
 20
149.05204566749367
 11
100.1626071414432
 21
145.82708822714318
  0
LINE
  8
_1-0_
  6
CONTINUOUS
 62
    3
 10
159.7731925345756
 20
146.16986661343961
 11
161.16266611460094
 21
146.16986661343961
  0
LINE
  8
_1-0_
  6
CONTINUOUS
 62
    3
 10
100.1626071414432
 20
145.82708822714318
 11
100.1626071414432
 21
143.02713342615075
  0
LINE
  8
_1-0_
  6
CONTINUOUS
 62
    3
 10
104.7350785538957
 20
145.39577587230787
 11
100.1626071414432
 21
143.02713342615075
  0
LINE
  8
_1-0_
  6
CONTINUOUS
 62
    3
 10
161.16266611460094
 20
146.16986661343961
 11
161.16266611460094
 21
142.98863178974875
  0
LINE
  8
_1-0_
  6
CONTINUOUS
 62
    3
 10
161.16266611460094
 20
146.16986661343961
 11
161.16266611460094
 21
142.98863178974875
  0
LINE
  8
_1-0_
  6
CONTINUOUS
 62
    3
 10
158.83425738360432
 20
149.05205803948482
 11
153.16261497703761
 21
145.82708822714318
  0
LINE
  8
_1-0_
  6
CONTINUOUS
 62
    3
 10
212.77318181218328
 20
146.16985424144849
 11
214.16268013619089
 21
146.16985424144849
  0
LINE
  8
_1-0_
  6
CONTINUOUS
 62
    3
 10
153.16261497703761
 20
145.82708822714318
 11
153.16261497703761
 21
143.02713342615075
  0
LINE
  8
_1-0_
  6
CONTINUOUS
 62
    3
 10
157.7350802034945
 20
145.39576350031672
 11
153.16261497703761
 21
143.02713342615075
  0
LINE
  8
_1-0_
  6
CONTINUOUS
 62
    3
 10
214.16268013619089
 20
146.16985424144849
 11
214.16268013619089
 21
142.98863178974875
  0
LINE
  8
_1-0_
  6
CONTINUOUS
 62
    3
 10
214.16268013619089
 20
146.16985424144849
 11
214.16268013619089
 21
142.98863178974875
  0
LINE
  8
_1-0_
  6
CONTINUOUS
 62
    3
 10
212.77325604413008
 20
146.16986661343961
 11
214.16272962415542
 21
146.16986661343961
  0
LINE
  8
_1-0_
  6
CONTINUOUS
 62
    3
 10
214.16272962415542
 20
146.16986661343961
 11
214.16272962415542
 21
142.98863178974875
  0
LINE
  8
_1-0_
  6
CONTINUOUS
 62
    3
 10
214.16272962415542
 20
146.16986661343961
 11
214.16272962415542
 21
142.98863178974875
  0
LINE
  8
_1-0_
  6
CONTINUOUS
 62
    3
 10
211.8343208931588
 20
149.05204566749367
 11
206.16266611460094
 21
145.82708822714318
  0
LINE
  8
_1-0_
  6
CONTINUOUS
 62
    3
 10
265.77323294974661
 20
146.16986661343961
 11
267.16270652977198
 21
146.16986661343961
  0
LINE
  8
_1-0_
  6
CONTINUOUS
 62
    3
 10
206.16266611460094
 20
145.82708822714318
 11
206.16266611460094
 21
143.02713342615075
  0
LINE
  8
_1-0_
  6
CONTINUOUS
 62
    3
 10
210.73511896906675
 20
145.39577587230787
 11
206.16266611460094
 21
143.02713342615075
  0
LINE
  8
_1-0_
  6
CONTINUOUS
 62
    3
 10
267.16270652977198
 20
146.16986661343961
 11
267.16270652977198
 21
142.98863178974875
  0
LINE
  8
_1-0_
  6
CONTINUOUS
 62
    3
 10
267.16270652977198
 20
146.16986661343961
 11
267.16270652977198
 21
142.98863178974875
  0
ARC
  8
_1-0_
  6
CONTINUOUS
 62
    3
 10
263.31123145850933
 20
114.66923069309544
 40
41.612016832506335
 50
90
 51
119.5146484375
  0
ARC
  8
_1-0_
  6
CONTINUOUS
 62
    3
 10
263.31123145850933
 20
99.713225493559975
 40
60.168024011560391
 50
90
 51
109.9202880859375
  0
ARC
  8
_1-0_
  6
CONTINUOUS
 62
    3
 10
265.53145949904984
 20
121.60736908783784
 40
41.612016832506335
 50
90
 51
119.5146484375
  0
ARC
  8
_1-0_
  6
CONTINUOUS
 62
    3
 10
265.53145949904984
 20
106.65136388830237
 40
60.168024011560391
 50
90
 51
109.9202880859375
  0
ARC
  8
_1-1_
  6
CONTINUOUS
 62
    3
 10
265.67034747149495
 20
126.89926559860642
 40
0.9999999162313101
 50
90
 51
180
  0
ARC
  8
_1-1_
  6
CONTINUOUS
 62
    3
 10
266.27033955342063
 20
126.29926114468962
 40
0.9999999162313101
 50
90
 51
180
  0
ARC
  8
_1-1_
  6
CONTINUOUS
 62
    3
 10
273.07033229518584
 20
126.29926114468962
 40
0.9999999162313101
 50
0
 51
90
  0
ARC
  8
_1-1_
  6
CONTINUOUS
 62
    3
 10
273.67032437711151
 20
126.89926559860642
 40
0.9999999162313101
 50
0
 51
90
  0
ARC
  8
_1-1_
  6
CONTINUOUS
 62
    3
 10
273.07033229518584
 20
109.49928489891259
 40
0.9999999162313101
 50
270
 51
0
  0
ARC
  8
_1-1_
  6
CONTINUOUS
 62
    3
 10
266.27033955342063
 20
109.49928489891259
 40
0.9999999162313101
 50
180
 51
270
  0
ARC
  8
_1-1_
  6
CONTINUOUS
 62
    3
 10
265.67034747149495
 20
108.89928044499578
 40
0.9999999162313101
 50
180
 51
270
  0
ARC
  8
_1-1_
  6
CONTINUOUS
 62
    3
 10
180.46778498469175
 20
126.89926559860642
 40
0.9999999162313101
 50
90
 51
180
  0
ARC
  8
_1-1_
  6
CONTINUOUS
 62
    3
 10
181.0677770666174
 20
126.29926114468962
 40
0.9999999162313101
 50
90
 51
180
  0
ARC
  8
_1-1_
  6
CONTINUOUS
 62
    3
 10
187.8677698083826
 20
126.29926114468962
 40
0.9999999162313101
 50
0
 51
90
  0
ARC
  8
_1-1_
  6
CONTINUOUS
 62
    3
 10
188.46776189030828
 20
126.89926559860642
 40
0.9999999162313101
 50
0
 51
90
  0
ARC
  8
_1-1_
  6
CONTINUOUS
 62
    3
 10
187.8677698083826
 20
109.49928489891259
 40
0.9999999162313101
 50
270
 51
0
  0
ARC
  8
_1-1_
  6
CONTINUOUS
 62
    3
 10
188.46776189030828
 20
108.89928044499578
 40
0.9999999162313101
 50
270
 51
0
  0
ARC
  8
_1-1_
  6
CONTINUOUS
 62
    3
 10
181.0677770666174
 20
109.49928489891259
 40
0.9999999162313101
 50
180
 51
270
  0
ARC
  8
_1-1_
  6
CONTINUOUS
 62
    3
 10
180.46778498469175
 20
108.89928044499578
 40
0.9999999162313101
 50
180
 51
270
  0
ARC
  8
_1-1_
  6
CONTINUOUS
 62
    3
 10
90.670339223500847
 20
126.89926559860642
 40
0.9999999162313101
 50
90
 51
180
  0
ARC
  8
_1-1_
  6
CONTINUOUS
 62
    3
 10
91.270331305426524
 20
126.29926114468962
 40
0.9999999162313101
 50
90
 51
180
  0
ARC
  8
_1-1_
  6
CONTINUOUS
 62
    3
 10
98.070324047191733
 20
126.29926114468962
 40
0.9999999162313101
 50
0
 51
90
  0
ARC
  8
_1-1_
  6
CONTINUOUS
 62
    3
 10
98.67031612911741
 20
126.89926559860642
 40
0.9999999162313101
 50
0
 51
90
  0
ARC
  8
_1-1_
  6
CONTINUOUS
 62
    3
 10
98.070324047191733
 20
109.49928489891259
 40
0.9999999162313101
 50
270
 51
0
  0
ARC
  8
_1-1_
  6
CONTINUOUS
 62
    3
 10
98.67031612911741
 20
108.89928044499578
 40
0.9999999162313101
 50
270
 51
0
  0
ARC
  8
_1-1_
  6
CONTINUOUS
 62
    3
 10
91.270331305426524
 20
109.49928489891259
 40
0.9999999162313101
 50
180
 51
270
  0
ARC
  8
_1-1_
  6
CONTINUOUS
 62
    3
 10
90.670339223500847
 20
108.89928044499578
 40
0.9999999162313101
 50
180
 51
270
  0
ARC
  8
_1-1_
  6
CONTINUOUS
 62
    3
 10
273.67032437711151
 20
108.89928044499578
 40
0.9999999162313101
 50
270
 51
0
  0
ARC
  8
_1-0_
  6
CONTINUOUS
 62
    3
 10
105.73332503035262
 20
146.14047076251057
 40
1.0402513194728542
 50
309.08184814453125
 51
1.6144714355468908
  0
ARC
  8
_1-0_
  6
CONTINUOUS
 62
    3
 10
107.67414402317357
 20
146.60362862251901
 40
3.0627306731971538
 50
42.6905517578125
 51
126.92074584960937
  0
ARC
  8
_1-0_
  6
CONTINUOUS
 62
    3
 10
158.73332667995143
 20
146.14047076251057
 40
1.0402513194728542
 50
309.08184814453125
 51
1.6144714355468908
  0
ARC
  8
_1-0_
  6
CONTINUOUS
 62
    3
 10
137.2953631426837
 20
185.99196562895904
 40
46.274049088761615
 50
233.73811340332031
 51
298.51937866210937
  0
ARC
  8
_1-0_
  6
CONTINUOUS
 62
    3
 10
107.4874259330131
 20
141.67720072978253
 40
4.6263270764737516
 50
47.123046875000007
 51
126.50717163085939
  0
ARC
  8
_1-0_
  6
CONTINUOUS
 62
    3
 10
137.60226275469807
 20
185.43134122281461
 40
48.543530025997683
 50
236.25315856933597
 51
299.03501892089844
  0
ARC
  8
_1-0_
  6
CONTINUOUS
 62
    3
 10
160.6741456727724
 20
146.60362862251901
 40
3.0627306731971538
 50
42.6905517578125
 51
126.92074584960937
  0
ARC
  8
_1-0_
  6
CONTINUOUS
 62
    3
 10
211.73331595755914
 20
146.14045839051943
 40
1.0402513194728542
 50
309.08184814453125
 51
1.6144714355468908
  0
ARC
  8
_1-0_
  6
CONTINUOUS
 62
    3
 10
190.29534004830026
 20
185.99196562895904
 40
46.274049088761615
 50
233.73811340332031
 51
298.51937866210937
  0
ARC
  8
_1-0_
  6
CONTINUOUS
 62
    3
 10
160.48742758261193
 20
141.67718835779138
 40
4.6263270764737516
 50
47.123046875000007
 51
126.50717163085939
  0
ARC
  8
_1-0_
  6
CONTINUOUS
 62
    3
 10
190.60226440429688
 20
185.43134122281461
 40
48.543530025997683
 50
236.25315856933597
 51
299.03501892089844
  0
ARC
  8
_1-0_
  6
CONTINUOUS
 62
    3
 10
84.295330563107058
 20
185.99196562895904
 40
46.274049088761615
 50
251.19485473632813
 51
298.51937866210937
  0
ARC
  8
_1-0_
  6
CONTINUOUS
 62
    3
 10
84.602254919103672
 20
185.43134122281461
 40
48.543530025997683
 50
251.72351074218753
 51
299.03501892089844
  0
ARC
  8
_1-0_
  6
CONTINUOUS
 62
    3
 10
211.73336544552367
 20
146.14047076251057
 40
1.0402513194728542
 50
309.08184814453125
 51
1.6144714355468908
  0
ARC
  8
_1-0_
  6
CONTINUOUS
 62
    3
 10
213.67418443834461
 20
146.60362862251901
 40
3.0627306731971538
 50
42.6905517578125
 51
126.92074584960937
  0
ARC
  8
_1-0_
  6
CONTINUOUS
 62
    3
 10
264.7333670951225
 20
146.14047076251057
 40
1.0402513194728542
 50
309.08184814453125
 51
1.6144714355468908
  0
ARC
  8
_1-0_
  6
CONTINUOUS
 62
    3
 10
243.29540355785474
 20
185.99196562895904
 40
46.274049088761615
 50
233.73811340332031
 51
298.51937866210937
  0
ARC
  8
_1-0_
  6
CONTINUOUS
 62
    3
 10
213.48746634818414
 20
141.67720072978253
 40
4.6263270764737516
 50
47.123046875000007
 51
126.50717163085939
  0
ARC
  8
_1-0_
  6
CONTINUOUS
 62
    3
 10
243.60230316986909
 20
185.43134122281461
 40
48.543530025997683
 50
236.25315856933597
 51
299.03501892089844
  0
TEXT
  8
_0-0_
 62
    7
 10
141.89189395389042
 20
14.594594594594582
 40
2.5
 41
1
 50
0
  1
縮尺
  0
TEXT
  8
_0-0_
 62
    7
 10
377.10214563318203
 20
22.865493362014362
 40
2.5
 41
1
 50
0
  1
ＮＯ
  0
TEXT
  8
_0-0_
 62
    7
 10
14.594594336844779
 20
24.324324324324323
 40
2.5
 41
1
 50
0
  1
和形
  0
TEXT
  8
_0-0_
 62
    7
 10
383.23801896378802
 20
18.523427086907475
 40
3
 41
1
 50
0
  1
Ｊ
  0
TEXT
  8
_1-0_
 62
    7
 10
169.90681828679266
 20
13.3181144095756
 40
2.5
 41
1
 50
0
  1
1/5
  0
TEXT
  8
_1-3_
 62
    7
 10
39.721904445338907
 20
15.395235628695104
 40
2.5
 41
1
 50
0
  1
壁際　　1
  0
TEXT
  8
_1-3_
 62
    7
 10
242.97219353753167
 20
226.320140941723
 40
2.5
 41
1
 50
0
  1
外壁
  0
TEXT
  8
_1-3_
 62
    7
 10
226.11293895824537
 20
201.92221564215583
 40
2.5
 41
1
 50
0
  1
雨押え板
  0
TEXT
  8
_1-3_
 62
    7
 10
238.58605462151607
 20
201.64808943464951
 40
2.5
 41
1
 50
0
  1
15ｘ90
  0
TEXT
  8
_1-3_
 62
    7
 10
226.85171178869302
 20
189.01361413904141
 40
2.5
 41
1
 50
0
  1
水切り鉄板
  0
TEXT
  8
_1-3_
 62
    7
 10
227.45747334248313
 20
178.51377744932432
 40
2.5
 41
1
 50
0
  1
割のし
  0
TEXT
  8
_1-3_
 62
    7
 10
211.75310701937292
 20
71.844412313925261
 40
2.5
 41
1
 50
0
  1
捨谷
  0
TEXT
  8
_1-3_
 62
    7
 10
25.556194717819636
 20
20.211577544341225
 40
2.5
 41
1
 50
0
  1
鉄骨
  0
TEXT
  8
_1-1_
 62
    7
 10
308.90013411238385
 20
182.59678196262669
 40
2.5
 41
1
 50
0
  1
水切り鉄板立上がり寸法
  0
TEXT
  8
_1-1_
 62
    7
 10
295.82700574720229
 20
155.32349457611909
 40
2.5
 41
1
 50
0
  1
下葺き材立上がり寸法
  0
TEXT
  8
_1-3_
 62
    7
 10
304.63472108583193
 20
206.63897952517948
 40
2.5
 41
1
 50
90
  1
50
  0
TEXT
  8
_1-3_
 62
    7
 10
304.63472108583193
 20
186.01150100295609
 40
2.5
 41
1
 50
90
  1
150
  0
TEXT
  8
_1-3_
 62
    7
 10
292.67229234850089
 20
152.18183569006018
 40
2.5
 41
1
 50
90
  1
300 以上
  0
TEXT
  8
_1-3_
 62
    7
 10
307.93220396299625
 20
209.67629922402872
 40
3
 41
1
 50
0
  1
下葺き材立上げ長さは、300ｍｍ以上かつ
  0
TEXT
  8
_1-3_
 62
    7
 10
308.31882703626479
 20
204.02920284786742
 40
3
 41
1
 50
0
  1
雨押え板上端より50mm以上とする
  0
TEXT
  8
_1-3_
 62
    7
 10
394.45476222682646
 20
15.507148020976302
 40
2.5
 41
1
 50
0
  1
36
  0
TEXT
  8
_1-3_
 62
    7
 10
65.938988762932865
 20
190.04029145111909
 40
2.5
 41
1
 50
0
  1
※　地域により瓦桟木の大きさは、異なります
  0
TEXT
  8
_1-3_
 62
    7
 10
56.941416972392318
 20
198.83803908889359
 40
2.5
 41
1
 50
0
  1
桟瓦
  0
TEXT
  8
_1-3_
 62
    7
 10
56.941416972392318
 20
192.83804403769005
 40
2.5
 41
1
 50
0
  1
瓦桟
  0
TEXT
  8
_1-1_
 62
    7
 10
57.265433234137447
 20
174.8380588840794
 40
2.5
 41
1
 50
0
  1
硬質木片セメント板　　ｔ＝18
  0
POINT
  8
_1-3_
 62
    7
 10
305.13472273543078
 20
212.88898364917654
  0
POINT
  8
_1-3_
 62
    7
 10
305.13472273543078
 20
202.88897540118245
  0
POINT
  8
_1-3_
 62
    7
 10
305.13472273543078
 20
172.88403897672086
  0
POINT
  8
_1-3_
 62
    7
 10
293.08314143000422
 20
212.88898364917654
  0
POINT
  8
_1-3_
 62
    7
 10
293.08314143000422
 20
131.99859206740922
  0
TEXT
  8
_1-1_
 62
    7
 10
65.705384950380079
 20
192.9784661370355
 40
2.5
 41
1
 50
0
  1
１５×２１以上
  0
TEXT
  8
_1-3_
 62
    7
 10
56.941416972392318
 20
186.83804898648648
 40
2.5
 41
1
 50
0
  1
縦桟
  0
TEXT
  8
_1-1_
 62
    7
 10
57.26543529613599
 20
180.83805393528294
 40
2.5
 41
1
 50
0
  1
ルーフィング
  0
TEXT
  8
_1-1_
 62
    7
 10
222.34037021630616
 20
164.77443843594011
 40
2.5
 41
1
 50
0
  1
葺き土
  0
LINE
  8
ADD_LINE
  6
DOT
 62
    7
 10
270.37160512563344
 20
169.22919196051521
 11
271.80579108160896
 21
169.47727960052273
  0
LINE
  8
ADD_LINE
  6
DOT
 62
    7
 10
271.30925358952703
 20
162.3484348606419
 11
271.80579108160896
 21
162.3484348606419
  0
LINE
  8
ADD_LINE
  6
DOT
 62
    7
 10
264.47728732500912
 20
166.81015239408254
 11
265.19262468813412
 21
168.28056808495063
  0
ARC
  8
_1-4_
  6
CONTINUOUS
 62
    5
 10
248.38501484342498
 20
160.7911119291044
 40
5.2627432423831042
 50
340.6948630867696
 51
7.4463672110363293
  0
ARC
  8
_1-4_
  6
CONTINUOUS
 62
    5
 10
227.00095360602282
 20
148.95372366334095
 40
23.103601826559348
 50
337.16770816889732
 51
12.471948090477166
  0
LINE
  8
ADD_LINE
  6
DOT
 62
    7
 10
267.16270652977198
 20
146.16986661343961
 11
267.80305604676943
 21
146.16986661343961
  0
ARC
  8
_1-4_
  6
CONTINUOUS
 62
    1
 10
227.00095360602282
 20
148.95372366334095
 40
23.103601826559348
 50
337.16770816889732
 51
12.471948090477166
  0
ARC
  8
_1-4_
  6
CONTINUOUS
 62
    1
 10
248.38501484342498
 20
160.7911119291044
 40
5.2627432423831042
 50
340.6948630867696
 51
7.4463672110363293
  0
SOLID
  8
ADD_LINE
  6
DOT
 62
    8
 10
248.29426351342354
 20
139.98871554579935
 11
250.27234627396444
 21
140.28656358260358
 12
252.44704735120271
 22
140.64901376214328
 13
252.44704735120271
 23
140.64901376214328
  0
SOLID
  8
ADD_LINE
  6
DOT
 62
    8
 10
248.29426351342354
 20
139.98871554579935
 11
252.44704735120271
 21
140.64901376214328
 12
255.09080160196297
 22
141.26731112724045
 13
255.09080160196297
 23
141.26731112724045
  0
SOLID
  8
ADD_LINE
  6
DOT
 62
    8
 10
248.29426351342354
 20
139.98871554579935
 11
255.09080160196297
 21
141.26731112724045
 12
257.71323525392677
 22
142.01353208511631
 13
257.71323525392677
 23
142.01353208511631
  0
SOLID
  8
ADD_LINE
  6
DOT
 62
    8
 10
248.29426351342354
 20
139.98871554579935
 11
257.71323525392677
 21
142.01353208511631
 12
260.10114231912956
 22
142.88767663577093
 13
260.10114231912956
 23
142.88767663577093
  0
SOLID
  8
ADD_LINE
  6
DOT
 62
    8
 10
248.29426351342354
 20
139.98871554579935
 11
260.10114231912956
 21
142.88767663577093
 12
263.0647055518366
 22
144.12427136596523
 13
263.0647055518366
 23
144.12427136596523
  0
SOLID
  8
ADD_LINE
  6
DOT
 62
    8
 10
248.29426351342354
 20
139.98871554579935
 11
263.0647055518366
 21
144.12427136596523
 12
264.68507106036708
 22
144.93445412023047
 13
264.68507106036708
 23
144.93445412023047
  0
SOLID
  8
ADD_LINE
  6
DOT
 62
    8
 10
248.29426351342354
 20
139.98871554579935
 11
264.68507106036708
 21
144.93445412023047
 12
265.38917264790894
 22
145.3329796575444
 13
265.38917264790894
 23
145.3329796575444
  0
SOLID
  8
ADD_LINE
  6
DOT
 62
    8
 10
248.29426351342354
 20
139.98871554579935
 11
265.38917264790894
 21
145.3329796575444
 12
265.60185680861463
 22
145.48878968893825
 13
265.60185680861463
 23
145.48878968893825
  0
SOLID
  8
ADD_LINE
  6
DOT
 62
    8
 10
248.29426351342354
 20
139.98871554579935
 11
265.60185680861463
 21
145.48878968893825
 12
265.70845980259685
 22
145.85123986847796
 13
265.70845980259685
 23
145.85123986847796
  0
SOLID
  8
ADD_LINE
  6
DOT
 62
    8
 10
248.29426351342354
 20
139.98871554579935
 11
265.70845980259685
 21
145.85123986847796
 12
265.7732054669346
 22
146.16977892130924
 13
265.7732054669346
 23
146.16977892130924
  0
SOLID
  8
ADD_LINE
  6
DOT
 62
    8
 10
253.7655554948434
 20
160.23229804734942
 11
253.35184095471919
 21
159.05125422934393
 12
255.13184089536028
 22
159.30366962103167
 13
255.13184089536028
 23
159.30366962103167
  0
SOLID
  8
ADD_LINE
  6
DOT
 62
    8
 10
253.7655554948434
 20
160.23229804734942
 11
255.13184089536028
 21
159.30366962103167
 12
257.5191792203064
 22
159.61897845640192
 13
257.5191792203064
 23
159.61897845640192
  0
SOLID
  8
ADD_LINE
  6
DOT
 62
    8
 10
253.7655554948434
 20
160.23229804734942
 11
257.5191792203064
 21
159.61897845640192
 12
260.05666460971452
 22
159.81416964020255
 13
260.05666460971452
 23
159.81416964020255
  0
SOLID
  8
ADD_LINE
  6
DOT
 62
    8
 10
253.7655554948434
 20
160.23229804734942
 11
260.05666460971452
 21
159.81416964020255
 12
261.88845879615121
 22
159.88924317243354
 13
261.88845879615121
 23
159.88924317243354
  0
SOLID
  8
ADD_LINE
  6
DOT
 62
    8
 10
253.7655554948434
 20
160.23229804734942
 11
261.88845879615121
 21
159.88924317243354
 12
263.31123145850933
 22
159.88124950512037
 13
263.31123145850933
 23
159.88124950512037
  0
SOLID
  8
ADD_LINE
  6
DOT
 62
    8
 10
253.7655554948434
 20
160.23229804734942
 11
264.3809000662207
 21
163.192478590598
 12
262.99954707317016
 22
163.13241976481319
 13
262.99954707317016
 23
163.13241976481319
  0
SOLID
  8
ADD_LINE
  6
DOT
 62
    8
 10
253.7655554948434
 20
160.23229804734942
 11
262.99954707317016
 21
163.13241976481319
 12
261.3178999511955
 22
163.02731681968976
 13
261.3178999511955
 23
163.02731681968976
  0
SOLID
  8
ADD_LINE
  6
DOT
 62
    8
 10
253.7655554948434
 20
160.23229804734942
 11
261.3178999511955
 21
163.02731681968976
 12
259.92153225169875
 22
162.80209622299674
 13
259.92153225169875
 23
162.80209622299674
  0
SOLID
  8
ADD_LINE
  6
DOT
 62
    8
 10
253.7655554948434
 20
160.23229804734942
 11
259.92153225169875
 21
162.80209622299674
 12
258.28492924906271
 22
162.5918903327499
 13
258.28492924906271
 23
162.5918903327499
  0
SOLID
  8
ADD_LINE
  6
DOT
 62
    8
 10
253.7655554948434
 20
160.23229804734942
 11
258.28492924906271
 21
162.5918903327499
 12
256.76844389799629
 22
162.29159620382586
 13
256.76844389799629
 23
162.29159620382586
  0
SOLID
  8
ADD_LINE
  6
DOT
 62
    8
 10
253.7655554948434
 20
160.23229804734942
 11
256.76844389799629
 21
162.29159620382586
 12
255.14685560180649
 22
161.88619912977842
 13
255.14685560180649
 23
161.88619912977842
  0
SOLID
  8
ADD_LINE
  6
DOT
 62
    8
 10
253.7655554948434
 20
160.23229804734942
 11
255.14685560180649
 21
161.88619912977842
 12
253.60337531158603
 22
161.47315332050491
 13
253.60337531158603
 23
161.47315332050491
  0
SOLID
  8
ADD_LINE
  6
DOT
 62
    8
 10
271.80579108160896
 20
169.47727960052273
 11
265.19262468813412
 21
168.28056808495063
 12
264.47728732500912
 22
166.81015239408251
 13
264.47728732500912
 23
166.81015239408251
  0
SOLID
  8
ADD_LINE
  6
DOT
 62
    8
 10
271.80579108160896
 20
169.47727960052273
 11
264.47728732500912
 21
166.81015239408251
 12
265.53145949904984
 22
166.81938789986276
 13
265.53145949904984
 23
166.81938789986276
  0
SOLID
  8
ADD_LINE
  6
DOT
 62
    8
 10
271.80579108160896
 20
169.47727960052273
 11
265.53145949904984
 21
166.81938789986276
 12
265.53145949904899
 22
163.21938592034417
 13
265.53145949904899
 23
163.21938592034417
  0
SOLID
  8
ADD_LINE
  6
DOT
 62
    8
 10
271.80579108160896
 20
169.47727960052273
 11
267.80305604676943
 21
162.47366415487755
 12
268.30924369193411
 22
162.3484348606419
 13
268.30924369193411
 23
162.3484348606419
  0
SOLID
  8
ADD_LINE
  6
DOT
 62
    8
 10
271.80579108160896
 20
169.47727960052273
 11
268.30924369193411
 21
162.3484348606419
 12
271.80579108160896
 22
162.3484348606419
 13
271.80579108160896
 23
162.3484348606419
  0
LINE
  8
_1-1_
  6
DASHED1
 62
    7
 10
263.55266798182731
 20
155.76736350323233
 11
263.55266798182731
 21
152.26867695600171
  0
LINE
  8
_1-1_
  6
DASHED1
 62
    7
 10
263.95266798182735
 20
155.76736350323233
 11
263.95266798182735
 21
152.26867695600171
  0
LINE
  8
_1-1_
  6
DASHED1
 62
    7
 10
263.95266798182735
 20
152.26867695600171
 11
263.75266798182736
 21
151.89299321673028
  0
LINE
  8
_1-1_
  6
DASHED1
 62
    7
 10
263.55266798182731
 20
152.26867695600171
 11
263.75266798182736
 21
151.89299321673025
  0
LINE
  8
ADD_LINE
  6
DOT
 62
    4
 10
263.75266798182736
 20
156.32951252569489
 11
263.75266798182736
 21
151.89299321673025
  0
LINE
  8
_1-1_
  6
CONTINUOUS
 62
    7
 10
263.15266798182734
 20
155.98712633084108
 11
264.35266798182732
 21
155.98712633084108
  0
LINE
  8
_1-1_
  6
CONTINUOUS
 62
    7
 10
263.55266798182731
 20
155.98712633084108
 11
263.55266798182731
 21
155.76736350323233
  0
LINE
  8
_1-1_
  6
CONTINUOUS
 62
    7
 10
263.95266798182735
 20
155.98712633084108
 11
263.95266798182735
 21
155.76736350323233
  0
LINE
  8
_1-1_
  6
CONTINUOUS
 62
    7
 10
262.03445666386955
 20
156.24496482331713
 11
262.03445666386955
 21
155.93823487388784
  0
LINE
  8
_1-1_
  6
CONTINUOUS
 62
    7
 10
263.99374479668057
 20
155.93823487388784
 11
262.03445666386955
 21
155.93823487388784
  0
LINE
  8
_1-1_
  6
CONTINUOUS
 62
    7
 10
263.15266798182734
 20
156.20746044600438
 11
263.15266798182734
 21
155.98712633084108
  0
LINE
  8
_1-1_
  6
CONTINUOUS
 62
    7
 10
263.15266798182734
 20
156.20746044600438
 11
264.35266798182732
 21
156.20746044600438
  0
LINE
  8
_1-1_
  6
CONTINUOUS
 62
    7
 10
264.35266798182732
 20
155.98712633084108
 11
264.35266798182732
 21
156.20746044600438
  0
LINE
  8
_1-1_
  6
CONTINUOUS
 62
    7
 10
263.55045049010118
 20
156.28712633084106
 11
263.44400752404306
 21
156.28712633084106
  0
LINE
  8
_1-1_
  6
CONTINUOUS
 62
    7
 10
263.99374479668057
 20
156.28712633084106
 11
263.55045049010118
 21
156.28712633084106
  0
LINE
  8
_1-1_
  6
CONTINUOUS
 62
    7
 10
263.99374479668057
 20
155.93823487388784
 11
263.99374479668057
 21
156.28712633084106
  0
LINE
  8
_1-1_
  6
CONTINUOUS
 62
    7
 10
263.44400752404306
 20
160.05669268970445
 11
263.44400752404306
 21
156.28712633084106
  0
LINE
  8
_1-1_
  6
DASHED1
 62
    7
 10
262.03445666386955
 20
159.85052175920046
 11
262.03445666386955
 21
156.24496482331713
  0
LINE
  8
_1-1_
  6
CONTINUOUS
 62
    7
 10
262.03445666386955
 20
159.85052175920046
 11
262.03445666386955
 21
160.05669268970445
  0
LINE
  8
_1-1_
  6
CONTINUOUS
 62
    7
 10
263.44400752404306
 20
160.05669268970445
 11
262.03445666386955
 21
160.05669268970445
  0
LINE
  8
_1-1_
  6
CONTINUOUS
 62
    7
 10
267.72088055477053
 20
155.834471492327
 11
267.72088055477053
 21
146.28942155142562
  0
LINE
  8
_1-1_
  6
CONTINUOUS
 62
    7
 10
267.72088055477053
 20
155.834471492327
 11
258.72088055477053
 21
155.834471492327
  0
LINE
  8
_1-1_
  6
CONTINUOUS
 62
    7
 10
258.72088055477053
 20
155.834471492327
 11
258.72088055477053
 21
146.28942155142562
  0
LINE
  8
_1-1_
  6
CONTINUOUS
 62
    7
 10
258.72088055477053
 20
146.28942155142562
 11
267.72088055477053
 21
146.28942155142562
  0
LINE
  8
_1-1_
  6
CONTINUOUS
 62
    7
 10
264.37934080134249
 20
155.81995407582718
 11
267.71834659629559
 21
155.81995407582718
  0
LINE
  8
_1-1_
  6
CONTINUOUS
 62
    7
 10
267.71834659629559
 20
155.81995407582718
 11
267.71834659629559
 21
163.12705371405789
  0
LINE
  8
_1-1_
  6
CONTINUOUS
 62
    7
 10
267.71834659629559
 20
163.12705371405789
 11
264.37934080134249
 21
163.12705371405789
  0
LINE
  8
_1-1_
  6
CONTINUOUS
 62
    7
 10
264.37934080134249
 20
163.12705371405789
 11
264.37934080134249
 21
155.81995407582718
  0
LINE
  8
_1-1_
  6
CONTINUOUS
 62
    7
 10
264.37934080134249
 20
163.12705371405789
 11
267.71834659629559
 21
155.81995407582718
  0
LINE
  8
_1-1_
  6
CONTINUOUS
 62
    7
 10
267.72088055477053
 20
155.834471492327
 11
258.72088055477053
 21
146.28942155142562
  0
LINE
  8
_1-1_
  6
DASHED1
 62
    7
 10
265.84734136440971
 20
162.89813804477214
 11
265.84734136440971
 21
159.39945149754152
  0
LINE
  8
_1-1_
  6
DASHED1
 62
    7
 10
266.24734136440969
 20
162.89813804477214
 11
266.24734136440969
 21
159.39945149754152
  0
LINE
  8
_1-1_
  6
DASHED1
 62
    7
 10
266.24734136440969
 20
159.39945149754152
 11
266.0473413644097
 21
159.02376775827005
  0
LINE
  8
_1-1_
  6
DASHED1
 62
    7
 10
265.84734136440971
 20
159.39945149754152
 11
266.0473413644097
 21
159.02376775827005
  0
LINE
  8
ADD_LINE
  6
DOT
 62
    4
 10
266.0473413644097
 20
163.4602870672347
 11
266.0473413644097
 21
159.02376775827005
  0
LINE
  8
_1-1_
  6
CONTINUOUS
 62
    7
 10
265.44734136440974
 20
163.11790087238086
 11
266.64734136440973
 21
163.11790087238086
  0
LINE
  8
_1-1_
  6
CONTINUOUS
 62
    7
 10
265.84734136440971
 20
163.11790087238086
 11
265.84734136440971
 21
162.89813804477214
  0
LINE
  8
_1-1_
  6
CONTINUOUS
 62
    7
 10
266.24734136440969
 20
163.11790087238086
 11
266.24734136440969
 21
162.89813804477214
  0
LINE
  8
_1-1_
  6
CONTINUOUS
 62
    7
 10
264.32913004645189
 20
163.37573936485694
 11
264.32913004645189
 21
163.06900941542764
  0
LINE
  8
_1-1_
  6
CONTINUOUS
 62
    7
 10
266.28841817926298
 20
163.06900941542764
 11
264.32913004645189
 21
163.06900941542764
  0
LINE
  8
_1-1_
  6
CONTINUOUS
 62
    7
 10
265.44734136440974
 20
163.33823498754418
 11
265.44734136440974
 21
163.11790087238086
  0
LINE
  8
_1-1_
  6
CONTINUOUS
 62
    7
 10
265.44734136440974
 20
163.33823498754418
 11
266.64734136440973
 21
163.33823498754418
  0
LINE
  8
_1-1_
  6
CONTINUOUS
 62
    7
 10
266.64734136440973
 20
163.11790087238086
 11
266.64734136440973
 21
163.33823498754418
  0
LINE
  8
_1-1_
  6
CONTINUOUS
 62
    7
 10
265.84512387268353
 20
163.41790087238087
 11
265.73868090662546
 21
163.41790087238087
  0
LINE
  8
_1-1_
  6
CONTINUOUS
 62
    7
 10
266.28841817926298
 20
163.41790087238087
 11
265.84512387268353
 21
163.41790087238087
  0
LINE
  8
_1-1_
  6
CONTINUOUS
 62
    7
 10
266.28841817926298
 20
163.06900941542764
 11
266.28841817926298
 21
163.41790087238087
  0
LINE
  8
_1-1_
  6
CONTINUOUS
 62
    7
 10
265.73868090662546
 20
166.89977455728547
 11
265.73868090662546
 21
163.41790087238087
  0
LINE
  8
_1-1_
  6
CONTINUOUS
 62
    7
 10
264.32913004645189
 20
166.89977455728547
 11
265.73868090662546
 21
166.89977455728547
  0
LINE
  8
_1-1_
  6
DASHED1
 62
    7
 10
264.32913004645189
 20
166.89977455728547
 11
264.32913004645189
 21
163.37573936485694
  0
SOLID
  8
_1-4_
  6
CONTINUOUS
 62
    8
 10
249.55935336856243
 20
153.94321437018158
 11
251.14710998573719
 21
146.76467639901355
 12
249.55935336856243
 22
153.94321437018158
 13
258.72088055477053
 23
146.28942155142562
  0
LINE
  8
ADD_LINE
  6
DOT
 62
    7
 10
258.72088055477053
 20
155.834471492327
 11
258.72088055477053
 21
156.15067182122974
  0
LINE
  8
ADD_LINE
  6
DOT
 62
    7
 10
258.72088055477053
 20
146.28942155142562
 11
258.72088055477053
 21
143.45840266222962
  0
LINE
  8
ADD_LINE
  6
DOT
 62
    7
 10
263.31123145850933
 20
159.88124950512037
 11
264.3809000662207
 21
163.192478590598
  0
LINE
  8
ADD_LINE
  6
DOT
 62
    7
 10
264.37934080134249
 20
163.12705371405789
 11
264.38427475548724
 21
163.19194541093751
  0
SOLID
  8
ADD_LINE
  6
DOT
 62
    8
 10
251.14710998573719
 20
146.76467639901355
 11
248.29426351342354
 21
139.98871554579938
 12
258.72088055477053
 22
146.28942155142562
 13
258.72088055477053
 23
143.49885721373008
  0
SOLID
  8
ADD_LINE
  6
DOT
 62
    8
 10
258.72088055477053
 20
146.28942155142562
 11
258.72088055477053
 21
143.67587126129683
 12
265.82441621406781
 22
146.28348179060967
 13
265.7732054669346
 23
146.16977892130924
  0
SOLID
  8
ADD_LINE
  6
DOT
 62
    8
 10
249.55935336856243
 20
153.94321437018158
 11
258.72088055477053
 21
146.28942155142562
 12
249.55935336856243
 22
153.94321437018158
 13
258.72088055477053
 23
156.02728460583819
  0
SOLID
  8
ADD_LINE
  6
DOT
 62
    8
 10
249.55935336856237
 20
153.94321437018158
 11
258.72088055477053
 21
156.02728460583819
 12
251.85925456843972
 22
154.65469998439235
 13
253.37592233531331
 23
155.06833664808514
  0
SOLID
  8
ADD_LINE
  6
DOT
 62
    8
 10
258.72088055477053
 20
156.02728460583819
 11
254.87289311820149
 21
155.42288235982181
 12
253.37592233531331
 22
155.06833664808514
 13
253.37592233531331
 23
155.06833664808514
  0
SOLID
  8
ADD_LINE
  6
DOT
 62
    8
 10
258.72088055477047
 20
156.02728460583819
 11
258.72088055477053
 21
155.834471492327
 12
258.72088055477053
 22
156.02728460583819
 13
263.15266798182734
 23
156.20746044600438
  0
SOLID
  8
ADD_LINE
  6
DOT
 62
    8
 10
258.72088055477053
 20
155.834471492327
 11
263.12592940807195
 21
155.81682203952923
 12
263.15266798182734
 22
156.20746044600438
 13
263.15266798182734
 23
156.20746044600438
  0
SOLID
  8
ADD_LINE
  6
DOT
 62
    8
 10
258.72088055477047
 20
156.02728460583819
 11
263.75266798182736
 21
156.20746044600438
 12
259.6893628552499
 22
156.12610729388854
 13
260.54737789807359
 23
156.18919663527265
  0
SOLID
  8
ADD_LINE
  6
DOT
 62
    8
 10
263.75266798182736
 20
156.20746044600438
 11
263.31123145850933
 21
156.28124752560177
 12
260.54737789807359
 22
156.18919663527265
 13
261.26028745571381
 23
156.23335917424151
  0
SOLID
  8
ADD_LINE
  6
DOT
 62
    8
 10
263.31123145850933
 20
156.28124752560177
 11
262.52838321753404
 21
156.27752171321038
 12
261.26028745571381
 22
156.23335917424151
 13
262.03445666386955
 23
156.26165537587349
  0
SOLID
  8
ADD_LINE
  6
DOT
 62
    8
 10
264.32913004645189
 20
163.20201235780959
 11
253.7655554948434
 21
160.23229804734942
 12
264.32913004645189
 22
163.17804207332691
 13
263.31123145850916
 23
159.88124950512037
  0
SOLID
  8
ADD_LINE
  6
DOT
 62
    8
 10
264.32913004645189
 20
163.20201235780959
 11
263.31123145850916
 21
159.88124950512037
 12
264.35266798182732
 22
156.20746044600438
 13
263.31123145850933
 23
156.28124752560177
  0
SOLID
  8
ADD_LINE
  6
DOT
 62
    8
 10
266.64734136440973
 20
163.12705371405789
 11
267.71834659629559
 21
163.12705371405789
 12
271.80579108160896
 22
169.47727960052273
 13
271.80579108160896
 23
169.47727960052273
  0
SOLID
  8
ADD_LINE
  6
DOT
 62
    8
 10
271.80579108160896
 20
169.47727960052273
 11
265.65062075265945
 21
163.33823498754418
 12
266.64734136440973
 22
163.33823498754418
 13
266.64734136440973
 23
163.33823498754418
  0
SOLID
  8
ADD_LINE
  6
DOT
 62
    8
 10
271.80579108160896
 20
169.47727960052273
 11
266.64734136440973
 21
163.33823498754418
 12
266.64734136440973
 22
163.12705371405789
 13
266.64734136440973
 23
163.12705371405789
  0
SOLID
  8
ADD_LINE
  6
DOT
 62
    8
 10
267.71834659629559
 20
163.12705371405789
 11
267.80305604676943
 21
162.47366415487755
 12
267.71834659629559
 22
163.12705371405789
 13
271.80579108160896
 23
169.47727960052271
  0
ENDSEC
  0
EOF
