  0
SECTION
  2
HEADER
  9
$ACADVER
  1
AC1009
  9
$INSBASE
 10
0
 20
0
 30
0
  9
$EXTMIN
 10
0
 20
0
  9
$EXTMAX
 10
420
 20
297
  9
$LIMMIN
 10
0
 20
0
  9
$LIMMAX
 10
420
 20
297
  9
$LTSCALE
 40
1
  0
ENDSEC
  0
SECTION
  2
TABLES
  0
TABLE
  2
LTYPE
 70
     9
  0
LTYPE
  2
CONTINUOUS
 70
    64
  3
実線
 72
    65
 73
     0
 40
0.0
  0
LTYPE
  2
DASHED1
 70
    64
  3
--  --  --  --  --  --  --  --  
 72
    65
 73
     2
 40
2.5
 49
1.25
 49
-1.25
  0
LTYPE
  2
DASHED2
 70
    64
  3
----    ----    ----    ----    
 72
    65
 73
     2
 40
5.0
 49
2.5
 49
-2.5
  0
LTYPE
  2
DASHED3
 70
    64
  3
------  ------  ------  ------  
 72
    65
 73
     2
 40
5.0
 49
3.75
 49
-1.25
  0
LTYPE
  2
CENTER1
 70
    64
  3
----- - ----- - ----- - ----- - 
 72
    65
 73
     4
 40
10.0
 49
6.25
 49
-1.25
 49
1.25
 49
-1.25
  0
LTYPE
  2
CENTER2
 70
    64
  3
----------  --  ----------  --  
 72
    65
 73
     4
 40
20.0
 49
12.5
 49
-2.5
 49
2.5
 49
-2.5
  0
LTYPE
  2
PHANTOM1
 70
    64
  3
--- - - --- - - --- - - --- - - 
 72
    65
 73
     6
 40
10.0
 49
3.25
 49
-1.25
 49
1.25
 49
-1.25
 49
1.25
 49
-1.25
  0
LTYPE
  2
PHANTOM2
 70
    64
  3
--------  -  -  --------  -  -  
 72
    65
 73
     6
 40
20.0
 49
10.0
 49
-2.5
 49
1.25
 49
-2.5
 49
1.25
 49
-2.5
  0
LTYPE
  2
DOT
 70
    64
  3
-   -   -   -   -   -   -   -   
 72
    65
 73
     2
 40
2.5
 49
0.625
 49
-1.875
  0
LTYPE
  2
DUMMY
 70
    64
  3
ダミー
 72
    65
 73
     0
 40
0.0
  0
LTYPE
  2
RAND1
 70
    64
  3
ランダム線1
 72
    65
 73
     4
 40
10.0
 49
1.0
 49
-2.0
 49
3.0
 49
-4.0
  0
LTYPE
  2
RAND2
 70
    64
  3
ランダム線2
 72
    65
 73
     4
 40
14.0
 49
2.0
 49
-3.0
 49
4.0
 49
-5.0
  0
LTYPE
  2
RAND3
 70
    64
  3
ランダム線3
 72
    65
 73
     4
 40
18.0
 49
3.0
 49
-4.0
 49
5.0
 49
-6.0
  0
LTYPE
  2
RAND4
 70
    64
  3
ランダム線4
 72
    65
 73
     4
 40
22.0
 49
4.0
 49
-5.0
 49
6.0
 49
-7.0
  0
LTYPE
  2
RAND5
 70
    64
  3
ランダム線5
 72
    65
 73
     4
 40
26.0
 49
5.0
 49
-6.0
 49
7.0
 49
-8.0
  0
LTYPE
  2
LONG1
 70
    64
  3
----------  --  ----------  --  
 72
    65
 73
     4
 40
40.0
 49
32.5
 49
-2.5
 49
2.5
 49
-2.5
  0
LTYPE
  2
LONG2
 70
    64
  3
--------  -  -  --------  -  -  
 72
    65
 73
     6
 40
40.0
 49
30.0
 49
-2.5
 49
1.25
 49
-2.5
 49
1.25
 49
-2.5
  0
LTYPE
  2
LONG3
 70
    64
  3
+++++++++++++++..+++++++++++++++
 72
    65
 73
     2
 40
40.0
 49
37.5
 49
-2.5
  0
LTYPE
  2
LONG4
 70
    64
  3
+++++++++++++++..+++++++++++++++
 72
    65
 73
     2
 40
80.0
 49
75.0
 49
-5.0
  0
LTYPE
  2
LONG5
 70
    64
  3
----------  --  ----------  --  
 72
    65
 73
     4
 40
60.0
 49
37.5
 49
-7.5
 49
7.5
 49
-7.5
  0
LTYPE
  2
dashed
 70
   64
  3
-------   -------------   ------
 72
   65
 73
    2
 40
7.5
 49
6
 49
-1.5
  0
LTYPE
  2
dashed_spaced
 70
   64
  3
----        --------        ----
 72
   65
 73
    2
 40
12
 49
6
 49
-6
  0
LTYPE
  2
long_dashed_dotted
 70
   64
  3
------------- --- --------------
 72
   65
 73
    4
 40
15.25
 49
12
 49
-1.5
 49
0.25
 49
-1.5
  0
LTYPE
  2
long_dashed_double-dotted
 70
   64
  3
----------- --- --- ------------
 72
   65
 73
    6
 40
17
 49
12
 49
-1.5
 49
0.25
 49
-1.5
 49
0.25
 49
-1.5
  0
LTYPE
  2
long_dashed_triplicate-dotted
 70
   64
  3
--------- --- --- --- ----------
 72
   65
 73
    8
 40
18.75
 49
12
 49
-1.5
 49
0.25
 49
-1.5
 49
0.25
 49
-1.5
 49
0.25
 49
-1.5
  0
LTYPE
  2
dotted
 70
   64
  3
   -       -       -       -    
 72
   65
 73
    2
 40
1.75
 49
0.25
 49
-1.5
  0
LTYPE
  2
chain
 70
   64
  3
-------------- -- --------------
 72
   65
 73
    4
 40
18.5
 49
12
 49
-1.5
 49
3.5
 49
-1.5
  0
LTYPE
  2
chain_double_dash
 70
   64
  3
------------ -- -- -------------
 72
   65
 73
    6
 40
23.5
 49
12
 49
-1.5
 49
3.5
 49
-1.5
 49
3.5
 49
-1.5
  0
LTYPE
  2
dashed_dotted
 70
   64
  3
-----------     -     ----------
 72
   65
 73
    4
 40
9.25
 49
6
 49
-1.5
 49
0.25
 49
-1.5
  0
LTYPE
  2
double-dashed_dotted
 70
   64
  3
------   -----------   -   -----
 72
   65
 73
    6
 40
16.75
 49
6
 49
-1.5
 49
6
 49
-1.5
 49
0.25
 49
-1.5
  0
LTYPE
  2
dashed_double-dotted
 70
   64
  3
---------    -    -    ---------
 72
   65
 73
    6
 40
11
 49
6
 49
-1.5
 49
0.25
 49
-1.5
 49
0.25
 49
-1.5
  0
LTYPE
  2
double-dashed_double-dotted
 70
   64
  3
-----   ---------   -   -   ----
 72
   65
 73
    8
 40
18.5
 49
6
 49
-1.5
 49
6
 49
-1.5
 49
0.25
 49
-1.5
 49
0.25
 49
-1.5
  0
LTYPE
  2
dashed_triplicate-dotted
 70
   64
  3
-------    -    -    -    ------
 72
   65
 73
    8
 40
12.75
 49
6
 49
-1.5
 49
0.25
 49
-1.5
 49
0.25
 49
-1.5
 49
0.25
 49
-1.5
  0
LTYPE
  2
double-dashed_triplicate-dotted
 70
   64
  3
-----  ---------  -  -  -  -----
 72
   65
 73
   10
 40
20.25
 49
6
 49
-1.5
 49
6
 49
-1.5
 49
0.25
 49
-1.5
 49
0.25
 49
-1.5
 49
0.25
 49
-1.5
  0
LTYPE
  2
undefined
 70
   64
  3
--------------------------------
 72
   65
 73
    0
 40
0
  0
LTYPE
  2
DOT_17
 70
   64
  3
--             ---             -
 72
   65
 73
    2
 40
5
 49
1
 49
-4
  0
LTYPE
  2
DASHED
 70
   64
  3
---          ------          ---
 72
   65
 73
    2
 40
5
 49
2
 49
-3
  0
LTYPE
  2
DASHED2_19
 70
   64
  3
---          ------          ---
 72
   65
 73
    2
 40
10
 49
4
 49
-6
  0
LTYPE
  2
CENTER
 70
   64
  3
----------    ----    ----------
 72
   65
 73
    4
 40
9
 49
6
 49
-1
 49
1
 49
-1
  0
LTYPE
  2
CENTER2_21
 70
   64
  3
----------    ----    ----------
 72
   65
 73
    4
 40
18
 49
12
 49
-2
 49
2
 49
-2
  0
LTYPE
  2
PHANTOM
 70
   64
  3
---------   ---   ---   --------
 72
   65
 73
    6
 40
10
 49
5
 49
-1
 49
1
 49
-1
 49
1
 49
-1
  0
LTYPE
  2
PHANTOM2_23
 70
   64
  3
------    ----    ----    ------
 72
   65
 73
    6
 40
16
 49
6
 49
-2
 49
2
 49
-2
 49
2
 49
-2
  0
LTYPE
  2
HIDDEN
 70
   64
  3
--             ---             -
 72
   65
 73
    2
 40
2.5
 49
0.5
 49
-2
  0
ENDTAB
  0
TABLE
  2
STYLE
  5
3
100
AcDbSymbolTable
 70
     1
  0
STYLE
  5
10
100
AcDbSymbolTableRecord
100
AcDbTextStyleTableRecord
  2
STANDARD
 70
     0
 40
0.0
 41
1.0
 50
0.0
 71
     0
 42
0.2
  3
txt
  4
bigfont.shx
  0
STYLE
  5
26
100
AcDbSymbolTableRecord
100
AcDbTextStyleTableRecord
  2
TATEGAKI
 70
    68
 40
0.0
 41
1.0
 50
0.0
 71
     0
 42
1.0
  3
txt
  4
bigfont.shx
  0
ENDTAB
  0
TABLE
  2
LAYER
 70
    6
  0
LAYER
  2
_0-0_
 70
   64
 62
    7
  6
CONTINUOUS
  0
LAYER
  2
_1-0_
 70
   64
 62
    7
  6
CONTINUOUS
  0
LAYER
  2
_1-1_
 70
   64
 62
    7
  6
CONTINUOUS
  0
LAYER
  2
_1-2_
 70
   64
 62
    7
  6
CONTINUOUS
  0
LAYER
  2
_1-3_
 70
   64
 62
    7
  6
CONTINUOUS
  0
LAYER
  2
ADD_LINE
 70
   64
 62
    7
  6
CONTINUOUS
  0
ENDTAB
  0
ENDSEC
  0
SECTION
  2
BLOCKS
  0
ENDSEC
  0
SECTION
  2
ENTITIES
  0
LINE
  8
_0-0_
  6
CONTINUOUS
 62
    5
 10
6.7567526327597136
 20
280.13513513513516
 11
406.75677325274495
 21
280.13513513513516
  0
LINE
  8
_0-0_
  6
CONTINUOUS
 62
    5
 10
406.75677325274495
 20
10.13513513513513
 11
6.7567526327597136
 21
10.13513513513513
  0
LINE
  8
_0-0_
  6
CONTINUOUS
 62
    5
 10
406.75677325274495
 20
30.135133073136615
 11
6.7567402607685949
 21
30.135133073136615
  0
LINE
  8
_0-0_
  6
CONTINUOUS
 62
    5
 10
371.75678150073907
 20
10.13513513513513
 11
371.75678150073907
 21
30.135133073136615
  0
LINE
  8
_0-0_
  6
CONTINUOUS
 62
    5
 10
137.02703939901818
 20
30.135133073136615
 11
137.02703939901818
 21
10.13513513513513
  0
LINE
  8
_0-0_
  6
CONTINUOUS
 62
    5
 10
214.86486486486487
 20
30.135133073136615
 11
214.86486486486487
 21
10.13513513513513
  0
LINE
  8
_0-0_
  6
CONTINUOUS
 62
    5
 10
137.02703939901818
 20
20.135134104135886
 11
214.86486486486487
 21
20.135134104135886
  0
LINE
  8
ADD_LINE
  6
DOT
 62
    5
 10
224.59459459459461
 20
33.243243243243242
 11
224.59459459459461
 21
4.8648644782401504
  0
LINE
  8
_1-1_
  6
CONTINUOUS
 62
    7
 10
126.31341470254435
 20
136.32645065720018
 11
66.486474114495365
 21
136.32645065720018
  0
LINE
  8
_1-1_
  6
CONTINUOUS
 62
    7
 10
126.31341470254435
 20
136.32645065720018
 11
242.83313648120779
 21
136.32645065720018
  0
LINE
  8
_1-1_
  6
CONTINUOUS
 62
    7
 10
66.486474114495365
 20
133.32645313159841
 11
242.83313648120779
 21
133.32645313159841
  0
LINE
  8
_1-1_
  6
CONTINUOUS
 62
    7
 10
242.83313648120779
 20
136.32645065720018
 11
242.83313648120779
 21
133.32645313159841
  0
LINE
  8
_1-1_
  6
CONTINUOUS
 62
    7
 10
235.47618144267315
 20
132.72644867768159
 11
235.47618144267315
 21
133.32644075960727
  0
LINE
  8
_1-1_
  6
CONTINUOUS
 62
    7
 10
235.47618144267315
 20
133.32644075960727
 11
240.2761675860431
 21
133.32644075960727
  0
LINE
  8
_1-1_
  6
CONTINUOUS
 62
    7
 10
240.2761675860431
 20
133.32644075960727
 11
240.2761675860431
 21
132.72644867768159
  0
LINE
  8
_1-1_
  6
CONTINUOUS
 62
    7
 10
240.2761675860431
 20
132.72644867768159
 11
235.47618144267315
 21
132.72644867768159
  0
LINE
  8
_1-1_
  6
CONTINUOUS
 62
    7
 10
235.47618144267315
 20
132.72644867768159
 11
240.2761675860431
 21
133.32644075960727
  0
LINE
  8
_1-1_
  6
CONTINUOUS
 62
    7
 10
66.486474114495365
 20
132.72644867768159
 11
240.2761675860431
 21
132.72644867768159
  0
LINE
  8
_1-1_
  6
CONTINUOUS
 62
    3
 10
243.88814565297722
 20
132.47366415487755
 11
243.88814565297722
 21
136.32645065720018
  0
LINE
  8
_1-1_
  6
CONTINUOUS
 62
    3
 10
243.88814565297722
 20
136.32645065720018
 11
247.99698288376268
 21
136.32645065720018
  0
LINE
  8
_1-1_
  6
CONTINUOUS
 62
    7
 10
272.27033460462417
 20
131.49927087732263
 11
66.486474114495365
 21
131.49927087732263
  0
LINE
  8
_1-1_
  6
CONTINUOUS
 62
    3
 10
243.88814565297722
 20
132.47366415487755
 11
267.80305604676943
 21
132.47366415487755
  0
LINE
  8
_1-1_
  6
DASHED1
 62
    3
 10
271.80579108160896
 20
131.99859206740922
 11
66.486474114495365
 21
131.99859206740922
  0
LINE
  8
_1-1_
  6
CONTINUOUS
 62
    7
 10
271.30925358952703
 20
132.3484348606419
 11
268.30924369193411
 21
132.3484348606419
  0
LINE
  8
_1-1_
  6
CONTINUOUS
 62
    7
 10
203.09510514542865
 20
132.72644867768159
 11
203.09510514542865
 21
133.32644075960727
  0
LINE
  8
_1-1_
  6
CONTINUOUS
 62
    7
 10
203.09510514542865
 20
133.32644075960727
 11
207.89507891680745
 21
133.32644075960727
  0
LINE
  8
_1-1_
  6
CONTINUOUS
 62
    7
 10
207.89507891680745
 20
133.32644075960727
 11
207.89507891680745
 21
132.72644867768159
  0
LINE
  8
_1-1_
  6
CONTINUOUS
 62
    7
 10
207.89507891680745
 20
132.72644867768159
 11
203.09510514542865
 21
132.72644867768159
  0
LINE
  8
_1-1_
  6
CONTINUOUS
 62
    7
 10
203.09510514542865
 20
132.72644867768159
 11
207.89507891680745
 21
133.32644075960727
  0
LINE
  8
_1-1_
  6
CONTINUOUS
 62
    7
 10
141.45506162901182
 20
132.72644867768159
 11
141.45506162901182
 21
133.32644075960727
  0
LINE
  8
_1-1_
  6
CONTINUOUS
 62
    7
 10
141.45506162901182
 20
133.32644075960727
 11
146.25504777238177
 21
133.32644075960727
  0
LINE
  8
_1-1_
  6
CONTINUOUS
 62
    7
 10
146.25504777238177
 20
133.32644075960727
 11
146.25504777238177
 21
132.72644867768159
  0
LINE
  8
_1-1_
  6
CONTINUOUS
 62
    7
 10
146.25504777238177
 20
132.72644867768159
 11
141.45506162901182
 21
132.72644867768159
  0
LINE
  8
_1-1_
  6
CONTINUOUS
 62
    7
 10
141.45506162901182
 20
132.72644867768159
 11
146.25504777238177
 21
133.32644075960727
  0
LINE
  8
_1-1_
  6
CONTINUOUS
 62
    7
 10
80.341879354940886
 20
132.72644867768159
 11
80.341879354940886
 21
133.32644075960727
  0
LINE
  8
_1-1_
  6
CONTINUOUS
 62
    7
 10
80.341879354940886
 20
133.32644075960727
 11
85.141865498310821
 21
133.32644075960727
  0
LINE
  8
_1-1_
  6
CONTINUOUS
 62
    7
 10
85.141865498310821
 20
133.32644075960727
 11
85.141865498310821
 21
132.72644867768159
  0
LINE
  8
_1-1_
  6
CONTINUOUS
 62
    7
 10
85.141865498310821
 20
132.72644867768159
 11
80.341879354940886
 21
132.72644867768159
  0
LINE
  8
_1-1_
  6
CONTINUOUS
 62
    7
 10
80.341879354940886
 20
132.72644867768159
 11
85.141865498310821
 21
133.32644075960727
  0
LINE
  8
_1-3_
  6
CONTINUOUS
 62
    7
 10
255.03286000844597
 20
133.70864868164062
 11
232.83733471019849
 21
72.726918813344597
  0
LINE
  8
_1-3_
  6
CONTINUOUS
 62
    7
 10
255.03286000844597
 20
133.70864868164062
 11
255.9741953256968
 21
132.41811391469597
  0
LINE
  8
_1-3_
  6
CONTINUOUS
 62
    7
 10
232.83733471019849
 20
72.726918813344597
 11
223.7837837837838
 21
72.726918813344597
  0
LINE
  8
_1-3_
  6
CONTINUOUS
 62
    7
 10
113.60742929819469
 20
176.82719050226987
 11
126.5013328758446
 21
176.82719050226987
  0
LINE
  8
_1-3_
  6
CONTINUOUS
 62
    7
 10
113.60742929819469
 20
182.51539900496201
 11
124.43100387985642
 21
182.51539900496201
  0
LINE
  8
_1-3_
  6
CONTINUOUS
 62
    7
 10
113.60742929819469
 20
187.95627903293919
 11
122.45068111935178
 21
187.95627903293919
  0
LINE
  8
_1-3_
  6
CONTINUOUS
 62
    7
 10
113.60742929819469
 20
193.89179126636404
 11
120.29033351588895
 21
193.89179126636404
  0
LINE
  8
_1-1_
  6
CONTINUOUS
 62
    7
 10
272.27033460462417
 20
129.09926543364654
 11
66.486474114495365
 21
129.09926543364654
  0
LINE
  8
_1-1_
  6
CONTINUOUS
 62
    7
 10
272.27033460462417
 20
129.09926543364654
 11
274.26066630595443
 21
129.09926543364654
  0
LINE
  8
_1-1_
  6
CONTINUOUS
 62
    7
 10
274.26066630595443
 20
129.09926543364654
 11
274.67032767630911
 21
129.09926543364654
  0
LINE
  8
_1-1_
  6
CONTINUOUS
 62
    3
 10
189.27032058303422
 20
125.09926460884714
 11
189.67033180030617
 21
125.09926460884714
  0
LINE
  8
_1-1_
  6
CONTINUOUS
 62
    3
 10
189.67033180030617
 20
113.09927450644004
 11
189.27032058303422
 21
113.09927450644004
  0
LINE
  8
_1-1_
  6
CONTINUOUS
 62
    3
 10
188.27031728383659
 20
128.6992665883657
 11
181.07036281276393
 21
128.6992665883657
  0
LINE
  8
_1-1_
  6
CONTINUOUS
 62
    3
 10
189.27032058303422
 20
127.69926328916809
 11
189.27032058303422
 21
125.09926460884714
  0
LINE
  8
_1-1_
  6
CONTINUOUS
 62
    3
 10
189.67033180030617
 20
128.09926213444891
 11
189.67033180030617
 21
125.09926460884714
  0
LINE
  8
_1-1_
  6
CONTINUOUS
 62
    3
 10
188.67032850110854
 20
129.09926543364654
 11
180.67035159549198
 21
129.09926543364654
  0
LINE
  8
_1-1_
  6
CONTINUOUS
 62
    3
 10
189.27032058303422
 20
110.49926345412796
 11
189.27032058303422
 21
113.09927450644004
  0
LINE
  8
_1-1_
  6
CONTINUOUS
 62
    3
 10
189.67033180030617
 20
110.09926460884714
 11
189.67033180030617
 21
113.09927450644004
  0
LINE
  8
_1-1_
  6
CONTINUOUS
 62
    3
 10
181.07036281276393
 20
109.49927252692146
 11
188.27031728383659
 21
109.49927252692146
  0
LINE
  8
_1-1_
  6
CONTINUOUS
 62
    3
 10
180.0703595135663
 20
110.49926345412796
 11
180.0703595135663
 21
127.69926328916809
  0
LINE
  8
_1-1_
  6
CONTINUOUS
 62
    3
 10
179.67034829629435
 20
110.09926460884714
 11
179.67034829629435
 21
128.09926213444891
  0
LINE
  8
_1-1_
  6
CONTINUOUS
 62
    3
 10
180.67035159549198
 20
109.09926130964951
 11
188.67032850110854
 21
109.09926130964951
  0
LINE
  8
ADD_LINE
  6
DOT
 62
    3
 10
180.67035159549198
 20
129.09926543364654
 11
179.2720939017631
 21
129.09926543364654
  0
LINE
  8
_1-1_
  6
CONTINUOUS
 62
    3
 10
274.27031645903719
 20
125.08454193940034
 11
274.67032767630911
 21
125.08454193940034
  0
LINE
  8
_1-1_
  6
CONTINUOUS
 62
    3
 10
274.67032767630911
 20
113.08453946500212
 11
274.27031645903719
 21
113.08453946500212
  0
LINE
  8
_1-1_
  6
CONTINUOUS
 62
    3
 10
273.27031315983953
 20
128.68454391891893
 11
266.07035868876693
 21
128.68454391891893
  0
LINE
  8
_1-1_
  6
CONTINUOUS
 62
    3
 10
274.27031645903719
 20
127.68454061972129
 11
274.27031645903719
 21
125.08454193940034
  0
LINE
  8
_1-1_
  6
CONTINUOUS
 62
    3
 10
274.67032767630911
 20
128.08453946500211
 11
274.67032767630911
 21
125.08454193940034
  0
LINE
  8
_1-1_
  6
CONTINUOUS
 62
    3
 10
273.67032437711151
 20
129.08454276419977
 11
265.67034747149495
 21
129.08454276419977
  0
LINE
  8
_1-1_
  6
CONTINUOUS
 62
    3
 10
274.27031645903719
 20
110.48454078468117
 11
274.27031645903719
 21
113.08453946500212
  0
LINE
  8
_1-1_
  6
CONTINUOUS
 62
    3
 10
274.67032767630911
 20
110.08454193940034
 11
274.67032767630911
 21
113.08453946500212
  0
LINE
  8
_1-1_
  6
CONTINUOUS
 62
    3
 10
266.07035868876693
 20
109.48453748548354
 11
273.27031315983953
 21
109.48453748548354
  0
LINE
  8
_1-1_
  6
CONTINUOUS
 62
    3
 10
265.07035538956927
 20
110.48454078468117
 11
265.07035538956927
 21
127.68454061972129
  0
LINE
  8
_1-1_
  6
CONTINUOUS
 62
    3
 10
264.67034417229729
 20
110.08454193940034
 11
264.67034417229729
 21
128.08453946500211
  0
LINE
  8
_1-1_
  6
CONTINUOUS
 62
    3
 10
265.67034747149495
 20
109.08455101219384
 11
273.67032437711151
 21
109.08455101219384
  0
LINE
  8
ADD_LINE
  6
DOT
 62
    3
 10
265.67034747149495
 20
129.08454276419977
 11
264.27208977776604
 21
129.08454276419977
  0
LINE
  8
ADD_LINE
  6
DOT
 62
    3
 10
264.67034417229729
 20
128.08453946500211
 11
264.67034417229729
 21
129.59579055373734
  0
LINE
  8
_1-1_
  6
CONTINUOUS
 62
    3
 10
99.270314397038646
 20
125.09926460884714
 11
99.670325614310599
 21
125.09926460884714
  0
LINE
  8
_1-1_
  6
CONTINUOUS
 62
    3
 10
99.670325614310599
 20
113.09927450644004
 11
99.270314397038646
 21
113.09927450644004
  0
LINE
  8
_1-1_
  6
CONTINUOUS
 62
    3
 10
98.270311097841017
 20
128.6992665883657
 11
91.070356626768373
 21
128.6992665883657
  0
LINE
  8
_1-1_
  6
CONTINUOUS
 62
    3
 10
99.270314397038646
 20
127.69926328916809
 11
99.270314397038646
 21
125.09926460884714
  0
LINE
  8
_1-1_
  6
CONTINUOUS
 62
    3
 10
99.670325614310599
 20
128.09926213444891
 11
99.670325614310599
 21
125.09926460884714
  0
LINE
  8
_1-1_
  6
CONTINUOUS
 62
    3
 10
98.670322315112969
 20
129.09926543364654
 11
90.67034540949642
 21
129.09926543364654
  0
LINE
  8
_1-1_
  6
CONTINUOUS
 62
    3
 10
99.270314397038646
 20
110.49926345412796
 11
99.270314397038646
 21
113.09927450644004
  0
LINE
  8
_1-1_
  6
CONTINUOUS
 62
    3
 10
99.670325614310599
 20
110.09926460884714
 11
99.670325614310599
 21
113.09927450644004
  0
LINE
  8
_1-1_
  6
CONTINUOUS
 62
    3
 10
91.070356626768373
 20
109.49927252692146
 11
98.270311097841017
 21
109.49927252692146
  0
LINE
  8
_1-1_
  6
CONTINUOUS
 62
    3
 10
90.070353327570743
 20
110.49926345412796
 11
90.070353327570743
 21
127.69926328916809
  0
LINE
  8
_1-1_
  6
CONTINUOUS
 62
    3
 10
89.670342110298776
 20
110.09926460884714
 11
89.670342110298776
 21
128.09926213444891
  0
LINE
  8
_1-1_
  6
CONTINUOUS
 62
    3
 10
90.67034540949642
 20
109.09926130964951
 11
98.670322315112969
 21
109.09926130964951
  0
LINE
  8
ADD_LINE
  6
DOT
 62
    3
 10
90.67034540949642
 20
129.09926543364654
 11
89.272087715767526
 21
129.09926543364654
  0
LINE
  8
ADD_LINE
  6
DOT
 62
    3
 10
90.67034540949642
 20
109.09926130964951
 11
88.771046818913646
 21
109.09926130964951
  0
LINE
  8
ADD_LINE
  6
DOT
 62
    3
 10
89.670342110298776
 20
110.09926460884714
 11
89.670342110298776
 21
108.66757779508025
  0
LINE
  8
_1-3_
  6
CONTINUOUS
 62
    7
 10
143.87288273991766
 20
129.09926543364654
 11
117.64015403953759
 21
201.17309157912797
  0
LINE
  8
_1-1_
  6
CONTINUOUS
 62
    7
 10
117.64015403953759
 20
201.17309157912797
 11
112.78317013302366
 21
201.17309157912797
  0
LINE
  8
_0-0_
  6
CONTINUOUS
 62
    5
 10
396.48648648648651
 20
25.945945945945951
 11
383.91891891891896
 21
13.378379924877265
  0
LINE
  8
_1-3_
  6
CONTINUOUS
 62
    7
 10
294.9550484322213
 20
132.3484348606419
 11
278.47412109375
 21
132.3484348606419
  0
LINE
  8
_1-3_
  6
CONTINUOUS
 62
    7
 10
112.78317013302366
 20
201.17309157912797
 11
69.371610074429896
 21
201.17309157912797
  0
LINE
  8
_1-3_
  6
CONTINUOUS
 62
    7
 10
113.60742929819469
 20
187.95627903293919
 11
68.787602605046459
 21
187.95627903293919
  0
LINE
  8
_1-3_
  6
CONTINUOUS
 62
    7
 10
113.60742929819469
 20
182.51539900496201
 11
99.072690396695535
 21
182.51539900496201
  0
LINE
  8
_1-3_
  6
CONTINUOUS
 62
    7
 10
113.60742929819469
 20
176.82719050226987
 11
80.968378427866355
 21
176.82719050226987
  0
LINE
  8
_1-0_
  6
CONTINUOUS
 62
    3
 10
106.95984711518159
 20
146.16986661343961
 11
108.34932069520693
 21
146.16986661343961
  0
LINE
  8
ADD_LINE
  6
DOT
 62
    4
 10
76.663742065429688
 20
139.82699420001057
 11
86.846954758102839
 21
139.82699420001057
  0
LINE
  8
_1-0_
  6
CONTINUOUS
 62
    3
 10
108.34932069520693
 20
146.16986661343961
 11
108.34932069520693
 21
142.98863178974875
  0
LINE
  8
_1-0_
  6
CONTINUOUS
 62
    3
 10
108.34932069520693
 20
146.16986661343961
 11
108.34932069520693
 21
142.98863178974875
  0
LINE
  8
_1-0_
  6
CONTINUOUS
 62
    3
 10
106.02091196421031
 20
149.05204566749367
 11
100.34925099965689
 21
145.82708822714318
  0
LINE
  8
_1-0_
  6
CONTINUOUS
 62
    3
 10
159.95982402079815
 20
146.16986661343961
 11
161.34929760082349
 21
146.16986661343961
  0
LINE
  8
_1-0_
  6
CONTINUOUS
 62
    3
 10
100.34925099965689
 20
145.82708822714318
 11
100.34925099965689
 21
143.02713342615075
  0
LINE
  8
_1-0_
  6
CONTINUOUS
 62
    3
 10
104.92171004011824
 20
145.39577587230787
 11
100.34925099965689
 21
143.02713342615075
  0
LINE
  8
_1-0_
  6
CONTINUOUS
 62
    3
 10
161.34929760082349
 20
146.16986661343961
 11
161.34929760082349
 21
142.98863178974875
  0
LINE
  8
_1-0_
  6
CONTINUOUS
 62
    3
 10
161.34929760082349
 20
146.16986661343961
 11
161.34929760082349
 21
142.98863178974875
  0
LINE
  8
_1-0_
  6
CONTINUOUS
 62
    3
 10
159.02088886982688
 20
149.05205803948482
 11
153.34924646326013
 21
145.82708822714318
  0
LINE
  8
_1-0_
  6
CONTINUOUS
 62
    3
 10
212.95982567039698
 20
146.16985424144849
 11
214.34932399440459
 21
146.16985424144849
  0
LINE
  8
_1-0_
  6
CONTINUOUS
 62
    3
 10
153.34924646326013
 20
145.82708822714318
 11
153.34924646326013
 21
143.02713342615075
  0
LINE
  8
_1-0_
  6
CONTINUOUS
 62
    3
 10
157.92171168971706
 20
145.39576350031672
 11
153.34924646326013
 21
143.02713342615075
  0
LINE
  8
_1-0_
  6
CONTINUOUS
 62
    3
 10
214.34932399440459
 20
146.16985424144849
 11
214.34932399440459
 21
142.98863178974875
  0
LINE
  8
_1-0_
  6
CONTINUOUS
 62
    3
 10
214.34932399440459
 20
146.16985424144849
 11
214.34932399440459
 21
142.98863178974875
  0
LINE
  8
_1-0_
  6
CONTINUOUS
 62
    3
 10
214.34932399440459
 20
142.38532401419977
 11
214.34932399440459
 21
142.34664916992187
  0
LINE
  8
_1-0_
  6
CONTINUOUS
 62
    3
 10
212.95989990234375
 20
146.16986661343961
 11
214.34937348236909
 21
146.16986661343961
  0
LINE
  8
ADD_LINE
  6
DOT
 62
    4
 10
212.51824456292232
 20
142.98863178974875
 11
218.38902653874578
 21
142.98863178974875
  0
LINE
  8
_1-0_
  6
CONTINUOUS
 62
    3
 10
214.34937348236909
 20
146.16986661343961
 11
214.34937348236909
 21
142.98863178974875
  0
LINE
  8
_1-0_
  6
CONTINUOUS
 62
    3
 10
214.34937348236909
 20
146.16986661343961
 11
214.34937348236909
 21
142.98863178974875
  0
LINE
  8
_1-0_
  6
CONTINUOUS
 62
    3
 10
212.02096475137247
 20
149.05204566749367
 11
206.34929760082349
 21
145.82708822714318
  0
LINE
  8
_1-0_
  6
CONTINUOUS
 62
    3
 10
265.95987680796031
 20
146.16986661343961
 11
267.34935038798568
 21
146.16986661343961
  0
LINE
  8
_1-0_
  6
CONTINUOUS
 62
    3
 10
206.34929760082349
 20
145.82708822714318
 11
206.34929760082349
 21
143.02713342615075
  0
LINE
  8
_1-0_
  6
CONTINUOUS
 62
    3
 10
210.92176282728042
 20
145.39577587230787
 11
206.34929760082349
 21
143.02713342615075
  0
LINE
  8
ADD_LINE
  6
DOT
 62
    4
 10
235.6637903161951
 20
139.82699420001057
 11
245.84700300886826
 21
139.82699420001057
  0
LINE
  8
_1-0_
  6
CONTINUOUS
 62
    3
 10
267.34935038798568
 20
146.16986661343961
 11
267.34935038798568
 21
142.98863178974875
  0
LINE
  8
_1-0_
  6
CONTINUOUS
 62
    3
 10
267.34935038798568
 20
146.16986661343961
 11
267.34935038798568
 21
142.98863178974875
  0
LINE
  8
_1-3_
  6
CONTINUOUS
 62
    3
 10
271.55330348659209
 20
176.69468647724875
 11
271.55330348659209
 21
189.18833139780406
  0
LINE
  8
_1-1_
  6
CONTINUOUS
 62
    7
 10
268.30924369193411
 20
132.3484348606419
 11
268.30924369193411
 21
154.15414346230997
  0
LINE
  8
_1-1_
  6
CONTINUOUS
 62
    7
 10
268.30924369193411
 20
154.15414346230997
 11
271.30925358952703
 21
154.15414346230997
  0
LINE
  8
_1-1_
  6
CONTINUOUS
 62
    7
 10
271.30925358952703
 20
154.15414346230997
 11
271.30925358952703
 21
132.3484348606419
  0
LINE
  8
_1-1_
  6
CONTINUOUS
 62
    7
 10
268.30924369193411
 20
154.15414346230997
 11
271.30925358952703
 21
132.3484348606419
  0
LINE
  8
_1-1_
  6
CONTINUOUS
 62
    3
 10
265.53145949904984
 20
154.27937275654563
 11
265.53145949904984
 21
150.77550114812078
  0
LINE
  8
_1-1_
  6
CONTINUOUS
 62
    3
 10
265.36748112858953
 20
154.27937275654563
 11
267.80305604676943
 21
154.27937275654563
  0
LINE
  8
_1-1_
  6
CONTINUOUS
 62
    3
 10
267.80305604676943
 20
132.47366415487755
 11
267.80305604676943
 21
154.27937275654563
  0
LINE
  8
_1-1_
  6
CONTINUOUS
 62
    7
 10
252.11836531355576
 20
152.03998050174198
 11
251.57785776499156
 21
154.99088596653294
  0
LINE
  8
_1-1_
  6
CONTINUOUS
 62
    7
 10
251.57785776499156
 20
154.99088596653294
 11
269.28329055373734
 21
158.23395600190034
  0
LINE
  8
_1-1_
  6
CONTINUOUS
 62
    7
 10
269.28329055373734
 20
158.23395600190034
 11
269.82379810230151
 21
155.28305053710937
  0
LINE
  8
_1-1_
  6
CONTINUOUS
 62
    7
 10
269.82379810230151
 20
155.28305053710937
 11
252.11836531355576
 21
152.03998050174198
  0
LINE
  8
_1-1_
  6
CONTINUOUS
 62
    7
 10
251.57785776499156
 20
154.99088596653294
 11
269.82379810230151
 21
155.28305053710937
  0
LINE
  8
_1-1_
  6
CONTINUOUS
 62
    7
 10
267.67032932590797
 20
166.14683408994932
 11
267.67032932590797
 21
174.14683573954815
  0
LINE
  8
_1-1_
  6
CONTINUOUS
 62
    7
 10
267.67032932590797
 20
174.14683573954815
 11
271.27033130542651
 21
174.14683573954815
  0
LINE
  8
_1-1_
  6
CONTINUOUS
 62
    7
 10
271.27033130542651
 20
174.14683573954815
 11
271.27033130542651
 21
166.14683408994932
  0
LINE
  8
_1-1_
  6
CONTINUOUS
 62
    7
 10
271.27033130542651
 20
166.14683408994932
 11
267.67032932590797
 21
166.14683408994932
  0
LINE
  8
_1-1_
  6
CONTINUOUS
 62
    7
 10
271.27033130542651
 20
174.14683573954815
 11
267.67032932590797
 21
166.14683408994932
  0
LINE
  8
_1-1_
  6
CONTINUOUS
 62
    7
 10
272.27033460462417
 20
191.09610480231208
 11
272.27033460462417
 21
206.67057346653294
  0
LINE
  8
_1-1_
  6
CONTINUOUS
 62
    7
 10
267.67032932590797
 20
164.58511764938768
 11
267.67032932590797
 21
206.67057346653294
  0
LINE
  8
_1-1_
  6
CONTINUOUS
 62
    7
 10
265.27033625422297
 20
164.58511764938768
 11
265.27033625422297
 21
206.67057346653294
  0
LINE
  8
_1-3_
  6
CONTINUOUS
 62
    7
 10
265.93233675570104
 20
192.31722032701649
 11
256.27097464896536
 21
218.86158711201438
  0
LINE
  8
_1-3_
  6
CONTINUOUS
 62
    7
 10
256.27097464896536
 20
218.86158711201438
 11
252.75077201224664
 21
218.86158711201438
  0
LINE
  8
_1-3_
  6
CONTINUOUS
 62
    7
 10
250.53831358213685
 20
185.73626131624789
 11
247.74122908308701
 21
185.73626131624789
  0
LINE
  8
_1-3_
  6
CONTINUOUS
 62
    7
 10
245.17686173722552
 20
154.02228278082771
 11
241.64621713999156
 21
154.02228278082771
  0
LINE
  8
_1-1_
  6
CONTINUOUS
 62
    3
 10
271.55330348659209
 20
159.18833139780406
 11
271.55330348659209
 21
176.69468647724875
  0
LINE
  8
_1-3_
  6
CONTINUOUS
 62
    3
 10
251.09010438661318
 20
155.44012533651818
 11
250.61400542388094
 21
150.32194395323057
  0
LINE
  8
_1-3_
  6
CONTINUOUS
 62
    3
 10
251.09010438661318
 20
155.44012533651818
 11
271.55330348659209
 21
159.18833139780406
  0
LINE
  8
_1-3_
  6
CONTINUOUS
 62
    3
 10
250.61400542388094
 20
150.32194395323057
 11
251.67332004856419
 21
151.51367599899706
  0
LINE
  8
_1-1_
  6
CONTINUOUS
 62
    7
 10
265.27033625422297
 20
164.58511764938768
 11
265.27033625422297
 21
159.02262094858531
  0
LINE
  8
_1-1_
  6
CONTINUOUS
 62
    7
 10
265.27033625422297
 20
159.02262094858531
 11
267.67032932590797
 21
159.02262094858531
  0
LINE
  8
_1-1_
  6
CONTINUOUS
 62
    7
 10
267.67032932590797
 20
164.58511764938768
 11
267.67032932590797
 21
159.02262094858531
  0
LINE
  8
_1-3_
  6
CONTINUOUS
 62
    7
 10
261.46198994404563
 20
155.72371611724029
 11
250.53831358213685
 21
185.73626131624789
  0
LINE
  8
_1-3_
  6
CONTINUOUS
 62
    7
 10
250.76726965002112
 20
152.56392195418076
 11
242.99763447529563
 21
173.91081526472763
  0
LINE
  8
_1-3_
  6
CONTINUOUS
 62
    7
 10
245.17686173722552
 20
154.02228278082771
 11
250.46135979729732
 21
147.69756007838893
  0
LINE
  8
_1-3_
  6
CONTINUOUS
 62
    7
 10
242.99763447529563
 20
173.91081526472763
 11
240.80175451330237
 21
173.91081526472763
  0
LINE
  8
_1-1_
  6
CONTINUOUS
 62
    7
 10
274.67032767630911
 20
206.67057346653294
 11
274.67032767630911
 21
129.09926543364654
  0
LINE
  8
_1-1_
  6
CONTINUOUS
 62
    7
 10
272.27033460462417
 20
191.09610480231208
 11
272.27033460462417
 21
129.09926543364654
  0
LINE
  8
_1-1_
  6
DASHED1
 62
    3
 10
271.80579108160896
 20
131.99859206740922
 11
271.80579108160896
 21
199.18832727380703
  0
LINE
  8
_1-3_
  6
CONTINUOUS
 62
    7
 10
306.18649044552365
 20
199.18832727380703
 11
278.10788541226776
 21
199.18832727380703
  0
LINE
  8
_1-3_
  6
CONTINUOUS
 62
    7
 10
306.18649044552365
 20
189.18833139780406
 11
278.10788541226776
 21
189.18833139780406
  0
LINE
  8
_1-3_
  6
CONTINUOUS
 62
    7
 10
306.18649044552365
 20
199.18832727380703
 11
306.18649044552365
 21
189.18833139780406
  0
LINE
  8
_1-3_
  6
CONTINUOUS
 62
    7
 10
306.18649044552365
 20
159.18833139780406
 11
278.10788541226776
 21
159.18833139780406
  0
LINE
  8
_1-3_
  6
CONTINUOUS
 62
    7
 10
306.18649044552365
 20
189.18833139780406
 11
306.18649044552365
 21
159.18833139780406
  0
LINE
  8
_1-3_
  6
CONTINUOUS
 62
    7
 10
294.9550484322213
 20
199.18832727380703
 11
278.47412109375
 21
199.18832727380703
  0
LINE
  8
_1-3_
  6
CONTINUOUS
 62
    7
 10
294.9550484322213
 20
132.3484348606419
 11
294.9550484322213
 21
199.18832727380703
  0
ARC
  8
_1-1_
  6
CONTINUOUS
 62
    3
 10
180.67035159549198
 20
128.09926213444891
 40
0.9999999162313101
 50
90
 51
180
  0
ARC
  8
_1-1_
  6
CONTINUOUS
 62
    3
 10
181.07036281276393
 20
127.69926328916809
 40
0.9999999162313101
 50
90
 51
180
  0
ARC
  8
_1-1_
  6
CONTINUOUS
 62
    3
 10
188.27031728383659
 20
127.69926328916809
 40
0.9999999162313101
 50
0
 51
90
  0
ARC
  8
_1-1_
  6
CONTINUOUS
 62
    3
 10
188.67032850110854
 20
128.09926213444891
 40
0.9999999162313101
 50
0
 51
90
  0
ARC
  8
_1-1_
  6
CONTINUOUS
 62
    3
 10
188.27031728383659
 20
110.49926345412796
 40
0.9999999162313101
 50
270
 51
0
  0
ARC
  8
_1-1_
  6
CONTINUOUS
 62
    3
 10
188.67032850110854
 20
110.09926460884714
 40
0.9999999162313101
 50
270
 51
0
  0
ARC
  8
_1-1_
  6
CONTINUOUS
 62
    3
 10
181.07036281276393
 20
110.49926345412796
 40
0.9999999162313101
 50
180
 51
270
  0
ARC
  8
_1-1_
  6
CONTINUOUS
 62
    3
 10
180.67035159549198
 20
110.09926460884714
 40
0.9999999162313101
 50
180
 51
270
  0
ARC
  8
_1-1_
  6
CONTINUOUS
 62
    3
 10
265.67034747149495
 20
128.08453946500211
 40
0.9999999162313101
 50
90
 51
180
  0
ARC
  8
_1-1_
  6
CONTINUOUS
 62
    3
 10
266.07035868876693
 20
127.68454061972129
 40
0.9999999162313101
 50
90
 51
180
  0
ARC
  8
_1-1_
  6
CONTINUOUS
 62
    3
 10
273.27031315983953
 20
127.68454061972129
 40
0.9999999162313101
 50
0
 51
90
  0
ARC
  8
_1-1_
  6
CONTINUOUS
 62
    3
 10
273.67032437711151
 20
128.08453946500211
 40
0.9999999162313101
 50
0
 51
90
  0
ARC
  8
_1-1_
  6
CONTINUOUS
 62
    3
 10
273.27031315983953
 20
110.48454078468117
 40
0.9999999162313101
 50
270
 51
0
  0
ARC
  8
_1-1_
  6
CONTINUOUS
 62
    3
 10
273.67032437711151
 20
110.08454193940034
 40
0.9999999162313101
 50
270
 51
0
  0
ARC
  8
_1-1_
  6
CONTINUOUS
 62
    3
 10
266.07035868876693
 20
110.48454078468117
 40
0.9999999162313101
 50
180
 51
270
  0
ARC
  8
_1-1_
  6
CONTINUOUS
 62
    3
 10
265.67034747149495
 20
110.08454193940034
 40
0.9999999162313101
 50
180
 51
270
  0
ARC
  8
_1-1_
  6
CONTINUOUS
 62
    3
 10
90.67034540949642
 20
128.09926213444891
 40
0.9999999162313101
 50
90
 51
180
  0
ARC
  8
_1-1_
  6
CONTINUOUS
 62
    3
 10
91.070356626768373
 20
127.69926328916809
 40
0.9999999162313101
 50
90
 51
180
  0
ARC
  8
_1-1_
  6
CONTINUOUS
 62
    3
 10
98.270311097841017
 20
127.69926328916809
 40
0.9999999162313101
 50
0
 51
90
  0
ARC
  8
_1-1_
  6
CONTINUOUS
 62
    3
 10
98.670322315112969
 20
128.09926213444891
 40
0.9999999162313101
 50
0
 51
90
  0
ARC
  8
_1-1_
  6
CONTINUOUS
 62
    3
 10
98.270311097841017
 20
110.49926345412796
 40
0.9999999162313101
 50
270
 51
0
  0
ARC
  8
_1-1_
  6
CONTINUOUS
 62
    3
 10
98.670322315112969
 20
110.09926460884714
 40
0.9999999162313101
 50
270
 51
0
  0
ARC
  8
_1-1_
  6
CONTINUOUS
 62
    3
 10
91.070356626768373
 20
110.49926345412796
 40
0.9999999162313101
 50
180
 51
270
  0
ARC
  8
_1-1_
  6
CONTINUOUS
 62
    3
 10
90.67034540949642
 20
110.09926460884714
 40
0.9999999162313101
 50
180
 51
270
  0
ARC
  8
_1-0_
  6
CONTINUOUS
 62
    3
 10
105.91995651657517
 20
146.14047076251057
 40
1.0402513194728542
 50
309.08184814453125
 51
1.6144714355468908
  0
ARC
  8
_1-0_
  6
CONTINUOUS
 62
    3
 10
107.86077550939612
 20
146.60362862251901
 40
3.0627306731971538
 50
42.6905517578125
 51
126.92074584960937
  0
ARC
  8
_1-0_
  6
CONTINUOUS
 62
    3
 10
158.91995816617398
 20
146.14047076251057
 40
1.0402513194728542
 50
309.08184814453125
 51
1.6144714355468908
  0
ARC
  8
_1-0_
  6
CONTINUOUS
 62
    3
 10
137.48199462890625
 20
185.99196562895904
 40
46.274049088761615
 50
233.73811340332031
 51
298.51937866210937
  0
ARC
  8
_1-0_
  6
CONTINUOUS
 62
    3
 10
107.67405741923565
 20
141.67720072978253
 40
4.6263270764737516
 50
47.123046875000007
 51
126.50717163085939
  0
ARC
  8
_1-0_
  6
CONTINUOUS
 62
    3
 10
137.78889424092063
 20
185.43134122281461
 40
48.543530025997683
 50
236.25315856933597
 51
299.03501892089844
  0
ARC
  8
_1-0_
  6
CONTINUOUS
 62
    3
 10
160.86077715899495
 20
146.60362862251901
 40
3.0627306731971538
 50
42.6905517578125
 51
126.92074584960937
  0
ARC
  8
_1-0_
  6
CONTINUOUS
 62
    3
 10
211.91995981577281
 20
146.14045839051943
 40
1.0402513194728542
 50
309.08184814453125
 51
1.6144714355468908
  0
ARC
  8
_1-0_
  6
CONTINUOUS
 62
    3
 10
190.48197153452281
 20
185.99196562895904
 40
46.274049088761615
 50
233.73811340332031
 51
298.51937866210937
  0
ARC
  8
_1-0_
  6
CONTINUOUS
 62
    3
 10
160.67405906883448
 20
141.67718835779138
 40
4.6263270764737516
 50
47.123046875000007
 51
126.50717163085939
  0
ARC
  8
_1-0_
  6
CONTINUOUS
 62
    3
 10
190.78889589051943
 20
185.43134122281461
 40
48.543530025997683
 50
236.25315856933597
 51
299.03501892089844
  0
ARC
  8
_1-0_
  6
CONTINUOUS
 62
    3
 10
84.481974421320743
 20
185.99196562895904
 40
46.274049088761615
 50
251.19485473632813
 51
298.51937866210937
  0
ARC
  8
_1-0_
  6
CONTINUOUS
 62
    3
 10
84.788898777317357
 20
185.43134122281461
 40
48.543530025997683
 50
251.72351074218753
 51
299.03501892089844
  0
ARC
  8
_1-0_
  6
CONTINUOUS
 62
    3
 10
211.92000930373734
 20
146.14047076251057
 40
1.0402513194728542
 50
309.08184814453125
 51
1.6144714355468908
  0
ARC
  8
_1-0_
  6
CONTINUOUS
 62
    3
 10
213.86082829655828
 20
146.60362862251901
 40
3.0627306731971538
 50
42.6905517578125
 51
126.92074584960937
  0
ARC
  8
_1-0_
  6
CONTINUOUS
 62
    3
 10
264.92001095333615
 20
146.14047076251057
 40
1.0402513194728542
 50
309.08184814453125
 51
1.6144714355468908
  0
ARC
  8
_1-0_
  6
CONTINUOUS
 62
    3
 10
243.48204741606844
 20
185.99196562895904
 40
46.274049088761615
 50
233.73811340332031
 51
298.51937866210937
  0
ARC
  8
_1-0_
  6
CONTINUOUS
 62
    3
 10
213.67411020639781
 20
141.67720072978253
 40
4.6263270764737516
 50
47.123046875000007
 51
126.50717163085939
  0
ARC
  8
_1-0_
  6
CONTINUOUS
 62
    3
 10
243.78894702808279
 20
185.43134122281461
 40
48.543530025997683
 50
236.25315856933597
 51
299.03501892089844
  0
ARC
  8
_1-1_
  6
CONTINUOUS
 62
    6
 10
211.4757805901605
 20
150.8237766575169
 40
44.628933055980788
 50
347.53073120117187
 51
2.4896697998047057
  0
TEXT
  8
_0-0_
 62
    7
 10
141.89189395389042
 20
14.594594594594582
 40
2.5
 41
1
 50
0
  1
縮尺
  0
TEXT
  8
_0-0_
 62
    7
 10
377.10214563318203
 20
22.865493362014362
 40
2.5
 41
1
 50
0
  1
ＮＯ
  0
TEXT
  8
_0-0_
 62
    7
 10
14.594594336844779
 20
24.324324324324323
 40
2.5
 41
1
 50
0
  1
和形
  0
TEXT
  8
_0-0_
 62
    7
 10
383.23801896378802
 20
18.523427086907475
 40
3
 41
1
 50
0
  1
Ｊ
  0
TEXT
  8
_1-0_
 62
    7
 10
169.90681828679266
 20
13.3181144095756
 40
2.5
 41
1
 50
0
  1
1/5
  0
TEXT
  8
_1-3_
 62
    7
 10
211.75310701937292
 20
71.844412313925261
 40
2.5
 41
1
 50
0
  1
捨谷
  0
TEXT
  8
_1-3_
 62
    7
 10
39.721904445338907
 20
15.395235628695104
 40
2.5
 41
1
 50
0
  1
壁際　　3
  0
TEXT
  8
_1-3_
 62
    7
 10
25.556194717819636
 20
20.211577544341225
 40
2.5
 41
1
 50
0
  1
鉄骨
  0
TEXT
  8
_1-3_
 62
    7
 10
393.26952547640417
 20
15.668420018376537
 40
2.5
 41
1
 50
0
  1
38
  0
TEXT
  8
_1-3_
 62
    7
 10
60.057900918496614
 20
189.87663475242823
 40
2.5
 41
1
 50
0
  1
※　地域により瓦桟木の大きさは、異なります
  0
TEXT
  8
_1-3_
 62
    7
 10
49.231620479274454
 20
198.83803908889359
 40
2.5
 41
1
 50
0
  1
桟瓦
  0
TEXT
  8
_1-3_
 62
    7
 10
49.231620479274454
 20
192.83804403769005
 40
2.5
 41
1
 50
0
  1
瓦桟
  0
TEXT
  8
_1-3_
 62
    7
 10
49.231619448275183
 20
174.8380588840794
 40
2.5
 41
1
 50
0
  1
野地板　ｔ＝12
  0
TEXT
  8
_1-3_
 62
    7
 10
242.97219353753167
 20
218.12584954339107
 40
2.5
 41
1
 50
0
  1
外壁
  0
TEXT
  8
_1-3_
 62
    7
 10
226.9314451475401
 20
184.50376355970229
 40
2.5
 41
1
 50
0
  1
雨押え板
  0
TEXT
  8
_1-3_
 62
    7
 10
239.40456081081084
 20
184.22964972418708
 40
2.5
 41
1
 50
0
  1
15ｘ90
  0
TEXT
  8
_1-3_
 62
    7
 10
228.27610737568625
 20
172.65487258498734
 40
2.5
 41
1
 50
0
  1
水切鉄板
  0
TEXT
  8
_1-1_
 62
    7
 10
309.6988946038324
 20
171.34316934121622
 40
2.5
 41
1
 50
0
  1
水切り鉄板立上がり寸法
  0
TEXT
  8
_1-1_
 62
    7
 10
296.14187292150552
 20
145.14508221600508
 40
2.5
 41
1
 50
0
  1
下葺き材立上がり寸法
  0
TEXT
  8
_1-3_
 62
    7
 10
305.68648879592484
 20
192.93832933580555
 40
2.5
 41
1
 50
90
  1
50
  0
TEXT
  8
_1-3_
 62
    7
 10
305.68648879592484
 20
172.31333139780406
 40
2.5
 41
1
 50
90
  1
150
  0
TEXT
  8
_1-3_
 62
    7
 10
308.42757848791177
 20
195.2206544618349
 40
3
 41
1
 50
0
  1
下葺き材立上げ長さは、300ｍｍ以上かつ
  0
TEXT
  8
_1-3_
 62
    7
 10
308.81420156118031
 20
189.57357045766472
 40
3
 41
1
 50
0
  1
雨押え板上端より50mm以上とする
  0
TEXT
  8
_1-3_
 62
    7
 10
294.71087481524495
 20
160.14338725322003
 40
2.5
 41
1
 50
90
  1
300  以上
  0
POINT
  8
_1-3_
 62
    7
 10
294.9550484322213
 20
132.3484348606419
  0
POINT
  8
_1-3_
 62
    7
 10
306.18649044552365
 20
199.18832727380703
  0
POINT
  8
_1-3_
 62
    7
 10
306.18649044552365
 20
189.18833139780406
  0
POINT
  8
_1-3_
 62
    7
 10
306.18649044552365
 20
159.18833139780406
  0
POINT
  8
_1-3_
 62
    7
 10
294.9550484322213
 20
199.18832727380703
  0
TEXT
  8
_1-1_
 62
    7
 10
59.974983833931589
 20
192.83804403769005
 40
2.5
 41
1
 50
0
  1
１５×２１　（樹脂桟木）
  0
TEXT
  8
_1-3_
 62
    7
 10
49.231620479274454
 20
186.83804898648648
 40
2.5
 41
1
 50
0
  1
縦桟
  0
TEXT
  8
_1-1_
 62
    7
 10
49.012662011223881
 20
180.83805393528294
 40
2.5
 41
1
 50
0
  1
ルーフィング
  0
LINE
  8
_1-0_
  6
CONTINUOUS
 62
    7
 10
99.072690396695535
 20
182.51539900496201
 11
80.968378427866355
 21
182.51539900496201
  0
TEXT
  8
_1-1_
 62
    7
 10
233.72686148086524
 20
153.13485336938436
 40
2.5
 41
1
 50
0
  1
葺き土
  0
LINE
  8
_1-2_
  6
CONTINUOUS
 62
    7
 10
250.46135979729732
 20
147.69756007838893
 11
256.58017886855242
 21
147.69756007838893
  0
ARC
  8
_1-2_
  6
CONTINUOUS
 62
    1
 10
211.4757805901605
 20
150.8237766575169
 40
44.628933055980788
 50
347.53073120117187
 51
2.4896697998047057
  0
SOLID
  8
_1-2_
  6
CONTINUOUS
 62
    8
 10
256.31710820805637
 20
146.90871301940714
 11
255.05200548443645
 21
141.1876835862198
 12
256.55059647611125
 22
141.63740941785082
 13
256.55059647611125
 23
141.63740941785082
  0
SOLID
  8
_1-2_
  6
CONTINUOUS
 62
    8
 10
256.31710820805637
 20
146.90871301940714
 11
256.55059647611125
 21
141.63740941785082
 12
258.39179225565277
 22
142.2081801095087
 13
258.39179225565277
 23
142.2081801095087
  0
SOLID
  8
_1-2_
  6
CONTINUOUS
 62
    8
 10
256.31710820805637
 20
146.90871301940714
 11
258.39179225565277
 21
142.2081801095087
 12
260.69328698007973
 22
143.03671821030238
 13
260.69328698007973
 23
143.03671821030238
  0
SOLID
  8
_1-2_
  6
CONTINUOUS
 62
    8
 10
256.31710820805637
 20
146.90871301940714
 11
260.69328698007973
 21
143.03671821030238
 12
262.73701429537084
 22
143.90208022668691
 13
262.73701429537084
 23
143.90208022668691
  0
SOLID
  8
_1-2_
  6
CONTINUOUS
 62
    8
 10
256.31710820805637
 20
146.90871301940714
 11
262.73701429537084
 21
143.90208022668691
 12
264.59662203270778
 22
144.85950203204851
 13
264.59662203270778
 23
144.85950203204851
  0
SOLID
  8
_1-2_
  6
CONTINUOUS
 62
    8
 10
256.31710820805637
 20
146.90871301940714
 11
264.59662203270778
 21
144.85950203204851
 12
265.57586830626377
 22
145.33300969621172
 13
265.57586830626377
 23
145.33300969621172
  0
SOLID
  8
_1-2_
  6
CONTINUOUS
 62
    8
 10
256.31710820805637
 20
146.90871301940714
 11
265.57586830626377
 21
145.33300969621172
 12
265.74955983582367
 22
145.51067569081798
 13
265.74955983582367
 23
145.51067569081798
  0
SOLID
  8
_1-2_
  6
CONTINUOUS
 62
    8
 10
256.31710820805637
 20
146.90871301940714
 11
265.74955983582367
 21
145.51067569081798
 12
265.86739942926806
 22
145.70787664311266
 13
265.86739942926806
 23
145.70787664311266
  0
SOLID
  8
_1-2_
  6
CONTINUOUS
 62
    8
 10
256.31710820805637
 20
146.90871301940714
 11
265.86739942926806
 21
145.70787664311266
 12
265.93954611913193
 22
145.91950693338009
 13
265.93954611913193
 23
145.91950693338009
  0
SOLID
  8
_1-2_
  6
CONTINUOUS
 62
    8
 10
256.31710820805637
 20
146.90871301940714
 11
265.93954611913193
 21
145.91950693338009
 12
265.9659999054154
 22
146.0565856441215
 13
265.9659999054154
 23
146.0565856441215
  0
SOLID
  8
_1-2_
  6
CONTINUOUS
 62
    8
 10
256.31710820805637
 20
146.90871301940714
 11
265.9659999054154
 21
146.0565856441215
 12
265.95987680796031
 22
146.16986661343961
 13
265.95987680796031
 23
146.16986661343961
  0
SOLID
  8
_1-2_
  6
CONTINUOUS
 62
    8
 10
256.31710820805637
 20
146.90871301940714
 11
265.95987680796031
 21
146.16986661343961
 12
267.78695068673676
 22
146.20620444018704
 13
267.78695068673676
 23
146.20620444018704
  0
SOLID
  8
_1-2_
  6
CONTINUOUS
 62
    8
 10
256.31710820805637
 20
146.90871301940714
 11
267.78695068673676
 21
146.20620444018704
 12
267.77841577514039
 22
154.92477178335588
 13
267.77841577514039
 23
154.92477178335588
  0
SOLID
  8
_1-2_
  6
CONTINUOUS
 62
    8
 10
256.31710820805637
 20
146.90871301940714
 11
267.77841577514039
 21
154.92477178335588
 12
256.06258704599372
 22
152.76242458462514
 13
256.06258704599372
 23
152.76242458462514
  0
ENDSEC
  0
EOF
