  0
SECTION
  2
HEADER
  9
$ACADVER
  1
AC1009
  9
$INSBASE
 10
0
 20
0
 30
0
  9
$EXTMIN
 10
0
 20
0
  9
$EXTMAX
 10
420
 20
297
  9
$LIMMIN
 10
0
 20
0
  9
$LIMMAX
 10
420
 20
297
  9
$LTSCALE
 40
1
  0
ENDSEC
  0
SECTION
  2
TABLES
  0
TABLE
  2
LTYPE
 70
     9
  0
LTYPE
  2
CONTINUOUS
 70
    64
  3
実線
 72
    65
 73
     0
 40
0.0
  0
LTYPE
  2
DASHED1
 70
    64
  3
--  --  --  --  --  --  --  --  
 72
    65
 73
     2
 40
2.5
 49
1.25
 49
-1.25
  0
LTYPE
  2
DASHED2
 70
    64
  3
----    ----    ----    ----    
 72
    65
 73
     2
 40
5.0
 49
2.5
 49
-2.5
  0
LTYPE
  2
DASHED3
 70
    64
  3
------  ------  ------  ------  
 72
    65
 73
     2
 40
5.0
 49
3.75
 49
-1.25
  0
LTYPE
  2
CENTER1
 70
    64
  3
----- - ----- - ----- - ----- - 
 72
    65
 73
     4
 40
10.0
 49
6.25
 49
-1.25
 49
1.25
 49
-1.25
  0
LTYPE
  2
CENTER2
 70
    64
  3
----------  --  ----------  --  
 72
    65
 73
     4
 40
20.0
 49
12.5
 49
-2.5
 49
2.5
 49
-2.5
  0
LTYPE
  2
PHANTOM1
 70
    64
  3
--- - - --- - - --- - - --- - - 
 72
    65
 73
     6
 40
10.0
 49
3.25
 49
-1.25
 49
1.25
 49
-1.25
 49
1.25
 49
-1.25
  0
LTYPE
  2
PHANTOM2
 70
    64
  3
--------  -  -  --------  -  -  
 72
    65
 73
     6
 40
20.0
 49
10.0
 49
-2.5
 49
1.25
 49
-2.5
 49
1.25
 49
-2.5
  0
LTYPE
  2
DOT
 70
    64
  3
-   -   -   -   -   -   -   -   
 72
    65
 73
     2
 40
2.5
 49
0.625
 49
-1.875
  0
LTYPE
  2
DUMMY
 70
    64
  3
ダミー
 72
    65
 73
     0
 40
0.0
  0
LTYPE
  2
RAND1
 70
    64
  3
ランダム線1
 72
    65
 73
     4
 40
10.0
 49
1.0
 49
-2.0
 49
3.0
 49
-4.0
  0
LTYPE
  2
RAND2
 70
    64
  3
ランダム線2
 72
    65
 73
     4
 40
14.0
 49
2.0
 49
-3.0
 49
4.0
 49
-5.0
  0
LTYPE
  2
RAND3
 70
    64
  3
ランダム線3
 72
    65
 73
     4
 40
18.0
 49
3.0
 49
-4.0
 49
5.0
 49
-6.0
  0
LTYPE
  2
RAND4
 70
    64
  3
ランダム線4
 72
    65
 73
     4
 40
22.0
 49
4.0
 49
-5.0
 49
6.0
 49
-7.0
  0
LTYPE
  2
RAND5
 70
    64
  3
ランダム線5
 72
    65
 73
     4
 40
26.0
 49
5.0
 49
-6.0
 49
7.0
 49
-8.0
  0
LTYPE
  2
LONG1
 70
    64
  3
----------  --  ----------  --  
 72
    65
 73
     4
 40
40.0
 49
32.5
 49
-2.5
 49
2.5
 49
-2.5
  0
LTYPE
  2
LONG2
 70
    64
  3
--------  -  -  --------  -  -  
 72
    65
 73
     6
 40
40.0
 49
30.0
 49
-2.5
 49
1.25
 49
-2.5
 49
1.25
 49
-2.5
  0
LTYPE
  2
LONG3
 70
    64
  3
+++++++++++++++..+++++++++++++++
 72
    65
 73
     2
 40
40.0
 49
37.5
 49
-2.5
  0
LTYPE
  2
LONG4
 70
    64
  3
+++++++++++++++..+++++++++++++++
 72
    65
 73
     2
 40
80.0
 49
75.0
 49
-5.0
  0
LTYPE
  2
LONG5
 70
    64
  3
----------  --  ----------  --  
 72
    65
 73
     4
 40
60.0
 49
37.5
 49
-7.5
 49
7.5
 49
-7.5
  0
LTYPE
  2
dashed
 70
   64
  3
-------   -------------   ------
 72
   65
 73
    2
 40
7.5
 49
6
 49
-1.5
  0
LTYPE
  2
dashed_spaced
 70
   64
  3
----        --------        ----
 72
   65
 73
    2
 40
12
 49
6
 49
-6
  0
LTYPE
  2
long_dashed_dotted
 70
   64
  3
------------- --- --------------
 72
   65
 73
    4
 40
15.25
 49
12
 49
-1.5
 49
0.25
 49
-1.5
  0
LTYPE
  2
long_dashed_double-dotted
 70
   64
  3
----------- --- --- ------------
 72
   65
 73
    6
 40
17
 49
12
 49
-1.5
 49
0.25
 49
-1.5
 49
0.25
 49
-1.5
  0
LTYPE
  2
long_dashed_triplicate-dotted
 70
   64
  3
--------- --- --- --- ----------
 72
   65
 73
    8
 40
18.75
 49
12
 49
-1.5
 49
0.25
 49
-1.5
 49
0.25
 49
-1.5
 49
0.25
 49
-1.5
  0
LTYPE
  2
dotted
 70
   64
  3
   -       -       -       -    
 72
   65
 73
    2
 40
1.75
 49
0.25
 49
-1.5
  0
LTYPE
  2
chain
 70
   64
  3
-------------- -- --------------
 72
   65
 73
    4
 40
18.5
 49
12
 49
-1.5
 49
3.5
 49
-1.5
  0
LTYPE
  2
chain_double_dash
 70
   64
  3
------------ -- -- -------------
 72
   65
 73
    6
 40
23.5
 49
12
 49
-1.5
 49
3.5
 49
-1.5
 49
3.5
 49
-1.5
  0
LTYPE
  2
dashed_dotted
 70
   64
  3
-----------     -     ----------
 72
   65
 73
    4
 40
9.25
 49
6
 49
-1.5
 49
0.25
 49
-1.5
  0
LTYPE
  2
double-dashed_dotted
 70
   64
  3
------   -----------   -   -----
 72
   65
 73
    6
 40
16.75
 49
6
 49
-1.5
 49
6
 49
-1.5
 49
0.25
 49
-1.5
  0
LTYPE
  2
dashed_double-dotted
 70
   64
  3
---------    -    -    ---------
 72
   65
 73
    6
 40
11
 49
6
 49
-1.5
 49
0.25
 49
-1.5
 49
0.25
 49
-1.5
  0
LTYPE
  2
double-dashed_double-dotted
 70
   64
  3
-----   ---------   -   -   ----
 72
   65
 73
    8
 40
18.5
 49
6
 49
-1.5
 49
6
 49
-1.5
 49
0.25
 49
-1.5
 49
0.25
 49
-1.5
  0
LTYPE
  2
dashed_triplicate-dotted
 70
   64
  3
-------    -    -    -    ------
 72
   65
 73
    8
 40
12.75
 49
6
 49
-1.5
 49
0.25
 49
-1.5
 49
0.25
 49
-1.5
 49
0.25
 49
-1.5
  0
LTYPE
  2
double-dashed_triplicate-dotted
 70
   64
  3
-----  ---------  -  -  -  -----
 72
   65
 73
   10
 40
20.25
 49
6
 49
-1.5
 49
6
 49
-1.5
 49
0.25
 49
-1.5
 49
0.25
 49
-1.5
 49
0.25
 49
-1.5
  0
LTYPE
  2
undefined
 70
   64
  3
--------------------------------
 72
   65
 73
    0
 40
0
  0
ENDTAB
  0
TABLE
  2
STYLE
  5
3
100
AcDbSymbolTable
 70
     1
  0
STYLE
  5
10
100
AcDbSymbolTableRecord
100
AcDbTextStyleTableRecord
  2
STANDARD
 70
     0
 40
0.0
 41
1.0
 50
0.0
 71
     0
 42
0.2
  3
txt
  4
bigfont.shx
  0
STYLE
  5
26
100
AcDbSymbolTableRecord
100
AcDbTextStyleTableRecord
  2
TATEGAKI
 70
    68
 40
0.0
 41
1.0
 50
0.0
 71
     0
 42
1.0
  3
txt
  4
bigfont.shx
  0
ENDTAB
  0
TABLE
  2
LAYER
 70
   11
  0
LAYER
  2
_0-0_
 70
   64
 62
    7
  6
CONTINUOUS
  0
LAYER
  2
_1-0_
 70
   64
 62
    7
  6
CONTINUOUS
  0
LAYER
  2
_1-1_
 70
   64
 62
    7
  6
CONTINUOUS
  0
LAYER
  2
_1-2_
 70
   64
 62
    7
  6
CONTINUOUS
  0
LAYER
  2
_1-3_
 70
   64
 62
    7
  6
CONTINUOUS
  0
LAYER
  2
_1-4_
 70
   64
 62
    7
  6
CONTINUOUS
  0
LAYER
  2
_1-5_
 70
   64
 62
    7
  6
CONTINUOUS
  0
LAYER
  2
_1-6_
 70
   64
 62
    7
  6
CONTINUOUS
  0
LAYER
  2
_1-b_
 70
   64
 62
    7
  6
CONTINUOUS
  0
LAYER
  2
_1-c_
 70
   64
 62
    7
  6
CONTINUOUS
  0
LAYER
  2
ADD_LINE
 70
   64
 62
    7
  6
CONTINUOUS
  0
ENDTAB
  0
ENDSEC
  0
SECTION
  2
BLOCKS
  0
ENDSEC
  0
SECTION
  2
ENTITIES
  0
LINE
  8
_0-0_
  6
CONTINUOUS
 62
    5
 10
6.7567526327597136
 20
280.13513513513516
 11
406.75677325274495
 21
280.13513513513516
  0
LINE
  8
_0-0_
  6
CONTINUOUS
 62
    5
 10
406.75677325274495
 20
30.135133073136615
 11
6.7567402607685949
 21
30.135133073136615
  0
LINE
  8
_0-0_
  6
CONTINUOUS
 62
    5
 10
371.75678150073907
 20
10.13513513513513
 11
371.75678150073907
 21
30.135133073136615
  0
LINE
  8
_0-0_
  6
CONTINUOUS
 62
    5
 10
137.02703939901818
 20
30.135133073136615
 11
137.02703939901818
 21
10.13513513513513
  0
LINE
  8
_0-0_
  6
CONTINUOUS
 62
    5
 10
214.86486486486487
 20
30.135133073136615
 11
214.86486486486487
 21
10.13513513513513
  0
LINE
  8
_0-0_
  6
CONTINUOUS
 62
    5
 10
137.02703939901818
 20
20.135134104135886
 11
214.86486486486487
 21
20.135134104135886
  0
LINE
  8
_0-0_
  6
CONTINUOUS
 62
    5
 10
396.48648648648651
 20
25.945945945945951
 11
383.91891891891896
 21
13.378379924877265
  0
LINE
  8
ADD_LINE
  6
DOT
 62
    7
 10
235.13513513513516
 20
149.47297792176943
 11
257.37764925570104
 21
149.47297792176943
  0
LINE
  8
_1-2_
  6
CONTINUOUS
 62
    7
 10
111.81362667599241
 20
165.14556884765625
 11
116.54347600163641
 21
165.14556884765625
  0
LINE
  8
_1-2_
  6
CONTINUOUS
 62
    7
 10
98.63717156487543
 20
179.08588306323904
 11
111.46962346257391
 21
179.08588306323904
  0
LINE
  8
_1-2_
  6
CONTINUOUS
 62
    7
 10
142.10163425754857
 20
94.925128833667657
 11
111.46962346257391
 21
179.08588306323904
  0
LINE
  8
_1-0_
  6
CONTINUOUS
 62
    7
 10
235.13513513513516
 20
149.47297792176943
 11
237.75938291807435
 21
150.65388447529563
  0
LINE
  8
ADD_LINE
  6
DOT
 62
    7
 10
237.75938291807435
 20
150.65388447529563
 11
239.23669763513516
 21
147.37097662848396
  0
LINE
  8
_1-0_
  6
CONTINUOUS
 62
    4
 10
236.77110826646961
 20
146.26145646378802
 11
238.81585198479732
 21
148.30620018211573
  0
LINE
  8
_1-0_
  6
CONTINUOUS
 62
    4
 10
232.65702531144427
 20
144.41013645481419
 11
238.1136177681588
 21
149.86670416754646
  0
LINE
  8
_1-0_
  6
CONTINUOUS
 62
    4
 10
228.54291761243667
 20
142.55876695787586
 11
235.72057775548987
 21
149.73642710092906
  0
LINE
  8
_1-0_
  6
CONTINUOUS
 62
    4
 10
224.42885940139359
 20
140.70744694890203
 11
231.60649480046453
 21
147.88508234797297
  0
LINE
  8
_1-0_
  6
CONTINUOUS
 62
    4
 10
220.31480119035052
 20
138.85612693992823
 11
227.49241184543919
 21
146.03374996700802
  0
LINE
  8
_1-0_
  6
CONTINUOUS
 62
    4
 10
216.20069349134292
 20
137.00478218697214
 11
223.37832889041385
 21
144.18240521405195
  0
LINE
  8
_1-0_
  6
CONTINUOUS
 62
    4
 10
212.08663528029984
 20
135.15343743401604
 11
219.26427067937078
 21
142.33108520507812
  0
LINE
  8
_1-0_
  6
CONTINUOUS
 62
    4
 10
207.97255232527451
 20
133.30211742504224
 11
215.15018772434544
 21
140.47974045212206
  0
LINE
  8
_1-0_
  6
CONTINUOUS
 62
    4
 10
203.85846937024917
 20
131.45077267208615
 11
211.03612951330237
 21
138.62842044314823
  0
LINE
  8
_1-0_
  6
CONTINUOUS
 62
    4
 10
199.74441115920609
 20
129.5994402911212
 11
206.92204655827703
 21
136.77707569019216
  0
LINE
  8
_1-0_
  6
CONTINUOUS
 62
    4
 10
195.63035294816302
 20
127.74810791015625
 11
202.80798834723396
 21
134.92575568121833
  0
LINE
  8
_1-0_
  6
CONTINUOUS
 62
    4
 10
191.51626999313768
 20
125.8967755291913
 11
198.69390539220862
 21
133.07441092826227
  0
LINE
  8
_1-0_
  6
CONTINUOUS
 62
    4
 10
187.40218703811234
 20
124.04544314822635
 11
194.57983480917443
 21
131.22307854729729
  0
LINE
  8
_1-0_
  6
CONTINUOUS
 62
    4
 10
183.28810408308701
 20
122.19409839527027
 11
190.46576422614021
 21
129.37174616633234
  0
LINE
  8
_1-0_
  6
CONTINUOUS
 62
    4
 10
179.17404587204393
 20
120.34277838629646
 11
186.35170601509714
 21
127.52041378536741
  0
LINE
  8
_1-0_
  6
CONTINUOUS
 62
    4
 10
175.05996291701859
 20
118.49143363334038
 11
182.23761068808068
 21
125.66908140440246
  0
LINE
  8
_1-0_
  6
CONTINUOUS
 62
    4
 10
170.94587996199326
 20
116.64010125237543
 11
178.12354010504646
 21
123.8177490234375
  0
LINE
  8
_1-0_
  6
CONTINUOUS
 62
    4
 10
166.83182175095018
 20
114.78876887141048
 11
174.00945715002112
 21
121.96641664247255
  0
LINE
  8
_1-0_
  6
CONTINUOUS
 62
    4
 10
162.71776353990711
 20
112.93743649044553
 11
169.89539893897805
 21
120.1150842615076
  0
LINE
  8
_1-0_
  6
CONTINUOUS
 62
    4
 10
158.60368058488177
 20
111.08610410948059
 11
165.78131598395271
 21
118.26373950855152
  0
LINE
  8
_1-0_
  6
CONTINUOUS
 62
    4
 10
154.48961000184755
 20
109.23477172851562
 11
161.66725777290964
 21
116.41241949957771
  0
LINE
  8
_1-0_
  6
CONTINUOUS
 62
    4
 10
150.37552704682221
 20
107.38343934755068
 11
157.5531748178843
 21
114.56108711861276
  0
LINE
  8
_1-0_
  6
CONTINUOUS
 62
    4
 10
146.26143171980576
 20
105.5320945945946
 11
153.43907949086784
 21
112.70972999366555
  0
LINE
  8
_1-0_
  6
CONTINUOUS
 62
    4
 10
142.14736113677154
 20
103.68076221362965
 11
149.32500890783362
 21
110.8583976127006
  0
LINE
  8
_1-0_
  6
CONTINUOUS
 62
    4
 10
138.03329055373734
 20
101.8294298326647
 11
145.21092595280828
 21
109.00706523173565
  0
LINE
  8
_1-0_
  6
CONTINUOUS
 62
    4
 10
133.91921997070313
 20
99.978097451699753
 11
141.09686774176521
 21
107.1557328507707
  0
LINE
  8
_1-0_
  6
CONTINUOUS
 62
    4
 10
129.80513701567779
 20
98.126758884739232
 11
136.98278478673987
 21
105.30440046980574
  0
LINE
  8
_1-0_
  6
CONTINUOUS
 62
    4
 10
125.69106643264359
 20
96.275426503774284
 11
132.86870183171453
 21
103.45306808884079
  0
LINE
  8
_1-0_
  6
CONTINUOUS
 62
    4
 10
121.57698347761826
 20
94.424087936813777
 11
128.75464362067146
 21
101.60173570787585
  0
LINE
  8
_1-0_
  6
CONTINUOUS
 62
    4
 10
117.46291289458405
 20
92.572755555848829
 11
124.64054829365499
 21
99.750390954919766
  0
LINE
  8
_1-0_
  6
CONTINUOUS
 62
    4
 10
113.34884231154983
 20
90.721416988888308
 11
120.52647771062078
 21
97.899064759950392
  0
LINE
  8
_1-0_
  6
CONTINUOUS
 62
    4
 10
109.23477172851562
 20
88.87008460792336
 11
116.41240712758658
 21
96.04773237898543
  0
LINE
  8
_1-0_
  6
CONTINUOUS
 62
    4
 10
105.12068877349029
 20
87.018752226958412
 11
112.29832417256124
 21
94.196393812024922
  0
LINE
  8
_1-0_
  6
CONTINUOUS
 62
    4
 10
102.53161456133869
 20
89.801367682379649
 11
105.25415781381969
 21
87.078812057907527
  0
LINE
  8
_1-0_
  6
CONTINUOUS
 62
    4
 10
104.09211854676943
 20
90.503595713022591
 11
106.81466179925043
 21
87.781040088550469
  0
LINE
  8
_1-0_
  6
CONTINUOUS
 62
    4
 10
105.65262253220017
 20
91.205823743665547
 11
108.37517815667231
 21
88.483268119193411
  0
LINE
  8
_1-0_
  6
CONTINUOUS
 62
    4
 10
107.21313888962204
 20
91.90805177430849
 11
109.93568214210305
 21
89.185496149836368
  0
LINE
  8
_1-0_
  6
CONTINUOUS
 62
    4
 10
108.77363050306167
 20
92.610279804951446
 11
111.49618612753379
 21
89.88772418047931
  0
LINE
  8
_1-0_
  6
CONTINUOUS
 62
    4
 10
110.33414686048354
 20
93.312507835594388
 11
113.05669011296453
 21
90.589952211122267
  0
LINE
  8
_1-0_
  6
CONTINUOUS
 62
    4
 10
111.89465084591428
 20
94.014735866237331
 11
114.61720647038641
 21
91.292180241765209
  0
LINE
  8
_1-0_
  6
CONTINUOUS
 62
    4
 10
113.45515483134503
 20
94.716963896880287
 11
116.17771045581715
 21
91.994414458403725
  0
LINE
  8
_1-0_
  6
CONTINUOUS
 62
    4
 10
115.01565881677577
 20
95.419191927523229
 11
117.73821444124789
 21
92.696636303051108
  0
LINE
  8
_1-0_
  6
CONTINUOUS
 62
    4
 10
116.57617517419764
 20
96.121419958166186
 11
119.29871842667863
 21
93.398870519689623
  0
LINE
  8
_1-0_
  6
CONTINUOUS
 62
    4
 10
118.13667915962839
 20
96.823654174804688
 11
120.85923478410051
 21
94.101098550332566
  0
LINE
  8
_1-0_
  6
CONTINUOUS
 62
    4
 10
119.69719551705026
 20
97.525882205447644
 11
122.41973876953125
 21
94.803326580975508
  0
LINE
  8
_1-0_
  6
CONTINUOUS
 62
    4
 10
121.25768713048987
 20
98.228104050095027
 11
123.98024275496201
 21
95.505554611618464
  0
LINE
  8
_1-0_
  6
CONTINUOUS
 62
    4
 10
122.81820348791175
 20
98.930338266733543
 11
125.54074674039275
 21
96.207782642261407
  0
LINE
  8
_1-0_
  6
CONTINUOUS
 62
    4
 10
124.37870747334249
 20
99.632560111380911
 11
127.10125072582349
 21
96.910010672904349
  0
LINE
  8
_1-0_
  6
CONTINUOUS
 62
    4
 10
125.9391990867821
 20
100.33478814202387
 11
128.66175471125422
 21
97.612238703547305
  0
LINE
  8
_1-0_
  6
CONTINUOUS
 62
    4
 10
127.49971544420397
 20
101.03701617266681
 11
130.22227106867609
 21
98.314466734190248
  0
LINE
  8
_1-0_
  6
CONTINUOUS
 62
    4
 10
129.06021942963471
 20
101.73925038930533
 11
131.78277505410685
 21
99.016694764833204
  0
LINE
  8
_1-0_
  6
CONTINUOUS
 62
    4
 10
130.62073578705659
 20
102.44147841994827
 11
133.34327903953761
 21
99.718922795476146
  0
LINE
  8
_1-0_
  6
CONTINUOUS
 62
    4
 10
132.18123977248734
 20
103.14370645059122
 11
134.90379539695948
 21
100.42115082611909
  0
LINE
  8
_1-0_
  6
CONTINUOUS
 62
    4
 10
133.74174375791807
 20
103.84594066722974
 11
136.46429938239021
 21
101.12337885676205
  0
LINE
  8
_1-0_
  6
CONTINUOUS
 62
    4
 10
135.30224774334883
 20
104.54816251187712
 11
138.02480336782097
 21
101.82560688740499
  0
LINE
  8
_1-0_
  6
CONTINUOUS
 62
    4
 10
136.86275172877956
 20
105.25038435652449
 11
139.58530735325169
 21
102.52783491804793
  0
LINE
  8
_1-0_
  6
CONTINUOUS
 62
    4
 10
138.42325571421031
 20
105.95261857316301
 11
141.14581133868245
 21
103.23006294869089
  0
LINE
  8
_1-0_
  6
CONTINUOUS
 62
    4
 10
139.98377207163219
 20
106.65484041781039
 11
142.70632769610432
 21
103.9322971653294
  0
LINE
  8
_1-0_
  6
CONTINUOUS
 62
    4
 10
141.54428842905406
 20
107.35707463444891
 11
144.26683168153505
 21
104.63451900997678
  0
LINE
  8
_1-0_
  6
CONTINUOUS
 62
    4
 10
143.10478004249367
 20
108.05929647909629
 11
145.82733566696581
 21
105.33675322661529
  0
LINE
  8
_1-0_
  6
CONTINUOUS
 62
    4
 10
144.66529639991555
 20
108.76153069573481
 11
147.38785202438768
 21
106.03897507126267
  0
LINE
  8
_1-0_
  6
CONTINUOUS
 62
    4
 10
146.2258003853463
 20
109.46376491237332
 11
148.94835600981841
 21
106.74120928790119
  0
LINE
  8
_1-0_
  6
CONTINUOUS
 62
    4
 10
147.78630437077703
 20
110.1659867570207
 11
150.50885999524917
 21
107.44343113254857
  0
LINE
  8
_1-0_
  6
CONTINUOUS
 62
    4
 10
149.34680835620779
 20
110.86820860166809
 11
152.0693639806799
 21
108.14566534918708
  0
LINE
  8
_1-0_
  6
CONTINUOUS
 62
    4
 10
150.90731234163852
 20
111.57044281830659
 11
153.62986796611065
 21
108.84788719383447
  0
LINE
  8
_1-0_
  6
CONTINUOUS
 62
    4
 10
152.46781632706927
 20
112.2726770349451
 11
155.19037195154138
 21
109.55012141047298
  0
LINE
  8
_1-0_
  6
CONTINUOUS
 62
    4
 10
154.02833268449115
 20
112.97489887959249
 11
156.75087593697214
 21
110.25234325512037
  0
LINE
  8
_1-0_
  6
CONTINUOUS
 62
    4
 10
155.58883666992187
 20
113.67712072423987
 11
158.31139229439401
 21
110.95457747175888
  0
LINE
  8
_1-0_
  6
CONTINUOUS
 62
    4
 10
157.14935302734375
 20
114.37935494087839
 11
159.87190865181589
 21
111.65679931640625
  0
LINE
  8
_1-0_
  6
CONTINUOUS
 62
    4
 10
158.70985701277451
 20
115.0815891575169
 11
161.43241263724664
 21
112.35903353304477
  0
LINE
  8
_1-0_
  6
CONTINUOUS
 62
    4
 10
160.27036099820523
 20
115.78382337415542
 11
162.99291662267737
 21
113.06126774968328
  0
LINE
  8
_1-0_
  6
CONTINUOUS
 62
    4
 10
161.83086498363599
 20
116.4860452188028
 11
164.55342060810813
 21
113.76348959433066
  0
LINE
  8
_1-0_
  6
CONTINUOUS
 62
    4
 10
163.39136896906672
 20
117.18826706345017
 11
166.11392459353885
 21
114.46571143897805
  0
LINE
  8
_1-0_
  6
CONTINUOUS
 62
    4
 10
164.95187295449747
 20
117.89050128008869
 11
167.67442857896961
 21
115.16794565561656
  0
LINE
  8
_1-0_
  6
CONTINUOUS
 62
    4
 10
166.51238931191935
 20
118.59272312473607
 11
169.23493256440034
 21
115.87017987225508
  0
LINE
  8
_1-0_
  6
CONTINUOUS
 62
    4
 10
168.07289329735011
 20
119.29495734137458
 11
170.79544892182221
 21
116.57240171690246
  0
LINE
  8
_1-0_
  6
CONTINUOUS
 62
    4
 10
169.63339728278083
 20
119.99717918602197
 11
172.35595290725297
 21
117.27462356154983
  0
LINE
  8
_1-0_
  6
CONTINUOUS
 62
    4
 10
171.19391364020271
 20
120.69941340266048
 11
173.91646926467484
 21
117.97685777818835
  0
LINE
  8
_1-0_
  6
CONTINUOUS
 62
    4
 10
172.75441762563347
 20
121.401647619299
 11
175.47697325010557
 21
118.67909199482686
  0
LINE
  8
_1-0_
  6
CONTINUOUS
 62
    4
 10
174.31492161106419
 20
122.10386946394638
 11
177.03747723553633
 21
119.38131383947425
  0
LINE
  8
_1-0_
  6
CONTINUOUS
 62
    4
 10
175.87542559649495
 20
122.80609130859375
 11
178.59798122096706
 21
120.08353568412163
  0
LINE
  8
_1-0_
  6
CONTINUOUS
 62
    4
 10
177.43592958192568
 20
123.50832552523227
 11
180.15848520639781
 21
120.78576990076014
  0
LINE
  8
_1-0_
  6
CONTINUOUS
 62
    4
 10
178.99644593934755
 20
124.21055974187078
 11
181.71898919182857
 21
121.48800411739866
  0
LINE
  8
_1-0_
  6
CONTINUOUS
 62
    4
 10
180.55693755278716
 20
124.91278158651816
 11
183.2794931772593
 21
122.19022596204604
  0
LINE
  8
_1-0_
  6
CONTINUOUS
 62
    4
 10
182.11745391020904
 20
125.61500343116555
 11
184.83999716269005
 21
122.89246017868454
  0
LINE
  8
_1-0_
  6
CONTINUOUS
 62
    4
 10
183.67797026763091
 20
126.31723764780406
 11
186.40051352011193
 21
123.59468202333193
  0
LINE
  8
_1-0_
  6
CONTINUOUS
 62
    4
 10
185.23847425306167
 20
127.01947186444258
 11
187.9610298775338
 21
124.29691623997044
  0
LINE
  8
_1-0_
  6
CONTINUOUS
 62
    4
 10
186.7989782384924
 20
127.72169370908996
 11
189.52153386296453
 21
124.99915045660896
  0
LINE
  8
_1-0_
  6
CONTINUOUS
 62
    4
 10
188.35948222392315
 20
128.42391555373734
 11
191.08203784839529
 21
125.70137230125634
  0
LINE
  8
_1-0_
  6
CONTINUOUS
 62
    4
 10
189.91998620935391
 20
129.12614977037586
 11
192.64254183382602
 21
126.40359414590372
  0
LINE
  8
_1-0_
  6
CONTINUOUS
 62
    4
 10
191.48049019478464
 20
129.82838398701438
 11
194.20304581925677
 21
127.10582836254224
  0
LINE
  8
_1-0_
  6
CONTINUOUS
 62
    4
 10
193.04100655220651
 20
130.53060583166175
 11
195.7635498046875
 21
127.80806257918076
  0
LINE
  8
_1-0_
  6
CONTINUOUS
 62
    4
 10
194.60152290962839
 20
131.23284004830026
 11
197.32405379011826
 21
128.51028442382812
  0
LINE
  8
_1-0_
  6
CONTINUOUS
 62
    4
 10
196.162014523068
 20
131.93506189294763
 11
198.88455777554898
 21
129.21250626847552
  0
LINE
  8
_1-0_
  6
CONTINUOUS
 62
    4
 10
197.72253088048987
 20
132.63729610958615
 11
200.44507413297086
 21
129.91474048511404
  0
LINE
  8
_1-0_
  6
CONTINUOUS
 62
    4
 10
199.28303486592063
 20
133.33953032622466
 11
202.00559049039273
 21
130.61697470175255
  0
LINE
  8
_1-0_
  6
CONTINUOUS
 62
    4
 10
200.84353885135135
 20
134.04175217087206
 11
203.56609447582349
 21
131.31919654639992
  0
LINE
  8
_1-0_
  6
CONTINUOUS
 62
    4
 10
202.40404283678211
 20
134.74397401551943
 11
205.12659846125425
 21
132.02143076303844
  0
LINE
  8
_1-0_
  6
CONTINUOUS
 62
    4
 10
203.96455919420399
 20
135.44620823215794
 11
206.68710244668497
 21
132.72365260768581
  0
LINE
  8
_1-0_
  6
CONTINUOUS
 62
    4
 10
205.52506317963471
 20
136.14844244879646
 11
208.24760643211573
 21
133.42588682432432
  0
LINE
  8
_1-0_
  6
CONTINUOUS
 62
    4
 10
207.08557953705659
 20
136.85066429344386
 11
209.80813516152872
 21
134.12812104096284
  0
LINE
  8
_1-0_
  6
CONTINUOUS
 62
    4
 10
208.64608352248734
 20
137.55288613809122
 11
211.36861440297722
 21
134.83034288561024
  0
LINE
  8
_1-0_
  6
CONTINUOUS
 62
    4
 10
210.20658750791807
 20
138.25512035472974
 11
212.92914313239021
 21
135.5325647302576
  0
LINE
  8
_1-0_
  6
CONTINUOUS
 62
    4
 10
211.76709149334883
 20
138.95734219937711
 11
214.4896223738387
 21
136.23479894689612
  0
LINE
  8
_1-0_
  6
CONTINUOUS
 62
    4
 10
213.32759547877959
 20
139.65957641601562
 11
216.05015110325169
 21
136.93702079154352
  0
LINE
  8
_1-0_
  6
CONTINUOUS
 62
    4
 10
214.88809946421031
 20
140.36179826066302
 11
217.61063034470018
 21
137.63924263619089
  0
LINE
  8
_1-0_
  6
CONTINUOUS
 62
    4
 10
216.44860344964107
 20
141.06403247730154
 11
219.17115907411318
 21
138.3414768528294
  0
LINE
  8
_1-0_
  6
CONTINUOUS
 62
    4
 10
218.0091074350718
 20
141.76626669394005
 11
220.73166305954393
 21
139.04371106946792
  0
LINE
  8
_1-0_
  6
CONTINUOUS
 62
    4
 10
219.56961142050255
 20
142.46848853858742
 11
222.29216704497466
 21
139.74594528610643
  0
LINE
  8
_1-0_
  6
CONTINUOUS
 62
    4
 10
221.13011540593328
 20
143.17071038323479
 11
223.85267103040542
 21
140.4481671307538
  0
LINE
  8
_1-0_
  6
CONTINUOUS
 62
    4
 10
222.6906441353463
 20
143.87294459987331
 11
225.41317501583617
 21
141.1503889754012
  0
LINE
  8
_1-0_
  6
CONTINUOUS
 62
    4
 10
224.25114812077703
 20
144.57517881651182
 11
226.97370374524917
 21
141.85262319203972
  0
LINE
  8
_1-0_
  6
CONTINUOUS
 62
    4
 10
225.81165210620779
 20
145.27740066115922
 11
228.53418298669766
 21
142.55485740867823
  0
LINE
  8
_1-0_
  6
CONTINUOUS
 62
    4
 10
227.37215609163852
 20
145.97963487779774
 11
230.09468697212839
 21
143.2570792533256
  0
LINE
  8
_1-0_
  6
CONTINUOUS
 62
    4
 10
228.93266007706927
 20
146.6818567224451
 11
231.65521570154141
 21
143.95930109797297
  0
LINE
  8
_1-0_
  6
CONTINUOUS
 62
    4
 10
230.4931640625
 20
147.38409093908362
 11
233.21571968697214
 21
144.66153531461148
  0
LINE
  8
_1-0_
  6
CONTINUOUS
 62
    4
 10
232.05369279191302
 20
148.08631278373102
 11
234.77622367240289
 21
145.36376953125
  0
LINE
  8
_1-0_
  6
CONTINUOUS
 62
    4
 10
233.61419677734375
 20
148.7885470003695
 11
236.33672765783362
 21
146.0659913758974
  0
LINE
  8
_1-0_
  6
CONTINUOUS
 62
    4
 10
235.17470076277451
 20
149.4907688450169
 11
237.89723164326438
 21
146.76821322054477
  0
LINE
  8
_1-0_
  6
CONTINUOUS
 62
    4
 10
236.735180004223
 20
150.19300306165542
 11
238.97446091110643
 21
147.95372215477198
  0
LINE
  8
_0-0_
  6
CONTINUOUS
 62
    5
 10
406.75677325274495
 20
10.13513513513513
 11
6.7567526327597136
 21
10.13513513513513
  0
TEXT
  8
_0-0_
 62
    7
 10
141.89189395389042
 20
14.594594594594582
 40
2.5
 41
1
 50
0
  1
縮尺
  0
TEXT
  8
_0-0_
 62
    7
 10
377.10214563318203
 20
22.865493362014362
 40
2.5
 41
1
 50
0
  1
ＮＯ
  0
TEXT
  8
_0-0_
 62
    7
 10
14.594594336844779
 20
24.324324324324323
 40
2.5
 41
1
 50
0
  1
和形
  0
TEXT
  8
_0-0_
 62
    7
 10
383.23801896378802
 20
18.523427086907475
 40
3
 41
1
 50
0
  1
Ｊ
  0
TEXT
  8
_1-0_
 62
    7
 10
169.90681828679266
 20
13.3181144095756
 40
2.5
 41
1
 50
0
  1
1/5
  0
TEXT
  8
_1-6_
 62
    7
 10
39.721904445338907
 20
15.395235628695104
 40
2.5
 41
1
 50
0
  1
壁際　　6
  0
TEXT
  8
_1-6_
 62
    7
 10
25.556194717819636
 20
20.211577544341225
 40
2.5
 41
1
 50
0
  1
鉄骨
  0
TEXT
  8
_1-6_
 62
    7
 10
393.43189548801735
 20
16.41030337359453
 40
2.5
 41
1
 50
0
  1
41
  0
TEXT
  8
_1-5_
 62
    7
 10
37.550246392733982
 20
183.65780392208615
 40
2.5
 41
1
 50
0
  1
桟瓦
  0
TEXT
  8
_1-5_
 62
    7
 10
37.234718347904476
 20
178.26098055452914
 40
2.5
 41
1
 50
0
  1
瓦桟　
  0
TEXT
  8
_1-0_
 62
    7
 10
37.369332828412809
 20
152.88715259448904
 40
2.5
 41
1
 50
0
  1
垂木　Ｃ－100ｘ50ｘ20ｘ2.3
  0
TEXT
  8
_1-0_
 62
    7
 10
37.369330766414294
 20
159.34076670053844
 40
2.5
 41
1
 50
0
  1
硬質木片セメント板　　ｔ＝18
  0
TEXT
  8
_1-0_
 62
    7
 10
47.794039570983017
 20
177.84227525865711
 40
2.5
 41
1
 50
0
  1
１５×２１以上　（防腐処理）
  0
TEXT
  8
_1-6_
 62
    7
 10
48.384168371626856
 20
175.08248454461642
 40
2.5
 41
1
 50
0
  1
※　地域により瓦桟木の大きさは、異なります
  0
LINE
  8
_1-2_
  6
CONTINUOUS
 62
    7
 10
45.998678077898148
 20
184.38980514938768
 11
109.53915982633025
 21
184.38980514938768
  0
LINE
  8
_1-2_
  6
CONTINUOUS
 62
    7
 10
111.46962346257391
 20
179.08588306323904
 11
109.53915982633025
 21
184.38980514938768
  0
LINE
  8
_1-6_
  6
CONTINUOUS
 62
    7
 10
111.81362667599241
 20
165.14556884765625
 11
97.224149434802214
 21
165.14556884765625
  0
LINE
  8
_1-1_
  6
CONTINUOUS
 62
    7
 10
142.38255036490949
 20
109.48883147570493
 11
141.15143827137064
 21
112.22460038670577
  0
LINE
  8
_1-1_
  6
CONTINUOUS
 62
    7
 10
141.15143827137064
 20
112.22460038670577
 11
145.52867347776842
 21
114.1943574667839
  0
LINE
  8
_1-1_
  6
CONTINUOUS
 62
    7
 10
145.52867347776842
 20
114.1943574667839
 11
146.75976082732501
 21
111.45858855578305
  0
LINE
  8
_1-1_
  6
CONTINUOUS
 62
    7
 10
146.75976082732501
 20
111.45858855578305
 11
142.38255036490949
 21
109.48883147570493
  0
LINE
  8
_1-1_
  6
CONTINUOUS
 62
    7
 10
185.24286398663668
 20
128.77597384268128
 11
184.01175189309782
 21
131.51174275368211
  0
LINE
  8
_1-1_
  6
CONTINUOUS
 62
    7
 10
184.01175189309782
 20
131.51174275368211
 11
188.38898709949564
 21
133.48149983376024
  0
LINE
  8
_1-1_
  6
CONTINUOUS
 62
    7
 10
188.38898709949564
 20
133.48149983376024
 11
189.62007444905223
 21
130.74573092275941
  0
LINE
  8
_1-1_
  6
CONTINUOUS
 62
    7
 10
189.62007444905223
 20
130.74573092275941
 11
185.24286398663668
 21
128.77597384268128
  0
LINE
  8
_1-1_
  6
CONTINUOUS
 62
    7
 10
228.10317760836386
 20
148.0631409536399
 11
226.87206551482501
 21
150.79888512065847
  0
LINE
  8
_1-1_
  6
CONTINUOUS
 62
    7
 10
232.48038807077941
 20
150.03288566172688
 11
228.10317760836386
 21
148.0631409536399
  0
LINE
  8
_1-1_
  6
CONTINUOUS
 62
    7
 10
226.87206551482501
 20
150.79888512065847
 11
232.48041281476168
 21
150.03286091774461
  0
LINE
  8
_1-1_
  6
CONTINUOUS
 62
    7
 10
184.01175189309782
 20
131.51174275368211
 11
189.62007444905223
 21
130.74573092275941
  0
LINE
  8
_1-1_
  6
CONTINUOUS
 62
    7
 10
141.15143827137064
 20
112.22460038670577
 11
146.75976082732501
 21
111.45858855578305
  0
LINE
  8
_1-b_
  6
CONTINUOUS
 62
    3
 10
103.53704684136642
 20
93.124732849490812
 11
105.22625665054082
 21
93.746474891826125
  0
LINE
  8
_1-b_
  6
CONTINUOUS
 62
    3
 10
102.84620722856025
 20
95.001625764133976
 11
103.53704684136642
 21
93.124732849490812
  0
LINE
  8
ADD_LINE
  6
DOT
 62
    3
 10
102.66835985604123
 20
94.907227471798677
 11
102.66835985604123
 21
94.524190626359484
  0
LINE
  8
_1-1_
  6
CONTINUOUS
 62
    7
 10
142.38255036490949
 20
109.48883147570493
 11
141.1514630153529
 21
112.22460038670577
  0
LINE
  8
_1-1_
  6
CONTINUOUS
 62
    7
 10
141.1514630153529
 20
112.22460038670577
 11
145.52867347776842
 21
114.1943574667839
  0
LINE
  8
_1-1_
  6
CONTINUOUS
 62
    7
 10
145.52867347776842
 20
114.1943574667839
 11
146.75978557130728
 21
111.45858855578305
  0
LINE
  8
_1-1_
  6
CONTINUOUS
 62
    7
 10
146.75978557130728
 20
111.45858855578305
 11
142.38255036490949
 21
109.48883147570493
  0
LINE
  8
_1-1_
  6
CONTINUOUS
 62
    7
 10
141.1514630153529
 20
112.22460038670577
 11
146.75978557130728
 21
111.45858855578305
  0
LINE
  8
_1-b_
  6
CONTINUOUS
 62
    3
 10
146.39736046309361
 20
112.41187521646717
 11
148.08655790027689
 21
113.03361725880248
  0
LINE
  8
_1-b_
  6
CONTINUOUS
 62
    3
 10
145.70653322227858
 20
114.28876813111033
 11
146.39736046309361
 21
112.41187521646717
  0
LINE
  8
_1-1_
  6
CONTINUOUS
 62
    7
 10
141.1514630153529
 20
112.22461275869691
 11
145.52867347776842
 21
114.19436983877503
  0
LINE
  8
_1-1_
  6
CONTINUOUS
 62
    7
 10
185.24286398663668
 20
128.77597384268128
 11
184.01175189309782
 21
131.51174275368211
  0
LINE
  8
_1-1_
  6
CONTINUOUS
 62
    7
 10
184.01175189309782
 20
131.51174275368211
 11
188.38898709949564
 21
133.48149983376024
  0
LINE
  8
_1-1_
  6
CONTINUOUS
 62
    7
 10
188.38898709949564
 20
133.48149983376024
 11
189.62007444905223
 21
130.74573092275941
  0
LINE
  8
_1-1_
  6
CONTINUOUS
 62
    7
 10
189.62007444905223
 20
130.74573092275941
 11
185.24286398663668
 21
128.77597384268128
  0
LINE
  8
_1-1_
  6
CONTINUOUS
 62
    7
 10
184.01175189309782
 20
131.51174275368211
 11
189.62007444905223
 21
130.74573092275941
  0
LINE
  8
_1-b_
  6
CONTINUOUS
 62
    3
 10
132.87269566157335
 20
113.07651095205628
 11
188.5668221000235
 21
133.57591049808667
  0
LINE
  8
_1-b_
  6
CONTINUOUS
 62
    3
 10
189.25767408482079
 20
131.69901758344352
 11
190.94689626598634
 21
132.32075962577883
  0
LINE
  8
_1-b_
  6
CONTINUOUS
 62
    3
 10
188.5668221000235
 20
133.57591049808667
 11
189.25767408482079
 21
131.69901758344352
  0
LINE
  8
_1-b_
  6
CONTINUOUS
 62
    3
 10
133.58898446013754
 20
116.3237998363996
 11
187.78736191474056
 21
136.27265814905797
  0
LINE
  8
_1-b_
  6
CONTINUOUS
 62
    3
 10
132.64012697227858
 20
114.26960391684723
 11
133.05745897713498
 21
113.13576041758625
  0
LINE
  8
_1-1_
  6
CONTINUOUS
 62
    7
 10
184.01175189309782
 20
131.51174275368211
 11
188.38898709949564
 21
133.48149983376024
  0
LINE
  8
_1-1_
  6
CONTINUOUS
 62
    7
 10
188.38898709949564
 20
133.48149983376024
 11
189.62007444905223
 21
130.74573092275941
  0
LINE
  8
_1-1_
  6
CONTINUOUS
 62
    7
 10
228.10317760836386
 20
148.06311620965764
 11
226.87206551482501
 21
150.79888512065847
  0
LINE
  8
_1-1_
  6
CONTINUOUS
 62
    7
 10
226.87206551482501
 20
150.79888512065847
 11
231.24930072122282
 21
152.76865457272774
  0
LINE
  8
_1-1_
  6
CONTINUOUS
 62
    7
 10
232.48038807077941
 20
150.03286091774461
 11
228.10317760836386
 21
148.06311620965764
  0
LINE
  8
_1-1_
  6
CONTINUOUS
 62
    7
 10
226.87206551482501
 20
150.79888512065847
 11
232.48038807077941
 21
150.03286091774461
  0
LINE
  8
_1-1_
  6
CONTINUOUS
 62
    7
 10
184.01175189309782
 20
131.51174275368211
 11
189.62007444905223
 21
130.74573092275941
  0
LINE
  8
_1-1_
  6
CONTINUOUS
 62
    7
 10
184.01177663708009
 20
131.51174275368211
 11
188.38898709949564
 21
133.48149983376024
  0
LINE
  8
_1-1_
  6
CONTINUOUS
 62
    7
 10
188.38898709949564
 20
133.48149983376024
 11
189.62009919303449
 21
130.74573092275941
  0
LINE
  8
_1-1_
  6
CONTINUOUS
 62
    7
 10
184.01177663708009
 20
131.51174275368211
 11
189.62009919303449
 21
130.74573092275941
  0
LINE
  8
_1-b_
  6
CONTINUOUS
 62
    3
 10
189.25767408482079
 20
131.69901758344352
 11
190.94687152200407
 21
132.32075962577883
  0
LINE
  8
_1-b_
  6
CONTINUOUS
 62
    3
 10
188.56684684400577
 20
133.57591049808667
 11
189.25767408482079
 21
131.69901758344352
  0
LINE
  8
ADD_LINE
  6
DOT
 62
    3
 10
188.38898709949564
 20
133.48151220575139
 11
188.38898709949564
 21
133.94030275289032
  0
LINE
  8
ADD_LINE
  6
DOT
 62
    3
 10
188.38898709949564
 20
133.48151220575139
 11
188.38898709949564
 21
133.09847536031219
  0
LINE
  8
_1-1_
  6
CONTINUOUS
 62
    7
 10
184.01177663708009
 20
131.51175512567326
 11
188.38898709949564
 21
133.48151220575139
  0
LINE
  8
_1-1_
  6
CONTINUOUS
 62
    7
 10
228.10317760836386
 20
148.06311620965764
 11
226.87206551482501
 21
150.79888512065847
  0
LINE
  8
_1-1_
  6
CONTINUOUS
 62
    7
 10
226.87206551482501
 20
150.79888512065847
 11
231.24930072122282
 21
152.76865457272774
  0
LINE
  8
_1-1_
  6
CONTINUOUS
 62
    7
 10
232.48038807077941
 20
150.03286091774461
 11
228.10317760836386
 21
148.06311620965764
  0
LINE
  8
_1-1_
  6
CONTINUOUS
 62
    7
 10
226.87206551482501
 20
150.79888512065847
 11
232.48038807077941
 21
150.03286091774461
  0
LINE
  8
_1-b_
  6
CONTINUOUS
 62
    3
 10
175.73300928330053
 20
132.36365331903264
 11
231.42713572175069
 21
152.86305286506303
  0
LINE
  8
_1-b_
  6
CONTINUOUS
 62
    3
 10
232.11798770654801
 20
150.98614757842876
 11
233.80720988771353
 21
151.60791436474631
  0
LINE
  8
_1-b_
  6
CONTINUOUS
 62
    3
 10
231.42713572175069
 20
152.86305286506303
 11
232.11798770654801
 21
150.98614757842876
  0
LINE
  8
_1-b_
  6
CONTINUOUS
 62
    3
 10
176.44929808186473
 20
135.61094220337594
 11
230.64767553646777
 21
155.55980051603433
  0
LINE
  8
_1-b_
  6
CONTINUOUS
 62
    3
 10
175.50044059400577
 20
133.5567462838236
 11
175.91777259886217
 21
132.42290278456261
  0
LINE
  8
_1-b_
  6
CONTINUOUS
 62
    3
 10
230.46984053593988
 20
156.03956158814159
 11
230.64096991727436
 21
155.57467164937469
  0
LINE
  8
_1-b_
  6
CONTINUOUS
 62
    3
 10
230.47092927115949
 20
156.03995749185779
 11
230.64767553646777
 21
155.55980051603433
  0
LINE
  8
_1-b_
  6
CONTINUOUS
 62
    3
 10
230.46986527992215
 20
156.03953684415933
 11
230.64096991727436
 21
155.57467164937469
  0
LINE
  8
_1-b_
  6
CONTINUOUS
 62
    3
 10
231.97135486765441
 20
156.59221843199717
 11
233.80047952453785
 21
151.62276075410441
  0
LINE
  8
_1-b_
  6
CONTINUOUS
 62
    3
 10
231.97137961163668
 20
156.59221843199717
 11
233.80050426852011
 21
151.62276075410441
  0
LINE
  8
_1-b_
  6
CONTINUOUS
 62
    3
 10
187.61625727738837
 20
136.73752334384258
 11
187.78736191474056
 21
136.27265814905797
  0
LINE
  8
_1-b_
  6
CONTINUOUS
 62
    3
 10
189.11774686512064
 20
137.29020493168042
 11
190.94687152200407
 21
132.32075962577883
  0
LINE
  8
_1-b_
  6
CONTINUOUS
 62
    3
 10
187.61625727738837
 20
136.73752334384258
 11
187.78736191474056
 21
136.27265814905797
  0
LINE
  8
_1-b_
  6
CONTINUOUS
 62
    3
 10
189.1177716091029
 20
137.29020493168042
 11
190.94689626598634
 21
132.32075962577883
  0
LINE
  8
_1-b_
  6
CONTINUOUS
 62
    3
 10
144.75594365566116
 20
117.45039334885738
 11
144.92704829301337
 21
116.98551578208161
  0
LINE
  8
_1-b_
  6
CONTINUOUS
 62
    3
 10
146.25743324339342
 20
118.00305019271295
 11
148.08655790027689
 21
113.03361725880248
  0
LINE
  8
_1-b_
  6
CONTINUOUS
 62
    3
 10
103.3971443656485
 20
98.715907825736593
 11
105.22625665054082
 21
93.746474891826125
  0
LINE
  8
_1-c_
  6
CONTINUOUS
 62
    7
 10
130.15313405895509
 20
121.02645552553601
 11
132.64012697227858
 21
114.26961628883836
  0
LINE
  8
_1-c_
  6
CONTINUOUS
 62
    7
 10
173.01344768068228
 20
140.31357314853008
 11
175.50044059400577
 21
133.5567462838236
  0
LINE
  8
_1-c_
  6
CONTINUOUS
 62
    7
 10
131.1019791748229
 20
123.08063907309723
 11
173.59903876493058
 21
138.72258457695071
  0
LINE
  8
_1-b_
  6
CONTINUOUS
 62
    3
 10
101.30155176376928
 20
97.944588410618351
 11
145.70653322227858
 21
114.28876813111033
  0
LINE
  8
_1-b_
  6
CONTINUOUS
 62
    3
 10
100.14969464542045
 20
100.5042667718409
 11
144.92704829301337
 21
116.98551578208161
  0
LINE
  8
_1-c_
  6
CONTINUOUS
 62
    7
 10
97.187790480513371
 20
107.08630214583795
 11
130.73873751519454
 21
119.43544220997435
  0
LINE
  8
_1-b_
  6
CONTINUOUS
 62
    3
 10
230.46984053593988
 20
156.03956158814159
 11
231.97135486765441
 21
156.59223080398829
  0
LINE
  8
_1-1_
  6
CONTINUOUS
 62
    7
 10
226.87206551482501
 20
150.79888512065847
 11
231.24927597724056
 21
152.76864220073659
  0
LINE
  8
_1-1_
  6
CONTINUOUS
 62
    7
 10
231.24927597724056
 20
152.76864220073659
 11
232.47370719556827
 21
150.04775679506724
  0
ARC
  8
_1-b_
  6
CONTINUOUS
 62
    3
 10
134.14164130399311
 20
114.82227313269394
 40
1.5999999239638045
 50
110.20680236816406
 51
200.20738220214844
  0
ARC
  8
_1-b_
  6
CONTINUOUS
 62
    3
 10
177.0019549257203
 20
134.10941549967029
 40
1.5999999239638045
 50
110.20680236816406
 51
200.20738220214844
  0
ARC
  8
_1-c_
  6
CONTINUOUS
 62
    7
 10
131.65464839066962
 20
121.57911236939158
 40
1.5999999239638045
 50
110.20722961425781
 51
200.20695495605469
  0
ARC
  8
_1-c_
  6
CONTINUOUS
 62
    7
 10
174.51496201239681
 20
140.86622999238566
 40
1.5999999239638045
 50
110.20748901367187
 51
200.20695495605469
  0
LINE
  8
ADD_LINE
  6
DOT
 62
    4
 10
234.52294426995357
 20
150.76431750590828
 11
234.52294426995357
 21
149.10761618876793
  0
LINE
  8
_1-0_
  6
CONTINUOUS
 62
    7
 10
101.88910785411878
 20
89.512241475616833
 11
237.75938291807435
 21
150.65388447529563
  0
LINE
  8
_1-0_
  6
CONTINUOUS
 62
    7
 10
103.36642012743582
 20
86.229326522589147
 11
239.23669763513516
 21
147.37097662848396
  0
LINE
  8
_1-0_
  6
DASHED1
 62
    7
 10
103.55518792791563
 20
85.809842676121235
 11
239.42546947582349
 21
146.95149189717063
  0
LINE
  8
_1-0_
  6
CONTINUOUS
 62
    7
 10
105.00787871242407
 20
82.581642122503524
 11
240.87816393053211
 21
143.72329299514359
  0
LINE
  8
_1-0_
  6
CONTINUOUS
 62
    7
 10
109.93225696679532
 20
71.638583368012021
 11
245.80251332875847
 21
132.78021735114021
  0
LINE
  8
_1-0_
  6
DASHED1
 62
    7
 10
111.38494572831318
 20
68.410387309927287
 11
247.25520778346709
 21
129.55201844911318
  0
LINE
  8
_1-0_
  6
CONTINUOUS
 62
    7
 10
111.57371454028836
 20
67.990901215692716
 11
247.44397962415542
 21
129.13253371779984
  0
LINE
  8
_1-0_
  6
CONTINUOUS
 62
    4
 10
102.26139499761308
 20
88.684937017194386
 11
104.07018300649283
 21
90.493722864099453
  0
LINE
  8
_1-0_
  6
CONTINUOUS
 62
    4
 10
102.96362354789693
 20
87.124429702790536
 11
108.18425358952703
 21
92.345055245064401
  0
LINE
  8
_1-0_
  6
CONTINUOUS
 62
    4
 10
102.9781960587476
 20
87.092046357279301
 11
103.69366001438451
 21
86.37658402726457
  0
LINE
  8
_1-1_
  6
DASHED1
 62
    3
 10
101.56081094031501
 20
90.241789904087739
 11
234.52294426995357
 21
150.07477631440034
  0
LINE
  8
_1-0_
  6
CONTINUOUS
 62
    7
 10
101.23252310989666
 20
90.97131814726518
 11
233.03001310945842
 21
150.28019749369574
  0
LINE
  8
_1-0_
  6
CONTINUOUS
 62
    7
 10
233.03001310945842
 20
150.28019749369574
 11
233.27622393156554
 21
149.73306257490893
  0
LINE
  8
_1-0_
  6
CONTINUOUS
 62
    7
 10
101.47873628181345
 20
90.42417796687316
 11
233.27622393156554
 21
149.73306257490893
  0
LINE
  8
_1-3_
  6
CONTINUOUS
 62
    7
 10
213.92694421716641
 20
157.7254937658906
 11
212.58530075485643
 21
160.40876831851941
  0
LINE
  8
_1-3_
  6
CONTINUOUS
 62
    7
 10
212.58530075485643
 20
160.40876831851941
 11
228.68499755859375
 21
168.45861672038808
  0
LINE
  8
_1-3_
  6
CONTINUOUS
 62
    7
 10
228.68499755859375
 20
168.45861672038808
 11
230.02664102090372
 21
165.77534216775928
  0
LINE
  8
_1-3_
  6
CONTINUOUS
 62
    7
 10
230.02664102090372
 20
165.77534216775928
 11
213.92694421716641
 21
157.7254937658906
  0
LINE
  8
_1-3_
  6
CONTINUOUS
 62
    7
 10
212.58530075485643
 20
160.40876831851941
 11
230.02664102090372
 21
165.77534216775928
  0
LINE
  8
_1-3_
  6
CONTINUOUS
 62
    3
 10
211.50861585462417
 20
160.70375370307389
 11
212.11145349451016
 21
156.63446972793662
  0
LINE
  8
_1-3_
  6
CONTINUOUS
 62
    3
 10
212.11145349451016
 20
156.63446972793662
 11
212.71431587837839
 21
157.84018212368198
  0
LINE
  8
_1-3_
  6
CONTINUOUS
 62
    3
 10
211.50861585462417
 20
160.70375370307389
 11
233.45261857316302
 21
171.67575506234331
  0
LINE
  8
_1-3_
  6
CONTINUOUS
 62
    3
 10
233.45261857316302
 20
171.67575506234331
 11
234.25630311708193
 21
172.07759733430277
  0
LINE
  8
_1-3_
  6
CONTINUOUS
 62
    3
 10
234.25630311708193
 20
172.07759733430277
 11
234.25630311708193
 21
201.67575506234331
  0
LINE
  8
_1-3_
  6
CONTINUOUS
 62
    7
 10
229.65629783836573
 20
171.20420899234753
 11
227.25630476668076
 21
171.20420899234753
  0
LINE
  8
_1-3_
  6
CONTINUOUS
 62
    7
 10
229.65629783836573
 20
175.56189645275714
 11
229.65629783836573
 21
183.56189810235597
  0
LINE
  8
_1-3_
  6
CONTINUOUS
 62
    7
 10
229.65629783836573
 20
183.56189810235597
 11
233.65631103515625
 21
183.56189810235597
  0
LINE
  8
_1-3_
  6
CONTINUOUS
 62
    7
 10
233.65631103515625
 20
183.56189810235597
 11
233.65631103515625
 21
175.56189645275714
  0
LINE
  8
_1-3_
  6
CONTINUOUS
 62
    7
 10
233.65631103515625
 20
175.56189645275714
 11
229.65629783836573
 21
175.56189645275714
  0
LINE
  8
_1-3_
  6
CONTINUOUS
 62
    7
 10
233.65631103515625
 20
183.56189810235597
 11
229.65629783836573
 21
175.56189645275714
  0
LINE
  8
_1-2_
  6
CONTINUOUS
 62
    7
 10
225.30680063608531
 20
165.68570709200969
 11
206.22943775073904
 21
218.10034035320058
  0
LINE
  8
_1-2_
  6
CONTINUOUS
 62
    7
 10
211.91124993401607
 20
157.98587469124956
 11
196.60123258023648
 21
200.04980324382558
  0
LINE
  8
_1-2_
  6
CONTINUOUS
 62
    7
 10
206.22943775073904
 20
218.10034035320058
 11
199.85761487806167
 21
218.10034035320058
  0
LINE
  8
_1-2_
  6
CONTINUOUS
 62
    7
 10
196.60123258023648
 20
200.04980324382558
 11
192.55669258736276
 21
200.04980324382558
  0
LINE
  8
_1-2_
  6
CONTINUOUS
 62
    7
 10
198.10107669314823
 20
163.11981799123899
 11
191.09651307801943
 21
163.11981799123899
  0
LINE
  8
_1-2_
  6
CONTINUOUS
 62
    7
 10
205.8097674395587
 20
150.46409813133448
 11
198.10107669314823
 21
163.11981799123899
  0
LINE
  8
_1-3_
  6
CONTINUOUS
 62
    7
 10
229.65629783836573
 20
171.20420899234753
 11
229.65629783836573
 21
224.70097082986865
  0
LINE
  8
_1-3_
  6
CONTINUOUS
 62
    7
 10
227.25630476668076
 20
171.20420899234753
 11
227.25630476668076
 21
224.70097082986865
  0
LINE
  8
_1-6_
  6
CONTINUOUS
 62
    7
 10
227.42698875633448
 20
197.27889787801053
 11
215.60688740498313
 21
229.75436009559922
  0
LINE
  8
_1-6_
  6
CONTINUOUS
 62
    7
 10
215.60688740498313
 20
229.75436009559922
 11
211.40486433699326
 21
229.75436009559922
  0
LINE
  8
_1-0_
  6
CONTINUOUS
 62
    7
 10
235.13513513513516
 20
224.70097082986865
 11
235.13513513513516
 21
149.47297792176943
  0
LINE
  8
_1-0_
  6
CONTINUOUS
 62
    7
 10
237.5351282068201
 20
224.70097082986865
 11
237.5351282068201
 21
149.47297792176943
  0
TEXT
  8
_1-6_
 62
    7
 10
177.55662041741448
 20
216.24320550839482
 40
2.5
 41
1
 50
0
  1
雨押え板　15ｘ90
  0
TEXT
  8
_1-6_
 62
    7
 10
179.92330396497573
 20
198.40536767055698
 40
2.5
 41
1
 50
0
  1
水切鉄板
  0
TEXT
  8
_1-6_
 62
    7
 10
205.91785121608427
 20
228.66470934866086
 40
2.5
 41
1
 50
0
  1
外壁
  0
TEXT
  8
_1-3_
 62
    7
 10
288.99970270612806
 20
208.1536689814221
 40
3
 41
1
 50
0
  1
下葺き材立上げ長さは、300ｍｍ以上かつ
  0
TEXT
  8
_1-3_
 62
    7
 10
289.38632577939666
 20
202.50659734924304
 40
3
 41
1
 50
0
  1
雨押え板上端より50mm以上とする
  0
POINT
  8
_1-3_
 62
    7
 10
275.57860825462603
 20
172.07759733430277
  0
POINT
  8
_1-3_
 62
    7
 10
275.57860825462603
 20
202.07759733430277
  0
LINE
  8
_1-3_
  6
CONTINUOUS
 62
    7
 10
275.57860825462603
 20
172.07759733430277
 11
244.01559178152127
 21
172.07759733430277
  0
LINE
  8
_1-3_
  6
CONTINUOUS
 62
    7
 10
275.57860825462603
 20
202.07759733430277
 11
244.01559178152127
 21
202.07759733430277
  0
LINE
  8
_1-3_
  6
CONTINUOUS
 62
    7
 10
275.57860825462603
 20
172.07759733430277
 11
275.57860825462603
 21
202.07759733430277
  0
TEXT
  8
_1-3_
 62
    7
 10
275.07860825462603
 20
185.20259733430277
 40
2.5
 41
1
 50
90
  1
150
  0
POINT
  8
_1-3_
 62
    7
 10
275.57860825462603
 20
202.07759733430277
  0
POINT
  8
_1-3_
 62
    7
 10
275.57860825462603
 20
212.07759733430277
  0
LINE
  8
_1-3_
  6
CONTINUOUS
 62
    7
 10
275.57860825462603
 20
202.07759733430277
 11
244.01559178152127
 21
202.07759733430277
  0
LINE
  8
_1-3_
  6
CONTINUOUS
 62
    7
 10
275.57860825462603
 20
212.07759733430277
 11
244.01559178152127
 21
212.07759733430277
  0
LINE
  8
_1-3_
  6
CONTINUOUS
 62
    7
 10
275.57860825462603
 20
202.07759733430277
 11
275.57860825462603
 21
212.07759733430277
  0
TEXT
  8
_1-3_
 62
    7
 10
275.07860825462603
 20
205.82759733430277
 40
2.5
 41
1
 50
90
  1
50
  0
LINE
  8
_1-3_
  6
DASHED1
 62
    3
 10
234.52294426995357
 20
150.07477631440034
 11
234.52294426995357
 21
212.07759733430277
  0
POINT
  8
_1-3_
 62
    7
 10
268.4419584380642
 20
149.47297792176943
  0
POINT
  8
_1-3_
 62
    7
 10
268.4419584380642
 20
212.07759733430277
  0
LINE
  8
_1-3_
  6
CONTINUOUS
 62
    7
 10
268.4419584380642
 20
149.47297792176943
 11
244.01559178152127
 21
149.47297792176943
  0
LINE
  8
_1-3_
  6
CONTINUOUS
 62
    7
 10
268.4419584380642
 20
212.07759733430277
 11
244.01559178152127
 21
212.07759733430277
  0
TEXT
  8
_1-0_
 62
    7
 10
277.94952118072763
 20
186.4760576521106
 40
2.5
 41
1
 50
0
  1
水切り鉄板立上がり寸法
  0
TEXT
  8
_1-0_
 62
    7
 10
270.11640333221669
 20
160.80083803754695
 40
2.5
 41
1
 50
0
  1
下葺き材立上がり寸法
  0
LINE
  8
_1-3_
  6
CONTINUOUS
 62
    7
 10
268.4419584380642
 20
149.47297792176943
 11
268.4419584380642
 21
212.07759733430277
  0
TEXT
  8
_1-3_
 62
    7
 10
268.08559500112125
 20
158.12176184451317
 40
2.5
 41
1
 50
90
  1
300 以上
  0
LINE
  8
_1-c_
  6
CONTINUOUS
 62
    7
 10
173.96228042455897
 20
142.36776906808245
 11
229.66217810923976
 21
162.8693042257737
  0
LINE
  8
_1-b_
  6
CONTINUOUS
 62
    3
 10
231.97245981770482
 20
156.5926375080567
 11
233.80720988771353
 21
151.60791436474631
  0
LINE
  8
_1-3_
  6
CONTINUOUS
 62
    7
 10
229.66217810923976
 20
162.8693042257737
 11
231.97135486765441
 21
156.59223080398829
  0
TEXT
  8
_1-5_
 62
    7
 10
37.236277218787052
 20
171.26098220412797
 40
2.5
 41
1
 50
0
  1
縦桟
  0
TEXT
  8
_1-0_
 62
    7
 10
37.173736803616038
 20
163.31185418206294
 40
2.5
 41
1
 50
0
  1
ルーフィング
  0
LINE
  8
_1-3_
  6
CONTINUOUS
 62
    7
 10
97.224149434802214
 20
165.14556884765625
 11
56.919028463376321
 21
165.14556884765625
  0
LINE
  8
_1-6_
  6
CONTINUOUS
 62
    7
 10
76.824496609920772
 20
153.51277681955477
 11
120.77747334686504
 21
153.51277681955477
  0
LINE
  8
_1-6_
  6
CONTINUOUS
 62
    7
 10
76.824496609920772
 20
160.75403584153975
 11
118.14187048706185
 21
160.75403584153975
  0
LINE
  8
_1-2_
  6
CONTINUOUS
 62
    7
 10
51.635031464475446
 20
172.59313634923987
 11
113.83278511665964
 21
172.59313634923987
  0
TEXT
  8
_1-6_
 62
    7
 10
181.82546727376618
 20
161.9612578747444
 40
2.5
 41
1
 50
0
  1
葺き土
  0
ARC
  8
_1-4_
  6
CONTINUOUS
 62
    5
 10
202.49869495998945
 20
152.81698681960495
 40
16.658095842424295
 50
354.79243361507406
 51
24.085878441610582
  0
LINE
  8
_1-2_
  6
CONTINUOUS
 62
    7
 10
205.8097674395587
 20
150.46409813133448
 11
220.55369902748049
 21
156.73810852355538
  0
LINE
  8
ADD_LINE
  6
DOT
 62
    7
 10
230.02664102090372
 20
165.77534216775928
 11
234.52294426995357
 21
167.07472590606366
  0
ARC
  8
_1-4_
  6
CONTINUOUS
 62
    1
 10
202.49869495998945
 20
152.81698681960495
 40
16.658095842424295
 50
354.79243361507406
 51
24.085878441610582
  0
SOLID
  8
ADD_LINE
  6
DOT
 62
    8
 10
219.48318536792644
 20
155.64067766560677
 11
219.08803319825094
 21
151.30502983875255
 12
230.64096991727436
 22
155.57467164937469
 13
230.64096991727436
 23
155.57467164937469
  0
SOLID
  8
ADD_LINE
  6
DOT
 62
    8
 10
219.48318536792644
 20
155.64067766560677
 11
230.64096991727436
 21
155.57467164937469
 12
230.46984053593988
 22
156.03956158814159
 13
230.46984053593988
 23
156.03956158814159
  0
SOLID
  8
ADD_LINE
  6
DOT
 62
    8
 10
219.48318536792644
 20
155.64067766560677
 11
230.46984053593988
 21
156.03956158814159
 12
231.97135486765441
 22
156.59223080398829
 13
231.97135486765441
 23
156.59223080398829
  0
SOLID
  8
ADD_LINE
  6
DOT
 62
    8
 10
233.80050426852011
 20
151.62276075410441
 11
234.52294426995357
 21
150.07477631440034
 12
234.52294426995357
 22
167.07472590606366
 13
234.52294426995357
 23
167.07472590606366
  0
SOLID
  8
ADD_LINE
  6
DOT
 62
    8
 10
233.80050426852011
 20
151.62276075410441
 11
234.52294426995357
 21
167.07472590606366
 12
230.02664102090372
 22
165.77534216775928
 13
230.02664102090372
 23
165.77534216775928
  0
SOLID
  8
ADD_LINE
  6
DOT
 62
    8
 10
230.02664102090372
 20
165.77534216775928
 11
217.70645018588573
 21
159.61524675025026
 12
219.48318536792644
 22
155.64067766560677
 13
219.48318536792644
 23
155.64067766560677
  0
SOLID
  8
ADD_LINE
  6
DOT
 62
    8
 10
230.02664102090372
 20
165.77534216775928
 11
219.48318536792644
 21
155.64067766560677
 12
231.97135486765441
 22
156.59223080398829
 13
231.97135486765441
 23
156.59223080398829
  0
SOLID
  8
ADD_LINE
  6
DOT
 62
    8
 10
230.02664102090372
 20
165.77534216775928
 11
231.97135486765441
 21
156.59223080398829
 12
233.80050426852011
 22
151.62276075410441
 13
233.80050426852011
 23
151.62276075410441
  0
ENDSEC
  0
EOF
