  0
SECTION
  2
HEADER
  9
$ACADVER
  1
AC1009
  9
$INSBASE
 10
0
 20
0
 30
0
  9
$EXTMIN
 10
0
 20
0
  9
$EXTMAX
 10
420
 20
297
  9
$LIMMIN
 10
0
 20
0
  9
$LIMMAX
 10
420
 20
297
  9
$LTSCALE
 40
1
  0
ENDSEC
  0
SECTION
  2
TABLES
  0
TABLE
  2
LTYPE
 70
     9
  0
LTYPE
  2
CONTINUOUS
 70
    64
  3
実線
 72
    65
 73
     0
 40
0.0
  0
LTYPE
  2
DASHED1
 70
    64
  3
--  --  --  --  --  --  --  --  
 72
    65
 73
     2
 40
2.5
 49
1.25
 49
-1.25
  0
LTYPE
  2
DASHED2
 70
    64
  3
----    ----    ----    ----    
 72
    65
 73
     2
 40
5.0
 49
2.5
 49
-2.5
  0
LTYPE
  2
DASHED3
 70
    64
  3
------  ------  ------  ------  
 72
    65
 73
     2
 40
5.0
 49
3.75
 49
-1.25
  0
LTYPE
  2
CENTER1
 70
    64
  3
----- - ----- - ----- - ----- - 
 72
    65
 73
     4
 40
10.0
 49
6.25
 49
-1.25
 49
1.25
 49
-1.25
  0
LTYPE
  2
CENTER2
 70
    64
  3
----------  --  ----------  --  
 72
    65
 73
     4
 40
20.0
 49
12.5
 49
-2.5
 49
2.5
 49
-2.5
  0
LTYPE
  2
PHANTOM1
 70
    64
  3
--- - - --- - - --- - - --- - - 
 72
    65
 73
     6
 40
10.0
 49
3.25
 49
-1.25
 49
1.25
 49
-1.25
 49
1.25
 49
-1.25
  0
LTYPE
  2
PHANTOM2
 70
    64
  3
--------  -  -  --------  -  -  
 72
    65
 73
     6
 40
20.0
 49
10.0
 49
-2.5
 49
1.25
 49
-2.5
 49
1.25
 49
-2.5
  0
LTYPE
  2
DOT
 70
    64
  3
-   -   -   -   -   -   -   -   
 72
    65
 73
     2
 40
2.5
 49
0.625
 49
-1.875
  0
LTYPE
  2
DUMMY
 70
    64
  3
ダミー
 72
    65
 73
     0
 40
0.0
  0
LTYPE
  2
RAND1
 70
    64
  3
ランダム線1
 72
    65
 73
     4
 40
10.0
 49
1.0
 49
-2.0
 49
3.0
 49
-4.0
  0
LTYPE
  2
RAND2
 70
    64
  3
ランダム線2
 72
    65
 73
     4
 40
14.0
 49
2.0
 49
-3.0
 49
4.0
 49
-5.0
  0
LTYPE
  2
RAND3
 70
    64
  3
ランダム線3
 72
    65
 73
     4
 40
18.0
 49
3.0
 49
-4.0
 49
5.0
 49
-6.0
  0
LTYPE
  2
RAND4
 70
    64
  3
ランダム線4
 72
    65
 73
     4
 40
22.0
 49
4.0
 49
-5.0
 49
6.0
 49
-7.0
  0
LTYPE
  2
RAND5
 70
    64
  3
ランダム線5
 72
    65
 73
     4
 40
26.0
 49
5.0
 49
-6.0
 49
7.0
 49
-8.0
  0
LTYPE
  2
LONG1
 70
    64
  3
----------  --  ----------  --  
 72
    65
 73
     4
 40
40.0
 49
32.5
 49
-2.5
 49
2.5
 49
-2.5
  0
LTYPE
  2
LONG2
 70
    64
  3
--------  -  -  --------  -  -  
 72
    65
 73
     6
 40
40.0
 49
30.0
 49
-2.5
 49
1.25
 49
-2.5
 49
1.25
 49
-2.5
  0
LTYPE
  2
LONG3
 70
    64
  3
+++++++++++++++..+++++++++++++++
 72
    65
 73
     2
 40
40.0
 49
37.5
 49
-2.5
  0
LTYPE
  2
LONG4
 70
    64
  3
+++++++++++++++..+++++++++++++++
 72
    65
 73
     2
 40
80.0
 49
75.0
 49
-5.0
  0
LTYPE
  2
LONG5
 70
    64
  3
----------  --  ----------  --  
 72
    65
 73
     4
 40
60.0
 49
37.5
 49
-7.5
 49
7.5
 49
-7.5
  0
LTYPE
  2
dashed
 70
   64
  3
-------   -------------   ------
 72
   65
 73
    2
 40
7.5
 49
6
 49
-1.5
  0
LTYPE
  2
dashed_spaced
 70
   64
  3
----        --------        ----
 72
   65
 73
    2
 40
12
 49
6
 49
-6
  0
LTYPE
  2
long_dashed_dotted
 70
   64
  3
------------- --- --------------
 72
   65
 73
    4
 40
15.25
 49
12
 49
-1.5
 49
0.25
 49
-1.5
  0
LTYPE
  2
long_dashed_double-dotted
 70
   64
  3
----------- --- --- ------------
 72
   65
 73
    6
 40
17
 49
12
 49
-1.5
 49
0.25
 49
-1.5
 49
0.25
 49
-1.5
  0
LTYPE
  2
long_dashed_triplicate-dotted
 70
   64
  3
--------- --- --- --- ----------
 72
   65
 73
    8
 40
18.75
 49
12
 49
-1.5
 49
0.25
 49
-1.5
 49
0.25
 49
-1.5
 49
0.25
 49
-1.5
  0
LTYPE
  2
dotted
 70
   64
  3
   -       -       -       -    
 72
   65
 73
    2
 40
1.75
 49
0.25
 49
-1.5
  0
LTYPE
  2
chain
 70
   64
  3
-------------- -- --------------
 72
   65
 73
    4
 40
18.5
 49
12
 49
-1.5
 49
3.5
 49
-1.5
  0
LTYPE
  2
chain_double_dash
 70
   64
  3
------------ -- -- -------------
 72
   65
 73
    6
 40
23.5
 49
12
 49
-1.5
 49
3.5
 49
-1.5
 49
3.5
 49
-1.5
  0
LTYPE
  2
dashed_dotted
 70
   64
  3
-----------     -     ----------
 72
   65
 73
    4
 40
9.25
 49
6
 49
-1.5
 49
0.25
 49
-1.5
  0
LTYPE
  2
double-dashed_dotted
 70
   64
  3
------   -----------   -   -----
 72
   65
 73
    6
 40
16.75
 49
6
 49
-1.5
 49
6
 49
-1.5
 49
0.25
 49
-1.5
  0
LTYPE
  2
dashed_double-dotted
 70
   64
  3
---------    -    -    ---------
 72
   65
 73
    6
 40
11
 49
6
 49
-1.5
 49
0.25
 49
-1.5
 49
0.25
 49
-1.5
  0
LTYPE
  2
double-dashed_double-dotted
 70
   64
  3
-----   ---------   -   -   ----
 72
   65
 73
    8
 40
18.5
 49
6
 49
-1.5
 49
6
 49
-1.5
 49
0.25
 49
-1.5
 49
0.25
 49
-1.5
  0
LTYPE
  2
dashed_triplicate-dotted
 70
   64
  3
-------    -    -    -    ------
 72
   65
 73
    8
 40
12.75
 49
6
 49
-1.5
 49
0.25
 49
-1.5
 49
0.25
 49
-1.5
 49
0.25
 49
-1.5
  0
LTYPE
  2
double-dashed_triplicate-dotted
 70
   64
  3
-----  ---------  -  -  -  -----
 72
   65
 73
   10
 40
20.25
 49
6
 49
-1.5
 49
6
 49
-1.5
 49
0.25
 49
-1.5
 49
0.25
 49
-1.5
 49
0.25
 49
-1.5
  0
LTYPE
  2
undefined
 70
   64
  3
--------------------------------
 72
   65
 73
    0
 40
0
  0
ENDTAB
  0
TABLE
  2
STYLE
  5
3
100
AcDbSymbolTable
 70
     1
  0
STYLE
  5
10
100
AcDbSymbolTableRecord
100
AcDbTextStyleTableRecord
  2
STANDARD
 70
     0
 40
0.0
 41
1.0
 50
0.0
 71
     0
 42
0.2
  3
txt
  4
bigfont.shx
  0
STYLE
  5
26
100
AcDbSymbolTableRecord
100
AcDbTextStyleTableRecord
  2
TATEGAKI
 70
    68
 40
0.0
 41
1.0
 50
0.0
 71
     0
 42
1.0
  3
txt
  4
bigfont.shx
  0
ENDTAB
  0
TABLE
  2
LAYER
 70
   10
  0
LAYER
  2
_0-0_
 70
   64
 62
    7
  6
CONTINUOUS
  0
LAYER
  2
_1-0_
 70
   64
 62
    7
  6
CONTINUOUS
  0
LAYER
  2
_1-1_
 70
   64
 62
    7
  6
CONTINUOUS
  0
LAYER
  2
_1-2_
 70
   64
 62
    7
  6
CONTINUOUS
  0
LAYER
  2
_1-3_
 70
   64
 62
    7
  6
CONTINUOUS
  0
LAYER
  2
_1-4_
 70
   64
 62
    7
  6
CONTINUOUS
  0
LAYER
  2
_1-5_
 70
   64
 62
    7
  6
CONTINUOUS
  0
LAYER
  2
_1-6_
 70
   64
 62
    7
  6
CONTINUOUS
  0
LAYER
  2
_1-7_
 70
   64
 62
    7
  6
CONTINUOUS
  0
LAYER
  2
ADD_LINE
 70
   64
 62
    7
  6
CONTINUOUS
  0
ENDTAB
  0
ENDSEC
  0
SECTION
  2
BLOCKS
  0
ENDSEC
  0
SECTION
  2
ENTITIES
  0
LINE
  8
_1-4_
  6
CONTINUOUS
 62
    7
 10
186.99290919948271
 20
176.82996182828336
 11
186.99290919948271
 21
167.29015453441724
  0
LINE
  8
_1-0_
  6
CONTINUOUS
 62
    7
 10
42.628951747088166
 20
106.38771199068904
 11
181.99290507548565
 21
169.10151301203547
  0
LINE
  8
_1-4_
  6
CONTINUOUS
 62
    7
 10
163.99290754988388
 20
161.44014513170399
 11
181.99291744747677
 21
169.54014958562078
  0
LINE
  8
_0-0_
  6
CONTINUOUS
 62
    5
 10
6.7567526327597136
 20
280.13513513513516
 11
406.75677325274495
 21
280.13513513513516
  0
LINE
  8
_0-0_
  6
CONTINUOUS
 62
    5
 10
406.75677325274495
 20
10.13513513513513
 11
6.7567526327597136
 21
10.13513513513513
  0
LINE
  8
_0-0_
  6
CONTINUOUS
 62
    5
 10
406.75677325274495
 20
30.135133073136615
 11
6.7567402607685949
 21
30.135133073136615
  0
LINE
  8
_0-0_
  6
CONTINUOUS
 62
    5
 10
371.75678150073907
 20
10.13513513513513
 11
371.75678150073907
 21
30.135133073136615
  0
LINE
  8
_0-0_
  6
CONTINUOUS
 62
    5
 10
137.02703939901818
 20
30.135133073136615
 11
137.02703939901818
 21
10.13513513513513
  0
LINE
  8
_0-0_
  6
CONTINUOUS
 62
    5
 10
214.86486486486487
 20
30.135133073136615
 11
214.86486486486487
 21
10.13513513513513
  0
LINE
  8
_0-0_
  6
CONTINUOUS
 62
    5
 10
137.02703939901818
 20
20.135134104135886
 11
214.86486486486487
 21
20.135134104135886
  0
LINE
  8
_0-0_
  6
CONTINUOUS
 62
    5
 10
396.48648648648651
 20
25.945945945945951
 11
383.91891891891896
 21
13.378379924877265
  0
LINE
  8
_1-2_
  6
CONTINUOUS
 62
    3
 10
157.9189156197213
 20
185.49633129222974
 11
158.38955853436445
 21
180.11687820022172
  0
LINE
  8
_1-2_
  6
CONTINUOUS
 62
    3
 10
178.02713755014781
 20
190.86932620486698
 11
178.34090361724029
 21
187.28302001953125
  0
LINE
  8
_1-2_
  6
CONTINUOUS
 62
    3
 10
156.98631492820948
 20
179.38133858345651
 11
157.45695784285263
 21
174.00187311945737
  0
LINE
  8
_1-2_
  6
CONTINUOUS
 62
    3
 10
177.09453685863599
 20
184.75433349609375
 11
177.40830292572846
 21
181.16802731075802
  0
LINE
  8
_1-2_
  6
CONTINUOUS
 62
    3
 10
166.99290507548565
 20
194.98421333931589
 11
170.14385326488599
 21
195.58420542124156
  0
LINE
  8
_1-2_
  6
CONTINUOUS
 62
    3
 10
193.84195688608531
 20
195.58420542124156
 11
196.99290507548565
 21
194.98421333931589
  0
LINE
  8
_1-3_
  6
CONTINUOUS
 62
    7
 10
199.78325921135982
 20
186.75024496542443
 11
209.48906151024073
 21
203.56118279534419
  0
LINE
  8
_1-3_
  6
CONTINUOUS
 62
    7
 10
209.48906151024073
 20
203.56118279534419
 11
201.22486836201438
 21
179.54221158414273
  0
LINE
  8
_1-3_
  6
CONTINUOUS
 62
    7
 10
207.99573743665542
 20
222.10891311233109
 11
212.21656593116555
 21
222.10891311233109
  0
LINE
  8
_1-3_
  6
CONTINUOUS
 62
    7
 10
209.48906151024073
 20
203.56118279534419
 11
213.81643759237755
 21
203.56118279534419
  0
LINE
  8
_1-2_
  6
CONTINUOUS
 62
    3
 10
158.98648236248945
 20
191.67242926520271
 11
159.4571252771326
 21
186.29297617319469
  0
LINE
  8
_1-2_
  6
CONTINUOUS
 62
    3
 10
179.09470429291596
 20
197.04542417783995
 11
179.40847036000847
 21
193.45911799250425
  0
LINE
  8
_1-2_
  6
CONTINUOUS
 62
    3
 10
206.06689453125
 20
185.49633129222974
 11
205.59625161660685
 21
180.11687820022172
  0
LINE
  8
_1-2_
  6
CONTINUOUS
 62
    3
 10
185.95867260082349
 20
190.86932620486698
 11
185.64490653373102
 21
187.28302001953125
  0
LINE
  8
_1-2_
  6
CONTINUOUS
 62
    3
 10
206.99949522276182
 20
179.38133858345651
 11
206.52885230811867
 21
174.00187311945737
  0
LINE
  8
_1-2_
  6
CONTINUOUS
 62
    3
 10
186.89127329233531
 20
184.75433349609375
 11
186.57750722524284
 21
181.16802731075802
  0
LINE
  8
_1-2_
  6
CONTINUOUS
 62
    3
 10
204.99932778848185
 20
191.67242926520271
 11
204.5286848738387
 21
186.29297617319469
  0
LINE
  8
_1-2_
  6
CONTINUOUS
 62
    3
 10
184.89110585805534
 20
197.04542417783995
 11
184.57733979096284
 21
193.45911799250425
  0
LINE
  8
_1-4_
  6
CONTINUOUS
 62
    7
 10
163.99290754988388
 20
161.44014513170399
 11
163.99290754988388
 21
161.00150855811867
  0
LINE
  8
_1-4_
  6
CONTINUOUS
 62
    7
 10
199.99290260108742
 20
161.4401575036951
 11
199.99290260108742
 21
161.00150855811867
  0
LINE
  8
_1-4_
  6
CONTINUOUS
 62
    7
 10
199.9928902290963
 20
161.4401575036951
 11
181.99291744747677
 21
169.54014958562078
  0
LINE
  8
_1-0_
  6
CONTINUOUS
 62
    7
 10
181.99290507548565
 20
169.75943075644005
 11
181.99289270349453
 21
169.75944312843117
  0
LINE
  8
_1-4_
  6
CONTINUOUS
 62
    7
 10
176.99290095148862
 20
176.82996182828336
 11
186.99290919948271
 21
176.82996182828336
  0
LINE
  8
_1-4_
  6
CONTINUOUS
 62
    7
 10
176.99290095148862
 20
176.82996182828336
 11
176.99290095148862
 21
167.29014216242609
  0
LINE
  8
_1-4_
  6
CONTINUOUS
 62
    7
 10
181.29291018924198
 20
176.42996298300255
 11
181.29291018924198
 21
169.22514631941513
  0
LINE
  8
_1-4_
  6
CONTINUOUS
 62
    7
 10
182.69289996172932
 20
176.42996298300255
 11
182.69289996172932
 21
169.22515869140625
  0
LINE
  8
_1-4_
  6
CONTINUOUS
 62
    7
 10
181.86606742240289
 20
208.53250864389781
 11
182.13256011138091
 21
208.53250864389781
  0
LINE
  8
_1-4_
  6
CONTINUOUS
 62
    7
 10
180.99290177628802
 20
207.99949852195948
 11
182.99290837468328
 21
207.99949852195948
  0
LINE
  8
_1-4_
  6
CONTINUOUS
 62
    7
 10
180.99290177628802
 20
207.55136025918497
 11
180.99290177628802
 21
207.99949852195948
  0
LINE
  8
_1-4_
  6
CONTINUOUS
 62
    7
 10
182.99290837468328
 20
207.55136025918497
 11
182.99290837468328
 21
207.99949852195948
  0
LINE
  8
_1-4_
  6
CONTINUOUS
 62
    7
 10
181.29291018924198
 20
182.08960455817146
 11
182.69289996172932
 21
182.08960455817146
  0
LINE
  8
_1-4_
  6
CONTINUOUS
 62
    7
 10
181.29291018924198
 20
181.68960571289062
 11
182.69289996172932
 21
181.68960571289062
  0
LINE
  8
_1-4_
  6
CONTINUOUS
 62
    7
 10
181.29291018924198
 20
181.28960686760982
 11
182.69289996172932
 21
181.28960686760982
  0
LINE
  8
_1-4_
  6
CONTINUOUS
 62
    7
 10
181.29291018924198
 20
180.88960802232899
 11
182.69289996172932
 21
180.88960802232899
  0
LINE
  8
_1-4_
  6
CONTINUOUS
 62
    7
 10
181.29291018924198
 20
180.48960917704815
 11
182.69289996172932
 21
180.48960917704815
  0
LINE
  8
_1-4_
  6
CONTINUOUS
 62
    7
 10
181.29291018924198
 20
180.08961033176732
 11
182.69289996172932
 21
180.08961033176732
  0
LINE
  8
_1-4_
  6
CONTINUOUS
 62
    7
 10
181.29291018924198
 20
179.68961148648648
 11
182.69289996172932
 21
179.68961148648648
  0
LINE
  8
_1-4_
  6
CONTINUOUS
 62
    7
 10
181.29291018924198
 20
179.28961264120568
 11
182.69289996172932
 21
179.28961264120568
  0
LINE
  8
_1-4_
  6
CONTINUOUS
 62
    7
 10
181.29291018924198
 20
178.88961379592484
 11
182.69289996172932
 21
178.88961379592484
  0
LINE
  8
_1-4_
  6
CONTINUOUS
 62
    7
 10
181.29291018924198
 20
178.48961495064401
 11
182.69289996172932
 21
178.48961495064401
  0
LINE
  8
_1-4_
  6
CONTINUOUS
 62
    7
 10
181.29291018924198
 20
178.08961610536318
 11
182.69289996172932
 21
178.08961610536318
  0
LINE
  8
_1-4_
  6
CONTINUOUS
 62
    7
 10
181.29291018924198
 20
177.68961726008237
 11
182.69289996172932
 21
177.68961726008237
  0
LINE
  8
_1-4_
  6
CONTINUOUS
 62
    7
 10
181.29291018924198
 20
177.28961841480154
 11
182.69289996172932
 21
177.28961841480154
  0
LINE
  8
_1-4_
  6
CONTINUOUS
 62
    7
 10
181.29291018924198
 20
176.8896195695207
 11
182.69289996172932
 21
176.8896195695207
  0
LINE
  8
_1-4_
  6
CONTINUOUS
 62
    7
 10
181.29291018924198
 20
176.02996413772172
 11
182.69289996172932
 21
176.02996413772172
  0
LINE
  8
_1-4_
  6
CONTINUOUS
 62
    7
 10
177.39289979676943
 20
176.42996298300255
 11
186.59291035420188
 21
176.42996298300255
  0
LINE
  8
_1-4_
  6
CONTINUOUS
 62
    7
 10
186.59291035420188
 20
176.42996298300255
 11
186.59291035420188
 21
167.47015463339318
  0
LINE
  8
_1-4_
  6
CONTINUOUS
 62
    7
 10
177.39289979676943
 20
176.42996298300255
 11
177.39289979676943
 21
167.47014226140203
  0
LINE
  8
_1-4_
  6
CONTINUOUS
 62
    7
 10
177.39289979676943
 20
176.42996298300255
 11
186.59291035420188
 21
176.42996298300255
  0
LINE
  8
_1-4_
  6
CONTINUOUS
 62
    7
 10
181.29291018924198
 20
175.62996529244089
 11
182.69289996172932
 21
175.62996529244089
  0
LINE
  8
_1-4_
  6
CONTINUOUS
 62
    7
 10
181.29291018924198
 20
175.22996644716005
 11
182.69289996172932
 21
175.22996644716005
  0
LINE
  8
_1-4_
  6
CONTINUOUS
 62
    7
 10
181.29291018924198
 20
174.82996760187925
 11
182.69289996172932
 21
174.82996760187925
  0
LINE
  8
_1-4_
  6
CONTINUOUS
 62
    7
 10
181.29291018924198
 20
174.42996875659841
 11
182.69289996172932
 21
174.42996875659841
  0
LINE
  8
_1-4_
  6
CONTINUOUS
 62
    7
 10
181.29291018924198
 20
174.02996991131758
 11
182.69289996172932
 21
174.02996991131758
  0
LINE
  8
_1-4_
  6
CONTINUOUS
 62
    7
 10
181.29291018924198
 20
173.62997106603675
 11
182.69289996172932
 21
173.62997106603675
  0
LINE
  8
_1-4_
  6
CONTINUOUS
 62
    7
 10
181.29291018924198
 20
173.22997222075591
 11
182.69289996172932
 21
173.22997222075591
  0
LINE
  8
_1-4_
  6
CONTINUOUS
 62
    7
 10
181.29291018924198
 20
172.82997337547511
 11
182.69289996172932
 21
172.82997337547511
  0
LINE
  8
_1-4_
  6
CONTINUOUS
 62
    7
 10
181.29291018924198
 20
172.42997453019427
 11
182.69289996172932
 21
172.42997453019427
  0
LINE
  8
_1-4_
  6
CONTINUOUS
 62
    7
 10
181.29291018924198
 20
172.02997568491344
 11
182.69289996172932
 21
172.02997568491344
  0
LINE
  8
_1-4_
  6
CONTINUOUS
 62
    7
 10
181.29291018924198
 20
171.6299768396326
 11
182.69289996172932
 21
171.6299768396326
  0
LINE
  8
_1-4_
  6
CONTINUOUS
 62
    7
 10
181.29291018924198
 20
171.22997799435177
 11
182.69289996172932
 21
171.22997799435177
  0
LINE
  8
_1-4_
  6
CONTINUOUS
 62
    7
 10
181.29291018924198
 20
170.82997914907097
 11
182.69289996172932
 21
170.82997914907097
  0
LINE
  8
_1-4_
  6
CONTINUOUS
 62
    7
 10
181.29291018924198
 20
170.42998030379013
 11
182.69289996172932
 21
170.42998030379013
  0
LINE
  8
_1-4_
  6
CONTINUOUS
 62
    7
 10
181.29291018924198
 20
170.0299814585093
 11
182.69289996172932
 21
170.0299814585093
  0
LINE
  8
_1-4_
  6
CONTINUOUS
 62
    7
 10
181.29291018924198
 20
169.62998261322846
 11
182.69289996172932
 21
169.62998261322846
  0
LINE
  8
_1-4_
  6
DASHED2
 62
    7
 10
181.29291018924198
 20
169.22514631941513
 11
181.99290507548565
 21
167.35494665197425
  0
LINE
  8
_1-4_
  6
DASHED2
 62
    7
 10
181.99290507548565
 20
167.35494665197425
 11
182.69289996172932
 21
169.22515869140625
  0
LINE
  8
_1-3_
  6
CONTINUOUS
 62
    7
 10
194.45399928737334
 20
198.65396860483531
 11
207.99573743665542
 21
222.10891311233109
  0
LINE
  8
_1-4_
  6
CONTINUOUS
 62
    7
 10
181.91652040223818
 20
208.09585158889359
 11
172.09438427074537
 21
235.08196031725086
  0
LINE
  8
_1-4_
  6
CONTINUOUS
 62
    7
 10
181.91652040223818
 20
185.13077607025971
 11
169.44092621674409
 21
219.40716717694258
  0
LINE
  8
_1-4_
  6
CONTINUOUS
 62
    7
 10
170.4721193055849
 20
226.83192072687925
 11
167.40269016575169
 21
226.83192072687925
  0
LINE
  8
_1-4_
  6
CONTINUOUS
 62
    7
 10
169.44092621674409
 20
219.40716717694258
 11
167.0426775958087
 21
219.40716717694258
  0
LINE
  8
_1-4_
  6
CONTINUOUS
 62
    7
 10
172.09438427074537
 20
235.08196031725086
 11
169.7302699733425
 21
235.08196031725086
  0
LINE
  8
_1-4_
  6
CONTINUOUS
 62
    7
 10
196.70813895560602
 20
230.34442798511404
 11
200.22018845016893
 21
230.34442798511404
  0
ARC
  8
_1-2_
  6
CONTINUOUS
 62
    3
 10
181.96762909760346
 20
145.82935230152029
 40
41.612016832506335
 50
95
 51
124.5146484375
  0
ARC
  8
_1-2_
  6
CONTINUOUS
 62
    3
 10
183.27112971125425
 20
130.93025826119089
 40
60.168024011560391
 50
95
 51
114.92028808593749
  0
ARC
  8
_1-2_
  6
CONTINUOUS
 62
    3
 10
181.03502840609164
 20
139.71434722075591
 40
41.612016832506335
 50
95
 51
124.5146484375
  0
ARC
  8
_1-2_
  6
CONTINUOUS
 62
    3
 10
182.3385290197424
 20
124.81525318042652
 40
60.168024011560391
 50
95
 51
114.92028808593749
  0
ARC
  8
_1-2_
  6
CONTINUOUS
 62
    3
 10
181.99290507548565
 20
192.35566010346284
 40
15.228569443161424
 50
9.939453125
 51
170.06054687499997
  0
ARC
  8
_1-2_
  6
CONTINUOUS
 62
    3
 10
181.99290507548565
 20
192.28419948268584
 40
12.300003928107184
 50
15.562728881835937
 51
164.43727111816406
  0
ARC
  8
_1-2_
  6
CONTINUOUS
 62
    3
 10
183.03519584037164
 20
152.00545027449326
 40
41.612016832506335
 50
95
 51
124.5146484375
  0
ARC
  8
_1-2_
  6
CONTINUOUS
 62
    3
 10
184.3386964540224
 20
137.10635623416385
 40
60.168024011560391
 50
95
 51
114.92028808593749
  0
ARC
  8
_1-2_
  6
CONTINUOUS
 62
    3
 10
182.01818105336784
 20
145.82935230152029
 40
41.612016832506335
 50
55.485351562499972
 51
84.999999999999986
  0
ARC
  8
_1-2_
  6
CONTINUOUS
 62
    3
 10
180.71468043971706
 20
130.93025826119089
 40
60.168024011560391
 50
65.079711914062514
 51
85
  0
ARC
  8
_1-2_
  6
CONTINUOUS
 62
    3
 10
182.95078174487966
 20
139.71434722075591
 40
41.612016832506335
 50
55.485351562499972
 51
84.999999999999986
  0
ARC
  8
_1-2_
  6
CONTINUOUS
 62
    3
 10
181.64728113122891
 20
124.81525318042652
 40
60.168024011560391
 50
65.079711914062514
 51
85
  0
ARC
  8
_1-2_
  6
CONTINUOUS
 62
    3
 10
180.95061431059966
 20
152.00545027449326
 40
41.612016832506335
 50
55.485351562499972
 51
84.999999999999986
  0
ARC
  8
_1-2_
  6
CONTINUOUS
 62
    3
 10
179.64711369694891
 20
137.10635623416385
 40
60.168024011560391
 50
65.079711914062514
 51
85
  0
ARC
  8
_1-4_
  6
CONTINUOUS
 62
    7
 10
181.99290507548565
 20
207.34622027422932
 40
1.1944762113932017
 50
33.155624389648445
 51
146.84437561035156
  0
ARC
  8
_1-4_
  6
CONTINUOUS
 62
    3
 10
182.0724817224451
 20
159.74968575142526
 40
37.439971099028718
 50
79.328231811523438
 51
99.345169067382827
  0
ARC
  8
_1-4_
  6
CONTINUOUS
 62
    3
 10
188.24928489891261
 20
312.81720960462417
 40
120.42529956714527
 50
264.1585693359375
 51
271.24249267578125
  0
ARC
  8
_1-4_
  6
CONTINUOUS
 62
    3
 10
182.31792965450802
 20
167.60681564743456
 40
23.935370574126374
 50
73.946151733398438
 51
105.32263183593749
  0
ARC
  8
_1-4_
  6
CONTINUOUS
 62
    3
 10
183.21369892842063
 20
252.39025219066724
 40
65.777583766627956
 50
263.69760131835937
 51
274.99163818359375
  0
ARC
  8
_1-4_
  6
CONTINUOUS
 62
    3
 10
182.29580853436445
 20
158.11064436629013
 40
27.285278938912057
 50
75.912734985351563
 51
103.35595703125
  0
ARC
  8
_1-4_
  6
CONTINUOUS
 62
    3
 10
182.73807010135135
 20
208.96057953705659
 40
28.743469650680957
 50
256.42796325683594
 51
282.45454406738281
  0
TEXT
  8
_0-0_
 62
    7
 10
141.89189395389042
 20
14.594594594594582
 40
2.5
 41
1
 50
0
  1
縮尺
  0
TEXT
  8
_0-0_
 62
    7
 10
377.10214563318203
 20
22.865493362014362
 40
2.5
 41
1
 50
0
  1
ＮＯ
  0
TEXT
  8
_0-0_
 62
    7
 10
14.594594336844779
 20
24.324324324324323
 40
2.5
 41
1
 50
0
  1
和形
  0
TEXT
  8
_0-0_
 62
    7
 10
25.556194717819636
 20
20.211577544341225
 40
2.5
 41
1
 50
0
  1
木造
  0
TEXT
  8
_0-0_
 62
    7
 10
383.23801896378802
 20
18.523427086907475
 40
3
 41
1
 50
0
  1
Ｊ
  0
TEXT
  8
_1-0_
 62
    7
 10
169.90681828679266
 20
13.3181144095756
 40
2.5
 41
1
 50
0
  1
1/5
  0
TEXT
  8
_1-3_
 62
    7
 10
213.63322902370146
 20
221.20986526076859
 40
2.5
 41
1
 50
0
  1
冠瓦
  0
TEXT
  8
_1-3_
 62
    7
 10
215.05531929634714
 20
202.72265872439823
 40
2.5
 41
1
 50
0
  1
のし瓦
  0
TEXT
  8
_1-3_
 62
    7
 10
394.14484384897594
 20
14.602422971983202
 40
2.5
 41
1
 50
0
  1
15
  0
LINE
  8
_1-1_
  6
DASHED1
 62
    3
 10
227.58897905697592
 20
148.36394564844525
 11
181.99290507548565
 21
168.88218235325169
  0
LINE
  8
_1-6_
  6
CONTINUOUS
 62
    7
 10
188.2240031237757
 20
170.24520026922383
 11
186.99290919960234
 21
167.50943570518265
  0
LINE
  8
_1-6_
  6
CONTINUOUS
 62
    3
 10
211.6809318166043
 20
169.47754765308622
 11
212.94641570012857
 21
168.90379912792145
  0
LINE
  8
_1-6_
  6
CONTINUOUS
 62
    3
 10
212.94641570012857
 20
168.90379912792145
 11
211.63280397369172
 21
166.00644184314774
  0
LINE
  8
_1-6_
  6
CONTINUOUS
 62
    3
 10
212.94641570012857
 20
168.90379912792145
 11
211.63280397369172
 21
166.00644184314774
  0
LINE
  8
_1-6_
  6
CONTINUOUS
 62
    3
 10
212.01596900454371
 20
172.49035288216987
 11
205.5187585357171
 21
171.89514321912699
  0
LINE
  8
_1-6_
  6
CONTINUOUS
 62
    3
 10
259.95155111857861
 20
147.59261882205126
 11
261.21703500210288
 21
147.01887029688649
  0
LINE
  8
_1-6_
  6
CONTINUOUS
 62
    3
 10
205.5187585357171
 20
171.89514321912699
 11
204.36258690302714
 21
169.34504242830252
  0
LINE
  8
_1-6_
  6
CONTINUOUS
 62
    3
 10
209.50510005685868
 20
169.61423334115861
 11
204.36258690302714
 21
169.34504242830252
  0
LINE
  8
_1-6_
  6
CONTINUOUS
 62
    3
 10
261.21703500210288
 20
147.01887029688649
 11
259.903423275666
 21
144.12151301211281
  0
LINE
  8
_1-6_
  6
CONTINUOUS
 62
    3
 10
261.21703500210288
 20
147.01887029688649
 11
259.903423275666
 21
144.12151301211281
  0
LINE
  8
_1-6_
  6
CONTINUOUS
 62
    3
 10
260.28652595148424
 20
150.60531648007759
 11
253.78930421468127
 21
150.01011192574046
  0
LINE
  8
_1-6_
  6
CONTINUOUS
 62
    3
 10
308.22207426159019
 20
125.70759774607622
 11
309.48755814511446
 21
125.13384922091143
  0
LINE
  8
_1-6_
  6
CONTINUOUS
 62
    3
 10
253.78930421468127
 20
150.01011192574046
 11
252.6331325819913
 21
147.46001113491599
  0
LINE
  8
_1-6_
  6
CONTINUOUS
 62
    3
 10
257.77564573582288
 20
147.72920204777205
 11
252.6331325819913
 21
147.46001113491599
  0
LINE
  8
_1-6_
  6
CONTINUOUS
 62
    3
 10
309.48755814511446
 20
125.13384922091143
 11
308.17394641867764
 21
122.23649193613778
  0
LINE
  8
_1-6_
  6
CONTINUOUS
 62
    3
 10
309.48755814511446
 20
125.13384922091143
 11
308.17394641867764
 21
122.23649193613778
  0
LINE
  8
_1-6_
  6
CONTINUOUS
 62
    3
 10
307.92482549157415
 20
121.68702033931316
 11
307.90885567740543
 21
121.65179664536529
  0
LINE
  8
_1-6_
  6
CONTINUOUS
 62
    3
 10
308.55705420320157
 20
128.72030667207886
 11
302.05984989364549
 21
128.12508063235393
  0
LINE
  8
_1-6_
  6
CONTINUOUS
 62
    3
 10
302.05984989364549
 20
128.1250806323539
 11
300.90367826095553
 21
125.57497984152945
  0
LINE
  8
_1-6_
  6
CONTINUOUS
 62
    3
 10
306.04618630608132
 20
125.84415948640918
 11
300.90367826095553
 21
125.57497984152945
  0
LINE
  8
ADD_LINE
  6
DOT
 62
    4
 10
326.28087904331306
 20
110.55572634829173
 11
335.55539259314446
 21
106.35082216885853
  0
ARC
  8
_1-6_
  6
CONTINUOUS
 62
    3
 10
210.72170885483942
 20
169.88016676821044
 40
1.0402513194728542
 50
284.69312982908286
 51
337.22575312009849
  0
ARC
  8
_1-6_
  6
CONTINUOUS
 62
    3
 10
212.68063943012828
 20
169.50069452102235
 40
3.0627306731971538
 50
18.301833442364092
 51
102.53202753416097
  0
ARC
  8
_1-6_
  6
CONTINUOUS
 62
    3
 10
258.99231688883742
 20
147.99524304588127
 40
1.0402513194728542
 50
284.69312982908286
 51
337.22575312009849
  0
ARC
  8
_1-6_
  6
CONTINUOUS
 62
    3
 10
255.92303056258029
 20
193.14287272989714
 40
46.274049088761615
 50
209.3493950878719
 51
274.13066034666099
  0
ARC
  8
_1-6_
  6
CONTINUOUS
 62
    3
 10
210.47635990832399
 20
165.09096686757326
 40
4.6263270764737516
 50
22.734328559551596
 51
102.11845331541097
  0
ARC
  8
_1-6_
  6
CONTINUOUS
 62
    3
 10
255.97107062662874
 20
192.50553887914469
 40
48.543530025997683
 50
211.86444025388755
 51
274.64630060545005
  0
ARC
  8
_1-6_
  6
CONTINUOUS
 62
    3
 10
260.95119637706881
 20
147.61565811893004
 40
3.0627306731971538
 50
18.301833442364092
 51
102.53202753416097
  0
ARC
  8
_1-6_
  6
CONTINUOUS
 62
    3
 10
307.26286256780162
 20
126.11021175249472
 40
1.0402513194728542
 50
284.69312982908286
 51
337.22575312009849
  0
ARC
  8
_1-6_
  6
CONTINUOUS
 62
    3
 10
304.19359877749713
 20
171.2578312190991
 40
46.274049088761615
 50
209.3493950878719
 51
274.13066034666099
  0
ARC
  8
_1-6_
  6
CONTINUOUS
 62
    3
 10
258.74689431931188
 20
143.20594068289245
 40
4.6263270764737516
 50
22.734328559551596
 51
102.11845331541097
  0
ARC
  8
_1-6_
  6
CONTINUOUS
 62
    3
 10
304.24161630559297
 20
170.62050758575813
 40
48.543530025997683
 50
211.86444025388755
 51
274.64630060545005
  0
ARC
  8
_1-6_
  6
CONTINUOUS
 62
    3
 10
309.22174205603301
 20
125.73062682554351
 40
3.0627306731971538
 50
18.301833442364092
 51
102.53202753416097
  0
ARC
  8
_1-6_
  6
CONTINUOUS
 62
    3
 10
307.01743488957032
 20
121.32089812152961
 40
4.6263270764737516
 50
22.734328559551596
 51
102.11845331541097
  0
ARC
  8
_1-6_
  6
CONTINUOUS
 62
    3
 10
209.79833981159265
 20
226.58661588104346
 40
57.724895992794565
 50
249.2133667351726
 51
271.17848139158286
  0
ARC
  8
_1-6_
  6
CONTINUOUS
 62
    3
 10
211.85614573805361
 20
233.99745017738769
 40
67.991378371779987
 50
249.66090187835653
 51
269.81179743162193
  0
LINE
  8
_1-6_
  6
CONTINUOUS
 62
    3
 10
188.2240031237757
 20
170.24520026922383
 11
189.3124170507192
 21
172.6191202376983
  0
LINE
  8
_1-6_
  6
CONTINUOUS
 62
    7
 10
175.37295215809351
 20
170.07024027358261
 11
176.61464270407177
 21
167.31092871387875
  0
LINE
  8
_1-6_
  6
CONTINUOUS
 62
    3
 10
57.789446613243626
 20
127.75769104944088
 11
59.059227240754751
 21
128.32186654304724
  0
LINE
  8
_1-6_
  6
CONTINUOUS
 62
    3
 10
59.059227240754751
 20
128.32186654304724
 11
60.35092126987098
 21
125.41467175449093
  0
LINE
  8
_1-6_
  6
CONTINUOUS
 62
    3
 10
59.059227240754751
 20
128.32186654304724
 11
60.35092126987098
 21
125.41467175449093
  0
LINE
  8
_1-6_
  6
CONTINUOUS
 62
    3
 10
55.761127042299449
 20
130.01035059661666
 11
51.887479356539984
 21
124.76030180014826
  0
LINE
  8
_1-6_
  6
CONTINUOUS
 62
    3
 10
106.22386443935319
 20
149.27755912156738
 11
107.49364506686432
 21
149.84173461517372
  0
LINE
  8
_1-6_
  6
CONTINUOUS
 62
    3
 10
51.887479356539984
 20
124.76030180014826
 11
53.024360190140669
 21
122.2015425582906
  0
LINE
  8
_1-6_
  6
CONTINUOUS
 62
    3
 10
56.241188352648123
 20
126.22272669456115
 11
53.024360190140669
 21
122.2015425582906
  0
LINE
  8
_1-6_
  6
CONTINUOUS
 62
    3
 10
107.49364506686432
 20
149.84173461517372
 11
108.78533909598052
 21
146.93453982661742
  0
LINE
  8
_1-6_
  6
CONTINUOUS
 62
    3
 10
107.49364506686432
 20
149.84173461517372
 11
108.78533909598052
 21
146.93453982661742
  0
LINE
  8
_1-6_
  6
CONTINUOUS
 62
    3
 10
109.03030342416925
 20
146.38320258866509
 11
109.04600678094717
 21
146.34785929841325
  0
LINE
  8
_1-6_
  6
CONTINUOUS
 62
    3
 10
104.19553984494233
 20
151.53022997497806
 11
100.32191979511931
 21
146.28017991920808
  0
LINE
  8
_1-6_
  6
CONTINUOUS
 62
    3
 10
154.65830990139915
 20
170.79742593439232
 11
155.92811314138004
 21
171.36161147493198
  0
LINE
  8
_1-6_
  6
CONTINUOUS
 62
    3
 10
100.32191979511931
 20
146.28017991920808
 11
101.45880062872
 21
143.72142067735041
  0
LINE
  8
_1-6_
  6
CONTINUOUS
 62
    3
 10
104.67563381469414
 20
147.74259350738609
 11
101.45880062872
 21
143.72142067735041
  0
LINE
  8
ADD_LINE
  6
DOT
 62
    4
 10
129.54742977856307
 20
152.69968373457968
 11
138.85343342545917
 21
156.83442881356308
  0
LINE
  8
_1-6_
  6
CONTINUOUS
 62
    3
 10
155.92811314138004
 20
171.36161147493198
 11
157.21980214702961
 21
168.45442799261056
  0
LINE
  8
_1-6_
  6
CONTINUOUS
 62
    3
 10
155.92811314138004
 20
171.36161147493198
 11
157.21980214702961
 21
168.45442799261056
  0
LINE
  8
_1-6_
  6
CONTINUOUS
 62
    3
 10
152.62995767105184
 20
173.05009804710454
 11
148.75633762122885
 21
167.80004799133457
  0
LINE
  8
_1-6_
  6
CONTINUOUS
 62
    3
 10
148.75633762122885
 20
167.80004799133457
 11
149.89321845482954
 21
165.24128874947692
  0
LINE
  8
_1-6_
  6
CONTINUOUS
 62
    3
 10
153.11005164080365
 20
169.26246157951257
 11
149.89321845482954
 21
165.24128874947692
  0
ARC
  8
_1-6_
  6
CONTINUOUS
 62
    3
 10
56.851070715438027
 20
127.30859501568048
 40
1.0402513194728542
 50
333.03787654040252
 51
25.570499831418118
  0
ARC
  8
_1-6_
  6
CONTINUOUS
 62
    3
 10
58.436643896513942
 20
128.51989648667558
 40
3.0627306731971538
 50
66.646580153683729
 51
150.87677424548059
  0
ARC
  8
_1-6_
  6
CONTINUOUS
 62
    3
 10
105.28551115401733
 20
148.82847313474031
 40
1.0402513194728542
 50
333.03787654040252
 51
25.570499831418118
  0
ARC
  8
_1-6_
  6
CONTINUOUS
 62
    3
 10
69.513152258762659
 20
176.5424815562026
 40
46.274049088761615
 50
257.69414179919153
 51
322.47540705798059
  0
ARC
  8
_1-6_
  6
CONTINUOUS
 62
    3
 10
60.266314435742629
 20
123.94203004635605
 40
4.6263270764737516
 50
71.079075270871243
 51
150.46320002673062
  0
ARC
  8
_1-6_
  6
CONTINUOUS
 62
    3
 10
70.021248089543349
 20
176.15476294256297
 40
48.543530025997683
 50
260.20918696520721
 51
322.99104731676971
  0
ARC
  8
_1-6_
  6
CONTINUOUS
 62
    3
 10
106.87108433509327
 20
150.0397746057354
 40
3.0627306731971538
 50
66.646580153683729
 51
150.87677424548059
  0
ARC
  8
_1-6_
  6
CONTINUOUS
 62
    3
 10
153.71995661606331
 20
170.34833994756522
 40
1.0402513194728542
 50
333.03787654040252
 51
25.570499831418118
  0
ARC
  8
_1-6_
  6
CONTINUOUS
 62
    3
 10
117.9475700848722
 20
198.06234962832912
 40
46.274049088761615
 50
257.69414179919153
 51
322.47540705798059
  0
ARC
  8
_1-6_
  6
CONTINUOUS
 62
    3
 10
108.70075989778861
 20
145.46189685918097
 40
4.6263270764737516
 50
71.079075270871243
 51
150.46320002673062
  0
ARC
  8
_1-6_
  6
CONTINUOUS
 62
    3
 10
118.45568852812265
 20
197.67464106162276
 40
48.543530025997683
 50
260.20918696520721
 51
322.99104731676971
  0
ARC
  8
_1-6_
  6
CONTINUOUS
 62
    3
 10
155.30550216120281
 20
171.55964267786192
 40
3.0627306731971538
 50
66.646580153683729
 51
150.87677424548059
  0
ARC
  8
_1-6_
  6
CONTINUOUS
 62
    3
 10
157.13517772389815
 20
166.98176493130748
 40
4.6263270764737516
 50
71.079075270871243
 51
150.46320002673062
  0
ARC
  8
_1-6_
  6
CONTINUOUS
 62
    3
 10
166.89010635423222
 20
219.19450913374931
 40
48.543530025997683
 50
260.20918696520721
 51
276.66559260485565
  0
ARC
  8
_1-6_
  6
CONTINUOUS
 62
    3
 10
166.35100980972214
 20
220.04506646643875
 40
46.719762441274284
 50
257.8521923363009
 51
276.1578563988009
  0
LINE
  8
_1-6_
  6
CONTINUOUS
 62
    3
 10
171.36254922033066
 20
173.59487082309383
 11
172.52476237604577
 21
170.97910745647633
  0
LINE
  8
_1-0_
  6
CONTINUOUS
 62
    7
 10
322.86189683860232
 20
101.32410244939038
 11
181.99291744747677
 21
164.71514727618245
  0
LINE
  8
_1-0_
  6
CONTINUOUS
 62
    7
 10
322.86189683860232
 20
104.61385236780134
 11
181.99290507548565
 21
168.00490920608109
  0
LINE
  8
_1-0_
  6
CONTINUOUS
 62
    7
 10
322.86189683860232
 20
105.71044445722544
 11
181.99290507548565
 21
169.10151301203547
  0
LINE
  8
_1-6_
  6
CONTINUOUS
 62
    7
 10
322.86189683860232
 20
109.65815447082863
 11
188.2240031237757
 21
170.24520026922383
  0
ARC
  8
_1-6_
  6
CONTINUOUS
 62
    3
 10
352.51216198455711
 20
148.73547629237163
 40
48.543530025997683
 50
211.86444025388755
 51
232.35281266676571
  0
ARC
  8
_1-6_
  6
CONTINUOUS
 62
    3
 10
352.46412192050866
 20
149.37281014312407
 40
46.274049088761615
 50
209.3493950878719
 51
230.22939388196116
  0
LINE
  8
_1-0_
  6
CONTINUOUS
 62
    7
 10
322.86189683860232
 20
106.36839769918504
 11
186.99290919948271
 21
167.50943570523648
  0
LINE
  8
_1-0_
  6
CONTINUOUS
 62
    7
 10
42.628951747088166
 20
102.00136908625086
 11
181.99291744747677
 21
164.71514727618245
  0
LINE
  8
_1-0_
  6
CONTINUOUS
 62
    7
 10
42.628951747088166
 20
105.29111977608601
 11
181.99290507548565
 21
168.00490920608109
  0
LINE
  8
_1-1_
  6
DASHED1
 62
    3
 10
42.628951747088166
 20
106.16839292325662
 11
181.99290507548565
 21
168.88218235325169
  0
LINE
  8
_1-0_
  6
CONTINUOUS
 62
    7
 10
42.628951747088166
 20
107.04566653915063
 11
176.99290095148862
 21
167.50946044921875
  0
LINE
  8
_1-6_
  6
CONTINUOUS
 62
    7
 10
42.628951747088166
 20
110.3354235227055
 11
175.37295215809351
 21
170.07024027358261
  0
ARC
  8
_1-6_
  6
CONTINUOUS
 62
    3
 10
21.586807650964033
 20
154.63488482350314
 40
48.543530025997683
 50
295.68795147917439
 51
322.99104731676971
  0
ARC
  8
_1-6_
  6
CONTINUOUS
 62
    3
 10
21.07868920771358
 20
155.02259339020947
 40
46.274049088761615
 50
297.75614692487119
 51
322.47540705798059
  0
LINE
  8
_1-6_
  6
CONTINUOUS
 62
    7
 10
220.15665792730363
 20
188.93128341283662
 11
216.26277335887775
 21
188.93128341283662
  0
LINE
  8
_1-6_
  6
CONTINUOUS
 62
    7
 10
216.26277335887775
 20
188.93128341283662
 11
200.68723508517417
 21
172.67260749554958
  0
LINE
  8
_1-4_
  6
CONTINUOUS
 62
    7
 10
112.16306156405989
 20
150.94592346089848
 11
97.09132875947796
 21
177.05091135284317
  0
LINE
  8
_1-4_
  6
CONTINUOUS
 62
    7
 10
97.09132875947796
 20
177.05091135284317
 11
89.460358861357179
 21
177.05091135284317
  0
TEXT
  8
_1-5_
 62
    7
 10
83.120343346880304
 20
176.13012591286218
 40
2.5
 41
1
 50
0
  1
桟瓦
  0
LINE
  8
_1-6_
  6
CONTINUOUS
 62
    7
 10
193.99291744747677
 20
140.71514727618245
 11
169.99291744747677
 21
140.71514727618245
  0
LINE
  8
_1-6_
  6
CONTINUOUS
 62
    7
 10
169.99291744747677
 20
140.71514727618245
 11
169.99291744747677
 21
159.31514782512579
  0
LINE
  8
_1-6_
  6
CONTINUOUS
 62
    7
 10
193.99291744747677
 20
159.31514692685482
 11
193.99291744747677
 21
140.71514727618245
  0
LINE
  8
_1-3_
  6
CONTINUOUS
 62
    7
 10
299.10149750415974
 20
202.65973377703827
 11
304.84917816822224
 21
202.65973377703827
  0
TEXT
  8
_1-5_
 62
    7
 10
308.15816617233963
 20
194.60925440362189
 40
2.5
 41
1
 50
0
  1
瓦桟　
  0
TEXT
  8
_1-5_
 62
    7
 10
307.48742692112558
 20
201.03602128891538
 40
2.5
 41
1
 50
0
  1
桟瓦
  0
LINE
  8
_1-6_
  6
CONTINUOUS
 62
    7
 10
266.99291773724161
 20
120.89891362427014
 11
278.99291773724161
 21
120.89891362427014
  0
LINE
  8
_1-6_
  6
CONTINUOUS
 62
    7
 10
278.99291773724161
 20
120.89891362427014
 11
278.99291773724161
 21
108.89891362427014
  0
LINE
  8
_1-6_
  6
CONTINUOUS
 62
    7
 10
278.99291773724161
 20
108.89891362427014
 11
266.99291773724161
 21
108.89891362427014
  0
LINE
  8
_1-6_
  6
CONTINUOUS
 62
    7
 10
266.99291773724161
 20
108.89891362427014
 11
266.99291773724161
 21
120.89891362427014
  0
LINE
  8
_1-6_
  6
CONTINUOUS
 62
    7
 10
266.99291773724161
 20
108.89891362427014
 11
250.57849717888325
 21
133.8516344004797
  0
LINE
  8
_1-6_
  6
CONTINUOUS
 62
    7
 10
266.99291773724161
 20
120.89891362427014
 11
261.41767924936585
 21
128.97400215322705
  0
LINE
  8
_1-6_
  6
CONTINUOUS
 62
    7
 10
96.992917737241584
 20
120.89891362427014
 11
84.992917737241584
 21
120.89891362427014
  0
LINE
  8
_1-6_
  6
CONTINUOUS
 62
    7
 10
84.992917737241584
 20
120.89891362427014
 11
84.992917737241584
 21
108.89891362427014
  0
LINE
  8
_1-6_
  6
CONTINUOUS
 62
    7
 10
84.992917737241584
 20
108.89891362427014
 11
96.992917737241584
 21
108.89891362427014
  0
LINE
  8
_1-6_
  6
CONTINUOUS
 62
    7
 10
96.992917737241584
 20
108.89891362427014
 11
96.992917737241584
 21
120.89891362427014
  0
LINE
  8
_1-6_
  6
CONTINUOUS
 62
    7
 10
96.992917737241584
 20
108.89891362427014
 11
113.40733829559991
 21
133.8516344004797
  0
LINE
  8
_1-6_
  6
CONTINUOUS
 62
    7
 10
96.992917737241584
 20
120.89891362427014
 11
102.56815622511735
 21
128.97400215322705
  0
LINE
  8
_1-6_
  6
CONTINUOUS
 62
    7
 10
84.992917737241584
 20
120.89891362427014
 11
96.992917737241584
 21
108.89891362427014
  0
LINE
  8
_1-6_
  6
CONTINUOUS
 62
    7
 10
266.99291773724161
 20
108.89891362427014
 11
278.99291773724161
 21
120.89891362427014
  0
TEXT
  8
_1-6_
 62
    7
 10
323.64053253187467
 20
191.50077171467717
 40
2.5
 41
1
 50
0
  1
※　地域により瓦桟木の大きさは、異なります
  0
TEXT
  8
_1-5_
 62
    7
 10
308.15972504322224
 20
170.40195639146071
 40
2.5
 41
1
 50
0
  1
野地板
  0
TEXT
  8
_1-5_
 62
    7
 10
322.16422514879656
 20
170.40195639146071
 40
2.5
 41
1
 50
0
  1
ｔ＝12
  0
LINE
  8
_1-6_
  6
CONTINUOUS
 62
    7
 10
271.846921797005
 20
117.75124792013311
 11
285.98274468824877
 21
161.78977308131562
  0
LINE
  8
_1-6_
  6
CONTINUOUS
 62
    7
 10
285.98274468824877
 20
161.78977308131562
 11
299.10149750415974
 21
202.65973377703827
  0
LINE
  8
_1-6_
  6
CONTINUOUS
 62
    7
 10
304.84917816822224
 20
195.61425339998846
 11
296.83998528436598
 21
195.61425339998846
  0
LINE
  8
_1-6_
  6
CONTINUOUS
 62
    7
 10
304.84917816822224
 20
185.52848742204574
 11
293.60257892107575
 21
185.52848742204574
  0
LINE
  8
_1-6_
  6
CONTINUOUS
 62
    7
 10
304.84917816822224
 20
178.66456335372365
 11
291.3993440349476
 21
178.66456335372365
  0
LINE
  8
_1-6_
  6
CONTINUOUS
 62
    7
 10
304.84917816822224
 20
171.80063928540153
 11
289.19610914881957
 21
171.80063928540153
  0
LINE
  8
_1-6_
  6
CONTINUOUS
 62
    7
 10
304.84917816822224
 20
165.91727579826829
 11
287.30762210356693
 21
165.91727579826829
  0
TEXT
  8
_1-4_
 62
    7
 10
39.721903414339636
 20
15.395235628695104
 40
2.5
 41
1
 50
0
  1
隅棟　1
  0
LINE
  8
_1-6_
  6
CONTINUOUS
 62
    7
 10
174.67279382654141
 20
165.80748274519635
 11
170.29558336412586
 21
163.83773803710937
  0
LINE
  8
_1-6_
  6
CONTINUOUS
 62
    7
 10
130.5813928552576
 20
149.25609691722974
 11
131.81248020481419
 21
146.52032800622888
  0
LINE
  8
_1-6_
  6
CONTINUOUS
 62
    7
 10
130.5813928552576
 20
149.25609691722974
 11
131.81248020481419
 21
146.52032800622888
  0
LINE
  8
_1-6_
  6
CONTINUOUS
 62
    7
 10
149.14337570602831
 20
119.38427074535473
 11
194.57384676546664
 21
139.82798395930109
  0
LINE
  8
_1-6_
  6
CONTINUOUS
 62
    7
 10
169.28430918100719
 20
139.98293077623521
 11
214.88037934174409
 21
119.46468868771115
  0
TEXT
  8
_1-6_
 62
    7
 10
169.9435747793807
 20
129.29265171514845
 40
2.5
 41
1
 50
24.227719460851098
  1
250
  0
TEXT
  8
_1-6_
 62
    7
 10
190.57766819286257
 20
130.94920009149217
 40
2.5
 41
1
 50
-24.227719460851333
  1
250
  0
POINT
  8
_1-6_
 62
    7
 10
149.14337570602831
 20
119.38427074535473
  0
POINT
  8
_1-6_
 62
    7
 10
194.57384676546664
 20
139.82798395930109
  0
POINT
  8
_1-6_
 62
    7
 10
169.28430918100719
 20
139.98293077623521
  0
POINT
  8
_1-6_
 62
    7
 10
214.88037934174409
 20
119.46468868771115
  0
LINE
  8
_1-1_
  6
DASHED1
 62
    3
 10
136.5624360853472
 20
147.99983365067357
 11
181.99290507548565
 21
168.44354809697518
  0
LINE
  8
_1-1_
  6
DASHED1
 62
    3
 10
227.42483316333747
 20
147.99917705659334
 11
181.99290507548565
 21
168.44354809697518
  0
LINE
  8
_1-6_
  6
CONTINUOUS
 62
    7
 10
149.14337570602831
 20
119.38427074535473
 11
139.88164144973479
 21
139.96588998286734
  0
LINE
  8
_1-6_
  6
CONTINUOUS
 62
    7
 10
194.57384676546664
 20
139.82798395930109
 11
185.59362613301468
 21
159.78401774426823
  0
LINE
  8
_1-6_
  6
CONTINUOUS
 62
    7
 10
169.28430918100719
 20
139.98293077623521
 11
178.62973648682868
 21
160.75054815289718
  0
LINE
  8
_1-6_
  6
CONTINUOUS
 62
    7
 10
214.88037934174409
 20
119.46468868771115
 11
224.05049071069328
 21
139.84269267037541
  0
TEXT
  8
_1-4_
 62
    7
 10
135.61822918541199
 20
233.58261328180157
 40
2.5
 41
1
 50
0
  1
パッキン付きステンレスネジ
  0
TEXT
  8
_1-4_
 62
    7
 10
146.5414547578772
 20
225.49804264107797
 40
2.5
 41
1
 50
0
  1
棟補強芯材40ｘ40
  0
TEXT
  8
_1-4_
 62
    7
 10
154.09492221782332
 20
217.81434298354657
 40
2.5
 41
1
 50
0
  1
棟補強金具
  0
TEXT
  8
_1-4_
 62
    7
 10
201.78545359018688
 20
229.28726608688768
 40
2.5
 41
1
 50
0
  1
のし瓦全数相互銅線緊結
  0
TEXT
  8
_1-4_
 62
    7
 10
220.48590783480608
 20
187.74710403732641
 40
2.5
 41
1
 50
0
  1
葺き土
  0
TEXT
  8
_1-6_
 62
    7
 10
323.22634713676274
 20
194.68485209632837
 40
2.5
 41
1
 50
0
  1
15×21以上　（樹脂桟木）
  0
TEXT
  8
_1-5_
 62
    7
 10
308.15972504322224
 20
184.40195309226306
 40
2.5
 41
1
 50
0
  1
縦桟
  0
TEXT
  8
_1-4_
 62
    7
 10
307.79565948045547
 20
177.70631448971625
 40
2.5
 41
1
 50
0
  1
ルーフィング
  0
TEXT
  8
_1-3_
 62
    7
 10
308.15972091922521
 20
164.7293118536123
 40
2.5
 41
1
 50
0
  1
たる木
  0
TEXT
  8
_1-4_
 62
    7
 10
124.74395775283557
 20
81.021552183529749
 40
2.5
 41
1
 50
0
  1
棟部分のルーフィングは、両方向へそれぞれ250ｍｍ以上重ね合わせること。
  0
TEXT
  8
_1-4_
 62
    7
 10
124.94849128324671
 20
77.058046627777884
 40
2.5
 41
1
 50
0
  1
隅棟部分のルーフィングは、重ね貼りの上に両方向へそれぞれ250ｍｍ以上増し貼りをすること。
  0
LINE
  8
_1-4_
  6
CONTINUOUS
 62
    7
 10
178.99290754988388
 20
186.21231338471927
 11
178.99290754988388
 21
192.21230843592281
  0
LINE
  8
_1-4_
  6
CONTINUOUS
 62
    7
 10
178.99290754988388
 20
192.21230843592281
 11
184.99290260108742
 21
192.21230843592281
  0
LINE
  8
_1-4_
  6
CONTINUOUS
 62
    7
 10
184.99290260108742
 20
192.21230843592281
 11
184.99290260108742
 21
186.21231338471927
  0
LINE
  8
_1-4_
  6
CONTINUOUS
 62
    7
 10
184.99290260108742
 20
186.21231338471927
 11
178.99290754988388
 21
186.21231338471927
  0
LINE
  8
_1-4_
  6
CONTINUOUS
 62
    7
 10
178.39290309596706
 20
185.80475525285692
 11
185.59290705500425
 21
185.80475525285692
  0
LINE
  8
_1-4_
  6
CONTINUOUS
 62
    7
 10
178.39290309596706
 20
185.80475525285692
 11
178.39290309596706
 21
190.79650725876911
  0
LINE
  8
_1-4_
  6
CONTINUOUS
 62
    7
 10
185.59290705500425
 20
190.79650725876911
 11
185.59290705500425
 21
185.80475525285692
  0
LINE
  8
_1-4_
  6
CONTINUOUS
 62
    7
 10
184.99290260108742
 20
190.79650725876911
 11
185.59290705500425
 21
190.79650725876911
  0
LINE
  8
_1-4_
  6
CONTINUOUS
 62
    7
 10
178.99290754988388
 20
192.21230843592281
 11
184.99290260108742
 21
186.21231338471927
  0
LINE
  8
_1-4_
  6
CONTINUOUS
 62
    7
 10
184.99290260108742
 20
192.21230843592281
 11
178.99290754988388
 21
186.21231338471927
  0
LINE
  8
_1-4_
  6
CONTINUOUS
 62
    7
 10
181.29291018924198
 20
185.80475525285692
 11
181.29291018924198
 21
176.82996182828336
  0
LINE
  8
_1-4_
  6
CONTINUOUS
 62
    7
 10
182.69289996172932
 20
185.80475525285692
 11
182.69289996172932
 21
176.82996182828336
  0
LINE
  8
_1-4_
  6
DASHED1
 62
    7
 10
178.39290309596706
 20
188.8123120650402
 11
185.59290705500425
 21
188.8123120650402
  0
LINE
  8
_1-4_
  6
DASHED1
 62
    7
 10
178.39290309596706
 20
189.61230975560187
 11
185.59290705500425
 21
189.61230975560187
  0
LINE
  8
_1-4_
  6
DASHED1
 62
    7
 10
181.48456470386404
 20
189.72065128194265
 11
181.99290507548565
 21
188.3123104154414
  0
LINE
  8
_1-4_
  6
DASHED1
 62
    7
 10
181.99290507548565
 20
188.3123104154414
 11
182.49290672508448
 21
189.71231255991989
  0
LINE
  8
_1-4_
  6
DASHED1
 62
    7
 10
181.49290342588682
 20
189.72065128194265
 11
182.50124544710727
 21
189.72065128194265
  0
LINE
  8
_1-4_
  6
CONTINUOUS
 62
    7
 10
178.39290309596706
 20
190.79650725876911
 11
178.99290754988388
 21
190.79650725876911
  0
LINE
  8
_1-4_
  6
CONTINUOUS
 62
    7
 10
184.60946056831057
 20
197.10360354101914
 11
196.70813895560602
 21
230.34442798511404
  0
LINE
  8
_1-3_
  6
CONTINUOUS
 62
    7
 10
170.4721193055849
 20
226.83192072687925
 11
183.73827973370857
 21
190.38342898975702
  0
LINE
  8
_1-3_
  6
CONTINUOUS
 62
    7
 10
196.70813895560602
 20
230.34442798511404
 11
186.45753064054577
 21
186.69270214502879
  0
LINE
  8
_1-3_
  6
CONTINUOUS
 62
    7
 10
187.27086033973205
 20
180.71777100562858
 11
187.23297851794626
 21
180.51856652602805
  0
LINE
  8
_1-3_
  6
CONTINUOUS
 62
    7
 10
196.70813895560602
 20
230.34442798511404
 11
187.24320897593157
 21
180.5723641778558
  0
LINE
  8
_1-4_
  6
DASHED1
 62
    7
 10
181.49290342588682
 20
207.58422026763091
 11
181.49290342588682
 21
204.57403654351992
  0
LINE
  8
_1-4_
  6
DASHED1
 62
    7
 10
181.49290342588682
 20
192.21230843592281
 11
181.49290342588682
 21
189.72065128194265
  0
LINE
  8
_1-4_
  6
DASHED1
 62
    7
 10
182.49290672508448
 20
207.58422026763091
 11
182.49290672508448
 21
204.57403654351992
  0
LINE
  8
_1-4_
  6
DASHED1
 62
    7
 10
182.49290672508448
 20
192.21230843592281
 11
182.49290672508448
 21
189.71231255991989
  0
LINE
  8
_1-3_
  6
CONTINUOUS
 62
    7
 10
181.49290342588682
 20
204.57403654351992
 11
181.49290342588682
 21
192.21230843592281
  0
LINE
  8
_1-3_
  6
CONTINUOUS
 62
    7
 10
182.49290672508448
 20
192.21230843592281
 11
182.49290672508448
 21
204.57403654351992
  0
LINE
  8
_1-7_
  6
CONTINUOUS
 62
    3
 10
169.96335280580001
 20
185.67226002145003
 11
169.40888873301651
 21
183.57761796871242
  0
LINE
  8
_1-7_
  6
CONTINUOUS
 62
    3
 10
172.69711714916929
 20
192.31282024380903
 11
172.11660574141416
 21
190.05527588031697
  0
LINE
  8
_1-7_
  6
CONTINUOUS
 62
    3
 10
174.24166855732051
 20
196.42111949853955
 11
177.45513371375509
 21
203.71655390774239
  0
ARC
  8
_1-7_
  6
CONTINUOUS
 62
    1
 10
157.8765563873776
 20
179.239009606107
 40
9.4135805999737556
 50
321.19037816872498
 51
358.48191308397327
  0
SOLID
  8
_1-7_
  6
CONTINUOUS
 62
    8
 10
176.60404647380128
 20
167.33447588573196
 11
176.99290095148862
 21
167.50946044921875
 12
176.99290095148862
 22
176.82996182828336
 13
176.99290095148862
 23
176.82996182828336
  0
SOLID
  8
_1-7_
  6
CONTINUOUS
 62
    8
 10
181.29291018924198
 20
176.82996182828336
 11
181.29291018924198
 21
185.80475525285692
 12
178.39290309596706
 22
185.80475525285692
 13
178.39290309596706
 23
185.80475525285692
  0
SOLID
  8
_1-7_
  6
CONTINUOUS
 62
    8
 10
178.39290309596706
 20
185.80475525285692
 11
178.34090286333833
 21
187.28302284696758
 12
177.03730056118337
 22
187.10919543412118
 13
177.03730056118337
 23
187.10919543412118
  0
SOLID
  8
_1-7_
  6
CONTINUOUS
 62
    8
 10
178.39290309596706
 20
185.80475525285692
 11
177.03730056118337
 21
187.10919543412118
 12
175.99290395356843
 22
187.0102044229659
 13
175.99290395356843
 23
187.0102044229659
  0
SOLID
  8
_1-7_
  6
CONTINUOUS
 62
    8
 10
178.39290309596706
 20
185.80475525285692
 11
175.99290395356843
 21
187.0102044229659
 12
174.821609021016
 22
186.80803347720521
 13
174.821609021016
 23
186.80803347720521
  0
SOLID
  8
_1-7_
  6
CONTINUOUS
 62
    8
 10
178.39290309596706
 20
185.80475525285692
 11
174.821609021016
 21
186.80803347720521
 12
173.93963471861926
 22
186.65745249874723
 13
173.93963471861926
 23
186.65745249874723
  0
SOLID
  8
_1-7_
  6
CONTINUOUS
 62
    8
 10
178.39290309596706
 20
185.80475525285692
 11
173.93963471861926
 21
186.65745249874723
 12
173.14370668962709
 22
186.48535995193811
 13
173.14370668962709
 23
186.48535995193811
  0
SOLID
  8
_1-7_
  6
CONTINUOUS
 62
    8
 10
178.39290309596706
 20
185.80475525285692
 11
173.14370668962709
 21
186.48535995193811
 12
171.96057043031442
 22
186.20570956337332
 13
171.96057043031442
 23
186.20570956337332
  0
SOLID
  8
_1-7_
  6
CONTINUOUS
 62
    8
 10
178.39290309596706
 20
185.80475525285692
 11
171.96057043031442
 21
186.20570956337332
 12
170.86348044440629
 22
185.92605917480847
 13
170.86348044440629
 23
185.92605917480847
  0
SOLID
  8
_1-7_
  6
CONTINUOUS
 62
    8
 10
178.39290309596706
 20
185.80475525285692
 11
170.86348044440629
 21
185.92605917480847
 12
169.96335280580001
 22
185.67226002145003
 13
169.96335280580001
 23
185.67226002145003
  0
SOLID
  8
_1-7_
  6
CONTINUOUS
 62
    8
 10
178.39290309596706
 20
185.80475525285692
 11
169.96335280580001
 21
185.67226002145003
 12
169.40888873301651
 22
183.57761796871242
 13
169.40888873301651
 23
183.57761796871242
  0
SOLID
  8
_1-7_
  6
CONTINUOUS
 62
    8
 10
178.39290309596706
 20
185.80475525285692
 11
169.40888873301651
 21
183.57761796871242
 12
170.58383005584147
 22
183.81792547639679
 13
170.58383005584147
 23
183.81792547639679
  0
SOLID
  8
_1-7_
  6
CONTINUOUS
 62
    8
 10
178.39290309596706
 20
185.80475525285692
 11
170.58383005584147
 21
183.81792547639679
 12
172.30475552393267
 22
184.1405990016639
 13
172.30475552393267
 23
184.1405990016639
  0
SOLID
  8
_1-7_
  6
CONTINUOUS
 62
    8
 10
178.39290309596706
 20
185.80475525285692
 11
172.30475552393267
 21
184.1405990016639
 12
174.11172726542839
 22
184.37722625352643
 13
174.11172726542839
 23
184.37722625352643
  0
SOLID
  8
_1-7_
  6
CONTINUOUS
 62
    8
 10
178.39290309596706
 20
185.80475525285692
 11
174.11172726542839
 21
184.37722625352643
 12
175.59602548165702
 22
184.59234193703782
 13
175.59602548165702
 23
184.59234193703782
  0
SOLID
  8
_1-7_
  6
CONTINUOUS
 62
    8
 10
178.39290309596706
 20
185.80475525285692
 11
175.59602548165702
 21
184.59234193703782
 12
177.09454019735591
 22
184.75431969539983
 13
177.09454019735591
 23
184.75431969539983
  0
SOLID
  8
_1-7_
  6
CONTINUOUS
 62
    8
 10
178.39290309596706
 20
185.80475525285692
 11
177.09454019735591
 21
184.75431969539983
 12
177.40830292572846
 22
181.16802731075802
 13
177.40830292572846
 23
181.16802731075802
  0
SOLID
  8
_1-7_
  6
CONTINUOUS
 62
    8
 10
175.99290565164171
 20
181.01975270415863
 11
174.47742392739775
 21
180.80630590723723
 12
173.0361488478714
 22
180.54816708702356
 13
173.0361488478714
 23
180.54816708702356
  0
SOLID
  8
_1-7_
  6
CONTINUOUS
 62
    8
 10
175.99290565164171
 20
181.01975270415863
 11
173.0361488478714
 21
180.54816708702356
 12
171.61638533669617
 22
180.22549356175648
 13
171.61638533669617
 23
180.22549356175648
  0
SOLID
  8
_1-7_
  6
CONTINUOUS
 62
    8
 10
175.99290565164171
 20
181.01975270415863
 11
171.61638533669617
 21
180.22549356175648
 12
170.19662182552096
 22
179.90282003648937
 13
170.19662182552096
 23
179.90282003648937
  0
SOLID
  8
_1-7_
  6
CONTINUOUS
 62
    8
 10
175.99290565164171
 20
181.01975270415863
 11
170.19662182552096
 21
179.90282003648937
 12
168.64778890423889
 22
179.40805396441317
 13
168.64778890423889
 23
179.40805396441317
  0
SOLID
  8
_1-7_
  6
CONTINUOUS
 62
    8
 10
175.99290565164171
 20
181.01975270415863
 11
168.64778890423889
 21
179.40805396441317
 12
167.2868329309492
 22
178.98962018029195
 13
167.2868329309492
 23
178.98962018029195
  0
SOLID
  8
_1-7_
  6
CONTINUOUS
 62
    8
 10
175.99290565164171
 20
181.01975270415863
 11
175.37295215809351
 21
170.07024027358261
 12
176.60404647380128
 22
167.33447588573196
 13
176.60404647380128
 23
167.33447588573196
  0
SOLID
  8
_1-7_
  6
CONTINUOUS
 62
    8
 10
175.99290565164171
 20
181.01975270415863
 11
176.60404647380128
 21
167.33447588573196
 12
176.99290095148862
 22
176.82996182828336
 13
176.99290095148862
 23
176.82996182828336
  0
SOLID
  8
_1-7_
  6
CONTINUOUS
 62
    8
 10
175.99290565164171
 20
181.01975270415863
 11
176.99290095148862
 21
176.82996182828336
 12
181.29291018924198
 22
176.82996182828336
 13
181.29291018924198
 23
176.82996182828336
  0
SOLID
  8
_1-7_
  6
CONTINUOUS
 62
    8
 10
181.29291018924198
 20
176.82996182828336
 11
178.39290309596706
 21
185.80475525285692
 12
177.40830292572846
 22
181.16802731075802
 13
177.40830292572846
 23
181.16802731075802
  0
SOLID
  8
_1-7_
  6
CONTINUOUS
 62
    8
 10
181.29291018924198
 20
176.82996182828336
 11
177.40830292572846
 21
181.16802731075802
 12
176.58555762580946
 22
181.10746786415319
 13
176.58555762580946
 23
181.10746786415319
  0
SOLID
  8
_1-7_
  6
CONTINUOUS
 62
    8
 10
181.29291018924198
 20
176.82996182828336
 11
176.58555762580946
 21
181.10746786415319
 12
175.99290565164171
 22
181.01975270415863
 13
175.99290565164171
 23
181.01975270415863
  0
SOLID
  8
_1-7_
  6
CONTINUOUS
 62
    8
 10
177.45513371375509
 20
203.71655390774239
 11
174.24166855732051
 21
196.42111949853955
 12
175.79267672293267
 22
196.6719233197029
 13
175.79267672293267
 23
196.6719233197029
  0
SOLID
  8
_1-7_
  6
CONTINUOUS
 62
    8
 10
177.45513371375509
 20
203.71655390774239
 11
175.79267672293267
 21
196.6719233197029
 12
177.16187974285785
 22
196.82074973491214
 13
177.16187974285785
 23
196.82074973491214
  0
SOLID
  8
_1-7_
  6
CONTINUOUS
 62
    8
 10
177.45513371375509
 20
203.71655390774239
 11
177.16187974285785
 21
196.82074973491214
 12
178.08460351715527
 22
196.93981086707956
 13
178.08460351715527
 23
196.93981086707956
  0
SOLID
  8
_1-7_
  6
CONTINUOUS
 62
    8
 10
177.45513371375509
 20
203.71655390774239
 11
178.08460351715527
 21
196.93981086707956
 12
179.09470763163591
 22
197.04542274913715
 13
179.09470763163591
 23
197.04542274913715
  0
SOLID
  8
_1-7_
  6
CONTINUOUS
 62
    8
 10
178.59061332886677
 20
193.36797690205731
 11
177.7720680452158
 21
193.26379841141082
 12
176.53680879897897
 22
193.10008935468062
 13
176.53680879897897
 23
193.10008935468062
  0
SOLID
  8
_1-7_
  6
CONTINUOUS
 62
    8
 10
178.59061332886677
 20
193.36797690205731
 11
176.53680879897897
 21
193.10008935468062
 12
175.12295785449101
 22
192.84708444882489
 13
175.12295785449101
 23
192.84708444882489
  0
SOLID
  8
_1-7_
  6
CONTINUOUS
 62
    8
 10
178.59061332886677
 20
193.36797690205731
 11
175.12295785449101
 21
192.84708444882489
 12
173.84305068369136
 22
192.57919690144823
 13
173.84305068369136
 23
192.57919690144823
  0
SOLID
  8
_1-7_
  6
CONTINUOUS
 62
    8
 10
178.59061332886677
 20
193.36797690205731
 11
173.84305068369136
 21
192.57919690144823
 12
172.69711714916929
 22
192.312820243809
 13
172.69711714916929
 23
192.312820243809
  0
SOLID
  8
_1-7_
  6
CONTINUOUS
 62
    8
 10
178.59061332886677
 20
193.36797690205731
 11
172.69711714916929
 21
192.312820243809
 12
172.11660574141416
 22
190.05527588031697
 13
172.11660574141416
 23
190.05527588031697
  0
SOLID
  8
_1-7_
  6
CONTINUOUS
 62
    8
 10
178.59061332886677
 20
193.36797690205731
 11
172.11660574141416
 21
190.05527588031697
 12
173.1882144567706
 22
190.24262218266284
 13
173.1882144567706
 23
190.24262218266284
  0
SOLID
  8
_1-7_
  6
CONTINUOUS
 62
    8
 10
178.59061332886677
 20
193.36797690205731
 11
173.1882144567706
 21
190.24262218266284
 12
174.39370841996561
 22
190.43609652243487
 13
174.39370841996561
 23
190.43609652243487
  0
SOLID
  8
_1-7_
  6
CONTINUOUS
 62
    8
 10
178.59061332886677
 20
193.36797690205731
 11
174.39370841996561
 21
190.43609652243487
 12
175.42061068490949
 22
190.55515765460228
 13
175.42061068490949
 23
190.55515765460228
  0
SOLID
  8
_1-7_
  6
CONTINUOUS
 62
    8
 10
178.59061332886677
 20
193.36797690205731
 11
175.42061068490949
 21
190.55515765460228
 12
176.58145672354175
 22
190.71886671133248
 13
176.58145672354175
 23
190.71886671133248
  0
SOLID
  8
_1-7_
  6
CONTINUOUS
 62
    8
 10
178.59061332886677
 20
193.36797690205731
 11
176.58145672354175
 21
190.71886671133248
 12
178.02714088886776
 22
190.86932477616418
 13
178.02714088886776
 23
190.86932477616418
  0
SOLID
  8
_1-7_
  6
CONTINUOUS
 62
    8
 10
178.02714088886776
 20
190.86932477616418
 11
178.34090361724029
 21
187.28302001953125
 12
178.39290309596706
 22
190.79650725876911
 13
178.39290309596706
 23
190.79650725876911
  0
SOLID
  8
_1-7_
  6
CONTINUOUS
 62
    8
 10
178.02714088886776
 20
190.86932477616418
 11
178.39290309596706
 21
190.79650725876911
 12
178.99290754988388
 22
190.79650725876911
 13
178.99290754988388
 23
190.79650725876911
  0
SOLID
  8
_1-7_
  6
CONTINUOUS
 62
    8
 10
178.02714088886776
 20
190.86932477616418
 11
178.99290754988388
 21
190.79650725876911
 12
178.99290754988388
 22
192.21230843592281
 13
178.99290754988388
 23
192.21230843592281
  0
SOLID
  8
_1-7_
  6
CONTINUOUS
 62
    8
 10
181.49290342588682
 20
192.21230843592281
 11
181.49290342588682
 21
204.57403654351992
 12
179.88540314118731
 22
204.39601426906347
 13
179.88540314118731
 23
204.39601426906347
  0
SOLID
  8
_1-7_
  6
CONTINUOUS
 62
    8
 10
181.49290342588682
 20
192.21230843592281
 11
179.88540314118731
 21
204.39601426906347
 12
179.11150578209916
 22
204.24718785385423
 13
179.11150578209916
 23
204.24718785385423
  0
SOLID
  8
_1-7_
  6
CONTINUOUS
 62
    8
 10
181.49290342588682
 20
192.21230843592281
 11
179.11150578209916
 21
204.24718785385423
 12
178.30784313996915
 22
204.02394823104032
 13
178.30784313996915
 23
204.02394823104032
  0
SOLID
  8
_1-7_
  6
CONTINUOUS
 62
    8
 10
181.49290342588682
 20
192.21230843592281
 11
178.30784313996915
 21
204.02394823104032
 12
177.45513371375509
 22
203.71655390774239
 13
177.45513371375509
 23
203.71655390774239
  0
SOLID
  8
_1-7_
  6
CONTINUOUS
 62
    8
 10
181.49290342588682
 20
192.21230843592281
 11
177.45513371375509
 21
203.71655390774239
 12
179.09470763163591
 22
197.04542274913715
 13
179.09470763163591
 23
197.04542274913715
  0
SOLID
  8
_1-7_
  6
CONTINUOUS
 62
    8
 10
181.49290342588682
 20
192.21230843592281
 11
179.09470763163591
 21
197.04542274913715
 12
179.40847036000847
 22
193.45911799250425
 13
179.40847036000847
 23
193.45911799250425
  0
SOLID
  8
_1-7_
  6
CONTINUOUS
 62
    8
 10
181.49290342588682
 20
192.21230843592281
 11
179.40847036000847
 21
193.45911799250425
 12
178.59061332886677
 22
193.36797690205731
 13
178.59061332886677
 23
193.36797690205731
  0
SOLID
  8
_1-7_
  6
CONTINUOUS
 62
    8
 10
178.59061332886677
 20
193.36797690205731
 11
178.02714088886776
 21
190.86932477616418
 12
178.99290754988388
 22
192.21230843592281
 13
178.99290754988388
 23
192.21230843592281
  0
SOLID
  8
_1-7_
  6
CONTINUOUS
 62
    8
 10
178.59061332886677
 20
193.36797690205731
 11
178.99290754988388
 21
192.21230843592281
 12
181.49290342588682
 22
192.21230843592281
 13
181.49290342588682
 23
192.21230843592281
  0
LINE
  8
_1-7_
  6
CONTINUOUS
 62
    7
 10
181.99290507548562
 20
168.00490920608109
 11
181.99291744747677
 21
164.71514727618245
  0
LINE
  8
_1-7_
  6
CONTINUOUS
 62
    3
 10
194.02232445964825
 20
185.67235050136628
 11
194.57680428729037
 21
183.57771261909585
  0
LINE
  8
_1-7_
  6
CONTINUOUS
 62
    3
 10
191.28851016930608
 20
192.31289016149742
 11
191.86903855719069
 21
190.05535016439251
  0
LINE
  8
_1-7_
  6
CONTINUOUS
 62
    3
 10
189.74392786057834
 20
196.42117779875053
 11
186.53040783154069
 21
203.71658803763182
  0
SOLID
  8
_1-7_
  6
CONTINUOUS
 62
    8
 10
182.6928335839745
 20
176.82996709305334
 11
182.69276607996233
 21
185.80476051737304
 12
185.59277317315522
 22
185.80478232980983
 13
185.59277317315522
 23
185.80478232980983
  0
SOLID
  8
_1-7_
  6
CONTINUOUS
 62
    8
 10
185.59277317315522
 20
185.80478232980983
 11
185.64476228697575
 21
187.28305031499897
 12
186.94836589653872
 22
187.10923270721725
 13
186.94836589653872
 23
187.10923270721725
  0
SOLID
  8
_1-7_
  6
CONTINUOUS
 62
    8
 10
185.59277317315522
 20
185.80478232980983
 11
186.94836589653872
 21
187.10923270721725
 12
187.99276324868615
 22
187.01024955150589
 13
187.99276324868615
 23
187.01024955150589
  0
SOLID
  8
_1-7_
  6
CONTINUOUS
 62
    8
 10
185.59277317315522
 20
185.80478232980983
 11
187.99276324868615
 21
187.01024955150589
 12
189.16405970183655
 22
186.80808741565926
 13
189.16405970183655
 23
186.80808741565926
  0
SOLID
  8
_1-7_
  6
CONTINUOUS
 62
    8
 10
185.59277317315522
 20
185.80478232980983
 11
189.16405970183655
 21
186.80808741565926
 12
190.0460351368049
 22
186.6575130709854
 13
190.0460351368049
 23
186.6575130709854
  0
SOLID
  8
_1-7_
  6
CONTINUOUS
 62
    8
 10
185.59277317315522
 20
185.80478232980983
 11
190.0460351368049
 21
186.6575130709854
 12
190.8419644601706
 22
186.48542651076301
 13
190.8419644601706
 23
186.48542651076301
  0
SOLID
  8
_1-7_
  6
CONTINUOUS
 62
    8
 10
185.59277317315522
 20
185.80478232980983
 11
190.8419644601706
 21
186.48542651076301
 12
192.02510282284345
 22
186.20578502117911
 13
192.02510282284345
 23
186.20578502117911
  0
SOLID
  8
_1-7_
  6
CONTINUOUS
 62
    8
 10
185.59277317315522
 20
185.80478232980983
 11
192.02510282284345
 21
186.20578502117911
 12
193.12219491211417
 22
185.92614288439717
 13
193.12219491211417
 23
185.92614288439717
  0
SOLID
  8
_1-7_
  6
CONTINUOUS
 62
    8
 10
185.59277317315522
 20
185.80478232980983
 11
193.12219491211417
 21
185.92614288439717
 12
194.02232445964825
 22
185.67235050136628
 13
194.02232445964825
 23
185.67235050136628
  0
SOLID
  8
_1-7_
  6
CONTINUOUS
 62
    8
 10
185.59277317315522
 20
185.80478232980983
 11
194.02232445964825
 21
185.67235050136628
 12
194.57680428729037
 22
183.57771261909585
 13
194.57680428729037
 23
183.57771261909585
  0
SOLID
  8
_1-7_
  6
CONTINUOUS
 62
    8
 10
185.59277317315522
 20
185.80478232980983
 11
194.57680428729037
 21
183.57771261909585
 12
193.40186115702298
 22
183.81801128943874
 13
193.40186115702298
 23
183.81801128943874
  0
SOLID
  8
_1-7_
  6
CONTINUOUS
 62
    8
 10
185.59277317315522
 20
185.80478232980983
 11
193.40186115702298
 21
183.81801128943874
 12
191.68093326198783
 22
184.14067187073596
 13
191.68093326198783
 23
184.14067187073596
  0
SOLID
  8
_1-7_
  6
CONTINUOUS
 62
    8
 10
185.59277317315522
 20
185.80478232980983
 11
191.68093326198783
 21
184.14067187073596
 12
189.87395974074863
 22
184.37728553143302
 13
189.87395974074863
 23
184.37728553143302
  0
SOLID
  8
_1-7_
  6
CONTINUOUS
 62
    8
 10
185.59277317315522
 20
185.80478232980983
 11
189.87395974074863
 21
184.37728553143302
 12
188.38965990656686
 22
184.59239005077222
 13
188.38965990656686
 23
184.59239005077222
  0
SOLID
  8
_1-7_
  6
CONTINUOUS
 62
    8
 10
185.59277317315522
 20
185.80478232980983
 11
188.38965990656686
 21
184.59239005077222
 12
186.89114397259277
 22
184.7543565380339
 13
186.89114397259277
 23
184.7543565380339
  0
SOLID
  8
_1-7_
  6
CONTINUOUS
 62
    8
 10
185.59277317315522
 20
185.80478232980983
 11
186.89114397259277
 21
184.7543565380339
 12
186.57740821856862
 22
181.16806179352358
 13
186.57740821856862
 23
181.16806179352358
  0
SOLID
  8
_1-7_
  6
CONTINUOUS
 62
    8
 10
187.99280660786448
 20
181.01979783285529
 11
189.50828993750812
 21
180.80636243465321
 12
190.94956695858781
 22
180.54823445501395
 13
190.94956695858781
 23
180.54823445501395
  0
SOLID
  8
_1-7_
  6
CONTINUOUS
 62
    8
 10
187.99280660786448
 20
181.01979783285529
 11
186.99284282160622
 21
176.82999943562237
 12
182.6928335839745
 22
176.82996709305334
 13
182.6928335839745
 23
176.82996709305334
  0
SOLID
  8
_1-7_
  6
CONTINUOUS
 62
    8
 10
182.6928335839745
 20
176.82996709305334
 11
185.59277317315522
 21
185.80478232980983
 12
186.57740821856862
 22
181.16806179352358
 13
186.57740821856862
 23
181.16806179352358
  0
SOLID
  8
_1-7_
  6
CONTINUOUS
 62
    8
 10
182.6928335839745
 20
176.82996709305334
 11
186.57740821856862
 21
181.16806179352358
 12
187.40015397396294
 22
181.10750853520872
 13
187.40015397396294
 23
181.10750853520872
  0
SOLID
  8
_1-7_
  6
CONTINUOUS
 62
    8
 10
182.6928335839745
 20
176.82996709305334
 11
187.40015397396294
 21
181.10750853520872
 12
187.99280660786448
 22
181.01979783285529
 13
187.99280660786448
 23
181.01979783285529
  0
SOLID
  8
_1-7_
  6
CONTINUOUS
 62
    8
 10
186.53040783154069
 20
203.71658803763182
 11
189.74392786057834
 21
196.42117779875053
 12
188.19291780858623
 22
196.67196995398098
 13
188.19291780858623
 23
196.67196995398098
  0
SOLID
  8
_1-7_
  6
CONTINUOUS
 62
    8
 10
186.53040783154069
 20
203.71658803763182
 11
188.19291780858623
 21
196.67196995398098
 12
186.82371366930016
 22
196.82078607070974
 13
186.82371366930016
 23
196.82078607070974
  0
SOLID
  8
_1-7_
  6
CONTINUOUS
 62
    8
 10
186.53040783154069
 20
203.71658803763182
 11
186.82371366930016
 21
196.82078607070974
 12
185.9009889995092
 22
196.93984026259631
 13
185.9009889995092
 23
196.93984026259631
  0
SOLID
  8
_1-7_
  6
CONTINUOUS
 62
    8
 10
186.53040783154069
 20
203.71658803763182
 11
185.9009889995092
 21
196.93984026259631
 12
184.89088409069612
 22
197.04544454714116
 13
184.89088409069612
 23
197.04544454714116
  0
SOLID
  8
_1-7_
  6
CONTINUOUS
 62
    8
 10
185.39500605340234
 20
193.36800249171645
 11
186.21355212060985
 21
193.26383015777071
 12
187.44881259815131
 22
193.1001303920618
 13
187.44881259815131
 23
193.1001303920618
  0
SOLID
  8
_1-7_
  6
CONTINUOUS
 62
    8
 10
185.39500605340234
 20
193.36800249171645
 11
187.44881259815131
 21
193.1001303920618
 12
188.86266544557859
 22
192.84713612050939
 13
188.86266544557859
 23
192.84713612050939
  0
SOLID
  8
_1-7_
  6
CONTINUOUS
 62
    8
 10
185.39500605340234
 20
193.36800249171645
 11
188.86266544557859
 21
192.84713612050939
 12
190.14257463126131
 22
192.57925819997683
 13
190.14257463126131
 23
192.57925819997683
  0
SOLID
  8
_1-7_
  6
CONTINUOUS
 62
    8
 10
185.39500605340234
 20
193.36800249171645
 11
190.14257463126131
 21
192.57925819997683
 12
191.28851016930608
 22
192.31289016149742
 13
191.28851016930608
 23
192.31289016149742
  0
SOLID
  8
_1-7_
  6
CONTINUOUS
 62
    8
 10
185.39500605340234
 20
193.36800249171645
 11
191.28851016930608
 21
192.31289016149742
 12
191.86903855719069
 22
190.05535016439251
 13
191.86903855719069
 23
190.05535016439251
  0
SOLID
  8
_1-7_
  6
CONTINUOUS
 62
    8
 10
185.39500605340234
 20
193.36800249171645
 11
191.86903855719069
 21
190.05535016439251
 12
190.79742843273721
 22
190.24268840661577
 13
190.79742843273721
 23
190.24268840661577
  0
SOLID
  8
_1-7_
  6
CONTINUOUS
 62
    8
 10
185.39500605340234
 20
193.36800249171645
 11
190.79742843273721
 21
190.24268840661577
 12
189.59193301435681
 22
190.43615367924559
 13
189.59193301435681
 23
190.43615367924559
  0
SOLID
  8
_1-7_
  6
CONTINUOUS
 62
    8
 10
185.39500605340234
 20
193.36800249171645
 11
189.59193301435681
 21
190.43615367924559
 12
188.56502985392231
 22
190.55520708755242
 13
188.56502985392231
 23
190.55520708755242
  0
SOLID
  8
_1-7_
  6
CONTINUOUS
 62
    8
 10
185.39500605340234
 20
193.36800249171645
 11
188.56502985392231
 21
190.55520708755242
 12
187.40418258398336
 22
190.71890741296113
 13
187.40418258398336
 23
190.71890741296113
  0
SOLID
  8
_1-7_
  6
CONTINUOUS
 62
    8
 10
185.39500605340234
 20
193.36800249171645
 11
187.40418258398336
 21
190.71890741296113
 12
185.95849728702615
 22
190.86935460405846
 13
185.95849728702615
 23
190.86935460405846
  0
SOLID
  8
_1-7_
  6
CONTINUOUS
 62
    8
 10
185.95849728702615
 20
190.86935460405846
 11
185.64476153309505
 21
187.28304748755698
 12
185.59273562763499
 22
190.79653433558076
 13
185.59273562763499
 23
190.79653433558076
  0
SOLID
  8
_1-7_
  6
CONTINUOUS
 62
    8
 10
185.95849728702615
 20
190.86935460405846
 11
185.59273562763499
 21
190.79653433558076
 12
184.99273117373514
 22
190.79652982264037
 13
184.99273117373514
 23
190.79652982264037
  0
SOLID
  8
_1-7_
  6
CONTINUOUS
 62
    8
 10
185.95849728702615
 20
190.86935460405846
 11
184.99273117373514
 21
190.79652982264037
 12
184.99272052477028
 22
192.21233099975404
 13
184.99272052477028
 23
192.21233099975404
  0
SOLID
  8
_1-7_
  6
CONTINUOUS
 62
    8
 10
182.49272464883805
 20
192.21231219600625
 11
182.49263166995763
 21
204.57404030325367
 12
184.10013329360825
 22
204.39603011963419
 13
184.10013329360825
 23
204.39603011963419
  0
SOLID
  8
_1-7_
  6
CONTINUOUS
 62
    8
 10
182.49272464883805
 20
192.21231219600625
 11
184.10013329360825
 21
204.39603011963419
 12
184.87403177207412
 22
204.24720952530706
 13
184.87403177207412
 23
204.24720952530706
  0
SOLID
  8
_1-7_
  6
CONTINUOUS
 62
    8
 10
182.49272464883805
 20
192.21231219600625
 11
184.87403177207412
 21
204.24720952530706
 12
185.67769609328079
 22
204.0239759472573
 13
185.67769609328079
 23
204.0239759472573
  0
SOLID
  8
_1-7_
  6
CONTINUOUS
 62
    8
 10
182.49272464883805
 20
192.21231219600625
 11
185.67769609328079
 21
204.0239759472573
 12
186.53040783154069
 22
203.71658803763182
 13
186.53040783154069
 23
203.71658803763182
  0
SOLID
  8
_1-7_
  6
CONTINUOUS
 62
    8
 10
182.49272464883805
 20
192.21231219600625
 11
186.53040783154069
 21
203.71658803763182
 12
184.89088409069612
 22
197.04544454714116
 13
184.89088409069612
 23
197.04544454714116
  0
SOLID
  8
_1-7_
  6
CONTINUOUS
 62
    8
 10
182.49272464883805
 20
192.21231219600625
 11
184.89088409069612
 21
197.04544454714116
 12
184.57714833676499
 22
193.45913743063971
 13
184.57714833676499
 23
193.45913743063971
  0
SOLID
  8
_1-7_
  6
CONTINUOUS
 62
    8
 10
182.49272464883805
 20
192.21231219600625
 11
184.57714833676499
 21
193.45913743063971
 12
185.39500605340234
 22
193.36800249171645
 13
185.39500605340234
 23
193.36800249171645
  0
SOLID
  8
_1-7_
  6
CONTINUOUS
 62
    8
 10
185.39500605340234
 20
193.36800249171645
 11
185.95849728702615
 21
190.86935460405846
 12
184.99272052477028
 22
192.21233099975404
 13
184.99272052477028
 23
192.21233099975404
  0
SOLID
  8
_1-7_
  6
CONTINUOUS
 62
    8
 10
185.39500605340234
 20
193.36800249171645
 11
184.99272052477028
 21
192.21233099975404
 12
182.49272464883805
 22
192.21231219600625
 13
182.49272464883805
 23
192.21231219600625
  0
LINE
  8
_1-7_
  6
CONTINUOUS
 62
    7
 10
181.99290507548562
 20
168.00490920608109
 11
181.99291744747677
 21
164.71514727618245
  0
ARC
  8
_1-7_
  6
CONTINUOUS
 62
    1
 10
213.77467530229535
 20
175.64917076351324
 40
15.29114316951998
 50
170.28428939721982
 51
202.65898636719007
  0
SOLID
  8
_1-7_
  6
CONTINUOUS
 62
    8
 10
187.99430437217001
 20
181.01958689294278
 11
186.99290919948271
 21
176.82996182828336
 12
186.99290919960237
 22
167.50943570518265
 13
186.99290919960237
 23
167.50943570518265
  0
SOLID
  8
_1-7_
  6
CONTINUOUS
 62
    8
 10
187.99430437217001
 20
181.01958689294278
 11
186.99290919960237
 21
167.50943570518265
 12
189.3124170507192
 22
172.61912023769833
 13
189.3124170507192
 23
172.61912023769833
  0
SOLID
  8
_1-7_
  6
CONTINUOUS
 62
    8
 10
187.99430437217001
 20
181.01958689294278
 11
189.3124170507192
 21
172.61912023769833
 12
190.85280432677308
 22
172.04375258460021
 13
190.85280432677308
 23
172.04375258460021
  0
SOLID
  8
_1-7_
  6
CONTINUOUS
 62
    8
 10
187.99430437217001
 20
181.01958689294278
 11
190.85280432677308
 21
172.04375258460021
 12
192.78041211221856
 22
171.43857339614641
 13
192.78041211221856
 23
171.43857339614641
  0
SOLID
  8
_1-7_
  6
CONTINUOUS
 62
    8
 10
187.99430437217001
 20
181.01958689294278
 11
192.78041211221856
 21
171.43857339614641
 12
195.22354291005064
 22
170.69890994359173
 13
195.22354291005064
 23
170.69890994359173
  0
SOLID
  8
_1-7_
  6
CONTINUOUS
 62
    8
 10
187.99430437217001
 20
181.01958689294278
 11
195.22354291005064
 21
170.69890994359173
 12
197.55460348779866
 22
170.16097288718834
 13
197.55460348779866
 23
170.16097288718834
  0
SOLID
  8
_1-7_
  6
CONTINUOUS
 62
    8
 10
187.99430437217001
 20
181.01958689294278
 11
197.55460348779866
 21
170.16097288718834
 12
199.66379288017225
 22
169.75832560345557
 13
199.66379288017225
 23
169.75832560345557
  0
SOLID
  8
_1-7_
  6
CONTINUOUS
 62
    8
 10
187.99430437217001
 20
181.01958689294278
 11
199.66379288017225
 21
169.75832560345557
 12
197.95375461471991
 22
173.85453730916154
 13
197.95375461471991
 23
173.85453730916154
  0
SOLID
  8
_1-7_
  6
CONTINUOUS
 62
    8
 10
187.99430437217001
 20
181.01958689294278
 11
197.95375461471991
 21
173.85453730916154
 12
198.70284945245174
 22
178.22969880690732
 13
198.70284945245174
 23
178.22969880690732
  0
SOLID
  8
_1-7_
  6
CONTINUOUS
 62
    8
 10
187.99430437217001
 20
181.01958689294278
 11
198.70284945245174
 21
178.22969880690732
 12
196.88218216729442
 22
178.88003600972664
 13
196.88218216729442
 23
178.88003600972664
  0
SOLID
  8
_1-7_
  6
CONTINUOUS
 62
    8
 10
187.99430437217001
 20
181.01958689294278
 11
196.88218216729442
 21
178.88003600972664
 12
195.08905864594979
 22
179.48521519818044
 13
195.08905864594979
 23
179.48521519818044
  0
SOLID
  8
_1-7_
  6
CONTINUOUS
 62
    8
 10
187.99430437217001
 20
181.01958689294278
 11
195.08905864594979
 21
179.48521519818044
 12
193.81145813699175
 22
179.88866799048299
 13
193.81145813699175
 23
179.88866799048299
  0
SOLID
  8
_1-7_
  6
CONTINUOUS
 62
    8
 10
187.99430437217001
 20
181.01958689294278
 11
193.81145813699175
 21
179.88866799048299
 12
192.42178740794964
 22
180.1800505627015
 13
192.42178740794964
 23
180.1800505627015
  0
SOLID
  8
_1-7_
  6
CONTINUOUS
 62
    8
 10
187.99430437217001
 20
181.01958689294278
 11
192.42178740794964
 21
180.1800505627015
 12
190.98728859087393
 22
180.5162612229536
 13
190.98728859087393
 23
180.5162612229536
  0
SOLID
  8
_1-7_
  6
CONTINUOUS
 62
    8
 10
187.99430437217001
 20
181.01958689294278
 11
190.98728859087393
 21
180.5162612229536
 12
188.87291039449988
 22
180.8794331548809
 13
188.87291039449988
 23
180.8794331548809
  0
SOLID
  8
_1-7_
  6
CONTINUOUS
 62
    8
 10
167.2868329309492
 20
178.98962018029195
 11
167.20268228431991
 21
175.81434178380704
 12
175.99290565164171
 22
181.01975270415863
 13
171.36254922033066
 23
173.59487082309383
  0
SOLID
  8
_1-7_
  6
CONTINUOUS
 62
    8
 10
167.20268228431991
 20
175.81434178380704
 11
165.21192646642879
 21
173.33919219235912
 12
166.03609916361162
 22
173.31964975461065
 13
166.03609916361162
 23
173.31964975461065
  0
SOLID
  8
_1-7_
  6
CONTINUOUS
 62
    8
 10
167.20268228431991
 20
175.81434178380704
 11
166.03609916361162
 21
173.31964975461065
 12
166.67433387259302
 22
173.32851412556872
 13
166.67433387259302
 23
173.32851412556872
  0
SOLID
  8
_1-7_
  6
CONTINUOUS
 62
    8
 10
167.20268228431991
 20
175.81434178380704
 11
166.67433387259302
 21
173.32851412556872
 12
167.43666977498748
 22
173.33737849652681
 13
167.43666977498748
 23
173.33737849652681
  0
SOLID
  8
_1-7_
  6
CONTINUOUS
 62
    8
 10
167.20268228431991
 20
175.81434178380704
 11
167.43666977498748
 21
173.33737849652681
 12
168.07490448396885
 22
173.35510723844294
 13
168.07490448396885
 23
173.35510723844294
  0
SOLID
  8
_1-7_
  6
CONTINUOUS
 62
    8
 10
167.20268228431991
 20
175.81434178380704
 11
168.07490448396885
 21
173.35510723844294
 12
168.71313919295028
 22
173.38170035131716
 13
168.71313919295028
 23
173.38170035131716
  0
SOLID
  8
_1-7_
  6
CONTINUOUS
 62
    8
 10
167.20268228431991
 20
175.81434178380704
 11
168.71313919295028
 21
173.38170035131716
 12
169.52866132109315
 22
173.44375094802371
 13
169.52866132109315
 23
173.44375094802371
  0
SOLID
  8
_1-7_
  6
CONTINUOUS
 62
    8
 10
167.20268228431991
 20
175.81434178380704
 11
169.52866132109315
 21
173.44375094802371
 12
170.24667536869725
 22
173.50580154473022
 13
170.24667536869725
 23
173.50580154473022
  0
SOLID
  8
_1-7_
  6
CONTINUOUS
 62
    8
 10
167.20268228431991
 20
175.81434178380704
 11
170.24667536869725
 21
173.50580154473022
 12
170.91150319055288
 22
173.55898777047867
 13
170.91150319055288
 23
173.55898777047867
  0
SOLID
  8
_1-7_
  6
CONTINUOUS
 62
    8
 10
167.20268228431991
 20
175.81434178380704
 11
170.91150319055288
 21
173.55898777047867
 12
171.36254922033066
 22
173.59487082309386
 13
171.36254922033066
 23
173.59487082309386
  0
ARC
  8
_1-7_
  6
CONTINUOUS
 62
    1
 10
156.9941323928935
 20
168.47895303420387
 40
8.4795838118145976
 50
338.3133885346511
 51
15.051638962978876
  0
SOLID
  8
_1-7_
  6
CONTINUOUS
 62
    8
 10
165.91400986988185
 20
167.96190475506015
 11
164.87352232820115
 21
165.34549553984385
 12
175.37295215809351
 22
170.07024027358261
 13
175.37295215809351
 23
170.07024027358261
  0
SOLID
  8
_1-7_
  6
CONTINUOUS
 62
    8
 10
165.91400986988185
 20
167.96190475506015
 11
175.37295215809351
 21
170.07024027358261
 12
165.18280006950954
 22
170.68101191251111
 13
165.18280006950954
 23
170.68101191251111
  0
SOLID
  8
_1-7_
  6
CONTINUOUS
 62
    8
 10
175.37295215809351
 20
170.07024027358261
 11
172.52476237604577
 21
170.97910745647633
 12
171.66618051753585
 22
170.90412075474416
 13
171.66618051753585
 23
170.90412075474416
  0
SOLID
  8
_1-7_
  6
CONTINUOUS
 62
    8
 10
175.37295215809351
 20
170.07024027358261
 11
171.66618051753585
 21
170.90412075474416
 12
170.64918097240786
 22
170.81270506529444
 13
170.64918097240786
 23
170.81270506529444
  0
SOLID
  8
_1-7_
  6
CONTINUOUS
 62
    8
 10
175.37295215809351
 20
170.07024027358261
 11
170.64918097240786
 21
170.81270506529444
 12
169.24366474711857
 22
170.72128937584472
 13
169.24366474711857
 23
170.72128937584472
  0
SOLID
  8
_1-7_
  6
CONTINUOUS
 62
    8
 10
175.37295215809351
 20
170.07024027358261
 11
169.24366474711857
 21
170.72128937584472
 12
168.13524951254084
 22
170.65272760875746
 13
168.13524951254084
 23
170.65272760875746
  0
SOLID
  8
_1-7_
  6
CONTINUOUS
 62
    8
 10
175.37295215809351
 20
170.07024027358261
 11
168.13524951254084
 21
170.65272760875746
 12
166.77544113197644
 22
170.66415456993866
 13
166.77544113197644
 23
170.66415456993866
  0
SOLID
  8
_1-7_
  6
CONTINUOUS
 62
    8
 10
175.37295215809351
 20
170.07024027358261
 11
166.77544113197644
 21
170.66415456993866
 12
165.18280006950931
 22
170.68101191251111
 13
165.18280006950931
 23
170.68101191251111
  0
SOLID
  8
_1-7_
  6
CONTINUOUS
 62
    8
 10
175.99290565164171
 20
181.01975270415863
 11
171.36254922033083
 21
173.59487082309386
 12
175.99290565164173
 22
181.01975270415863
 13
175.37295215809351
 23
170.07024027358261
  0
SOLID
  8
_1-7_
  6
CONTINUOUS
 62
    8
 10
171.36254922033083
 20
173.59487082309386
 11
172.5247623760458
 21
170.97910745647633
 12
175.37295215809351
 22
170.07024027358261
 13
175.37295215809351
 23
170.07024027358261
  0
ENDSEC
  0
EOF
