  0
SECTION
  2
HEADER
  9
$ACADVER
  1
AC1009
  9
$INSBASE
 10
0
 20
0
 30
0
  9
$EXTMIN
 10
0
 20
0
  9
$EXTMAX
 10
2100
 20
1485
  9
$LIMMIN
 10
0
 20
0
  9
$LIMMAX
 10
2100
 20
1485
  9
$LTSCALE
 40
5
  0
ENDSEC
  0
SECTION
  2
TABLES
  0
TABLE
  2
LTYPE
 70
     9
  0
LTYPE
  2
CONTINUOUS
 70
    64
  3
実線
 72
    65
 73
     0
 40
0.0
  0
LTYPE
  2
DASHED1
 70
    64
  3
--  --  --  --  --  --  --  --  
 72
    65
 73
     2
 40
2.5
 49
1.25
 49
-1.25
  0
LTYPE
  2
DASHED2
 70
    64
  3
----    ----    ----    ----    
 72
    65
 73
     2
 40
5.0
 49
2.5
 49
-2.5
  0
LTYPE
  2
DASHED3
 70
    64
  3
------  ------  ------  ------  
 72
    65
 73
     2
 40
5.0
 49
3.75
 49
-1.25
  0
LTYPE
  2
CENTER1
 70
    64
  3
----- - ----- - ----- - ----- - 
 72
    65
 73
     4
 40
10.0
 49
6.25
 49
-1.25
 49
1.25
 49
-1.25
  0
LTYPE
  2
CENTER2
 70
    64
  3
----------  --  ----------  --  
 72
    65
 73
     4
 40
20.0
 49
12.5
 49
-2.5
 49
2.5
 49
-2.5
  0
LTYPE
  2
PHANTOM1
 70
    64
  3
--- - - --- - - --- - - --- - - 
 72
    65
 73
     6
 40
10.0
 49
3.25
 49
-1.25
 49
1.25
 49
-1.25
 49
1.25
 49
-1.25
  0
LTYPE
  2
PHANTOM2
 70
    64
  3
--------  -  -  --------  -  -  
 72
    65
 73
     6
 40
20.0
 49
10.0
 49
-2.5
 49
1.25
 49
-2.5
 49
1.25
 49
-2.5
  0
LTYPE
  2
DOT
 70
    64
  3
-   -   -   -   -   -   -   -   
 72
    65
 73
     2
 40
2.5
 49
0.625
 49
-1.875
  0
LTYPE
  2
DUMMY
 70
    64
  3
ダミー
 72
    65
 73
     0
 40
0.0
  0
LTYPE
  2
RAND1
 70
    64
  3
ランダム線1
 72
    65
 73
     4
 40
10.0
 49
1.0
 49
-2.0
 49
3.0
 49
-4.0
  0
LTYPE
  2
RAND2
 70
    64
  3
ランダム線2
 72
    65
 73
     4
 40
14.0
 49
2.0
 49
-3.0
 49
4.0
 49
-5.0
  0
LTYPE
  2
RAND3
 70
    64
  3
ランダム線3
 72
    65
 73
     4
 40
18.0
 49
3.0
 49
-4.0
 49
5.0
 49
-6.0
  0
LTYPE
  2
RAND4
 70
    64
  3
ランダム線4
 72
    65
 73
     4
 40
22.0
 49
4.0
 49
-5.0
 49
6.0
 49
-7.0
  0
LTYPE
  2
RAND5
 70
    64
  3
ランダム線5
 72
    65
 73
     4
 40
26.0
 49
5.0
 49
-6.0
 49
7.0
 49
-8.0
  0
LTYPE
  2
LONG1
 70
    64
  3
----------  --  ----------  --  
 72
    65
 73
     4
 40
40.0
 49
32.5
 49
-2.5
 49
2.5
 49
-2.5
  0
LTYPE
  2
LONG2
 70
    64
  3
--------  -  -  --------  -  -  
 72
    65
 73
     6
 40
40.0
 49
30.0
 49
-2.5
 49
1.25
 49
-2.5
 49
1.25
 49
-2.5
  0
LTYPE
  2
LONG3
 70
    64
  3
+++++++++++++++..+++++++++++++++
 72
    65
 73
     2
 40
40.0
 49
37.5
 49
-2.5
  0
LTYPE
  2
LONG4
 70
    64
  3
+++++++++++++++..+++++++++++++++
 72
    65
 73
     2
 40
80.0
 49
75.0
 49
-5.0
  0
LTYPE
  2
LONG5
 70
    64
  3
----------  --  ----------  --  
 72
    65
 73
     4
 40
60.0
 49
37.5
 49
-7.5
 49
7.5
 49
-7.5
  0
LTYPE
  2
dashed
 70
   64
  3
-------   -------------   ------
 72
   65
 73
    2
 40
7.5
 49
6
 49
-1.5
  0
LTYPE
  2
dashed_spaced
 70
   64
  3
----        --------        ----
 72
   65
 73
    2
 40
12
 49
6
 49
-6
  0
LTYPE
  2
long_dashed_dotted
 70
   64
  3
------------- --- --------------
 72
   65
 73
    4
 40
15.25
 49
12
 49
-1.5
 49
0.25
 49
-1.5
  0
LTYPE
  2
long_dashed_double-dotted
 70
   64
  3
----------- --- --- ------------
 72
   65
 73
    6
 40
17
 49
12
 49
-1.5
 49
0.25
 49
-1.5
 49
0.25
 49
-1.5
  0
LTYPE
  2
long_dashed_triplicate-dotted
 70
   64
  3
--------- --- --- --- ----------
 72
   65
 73
    8
 40
18.75
 49
12
 49
-1.5
 49
0.25
 49
-1.5
 49
0.25
 49
-1.5
 49
0.25
 49
-1.5
  0
LTYPE
  2
dotted
 70
   64
  3
   -       -       -       -    
 72
   65
 73
    2
 40
1.75
 49
0.25
 49
-1.5
  0
LTYPE
  2
chain
 70
   64
  3
-------------- -- --------------
 72
   65
 73
    4
 40
18.5
 49
12
 49
-1.5
 49
3.5
 49
-1.5
  0
LTYPE
  2
chain_double_dash
 70
   64
  3
------------ -- -- -------------
 72
   65
 73
    6
 40
23.5
 49
12
 49
-1.5
 49
3.5
 49
-1.5
 49
3.5
 49
-1.5
  0
LTYPE
  2
dashed_dotted
 70
   64
  3
-----------     -     ----------
 72
   65
 73
    4
 40
9.25
 49
6
 49
-1.5
 49
0.25
 49
-1.5
  0
LTYPE
  2
double-dashed_dotted
 70
   64
  3
------   -----------   -   -----
 72
   65
 73
    6
 40
16.75
 49
6
 49
-1.5
 49
6
 49
-1.5
 49
0.25
 49
-1.5
  0
LTYPE
  2
dashed_double-dotted
 70
   64
  3
---------    -    -    ---------
 72
   65
 73
    6
 40
11
 49
6
 49
-1.5
 49
0.25
 49
-1.5
 49
0.25
 49
-1.5
  0
LTYPE
  2
double-dashed_double-dotted
 70
   64
  3
-----   ---------   -   -   ----
 72
   65
 73
    8
 40
18.5
 49
6
 49
-1.5
 49
6
 49
-1.5
 49
0.25
 49
-1.5
 49
0.25
 49
-1.5
  0
LTYPE
  2
dashed_triplicate-dotted
 70
   64
  3
-------    -    -    -    ------
 72
   65
 73
    8
 40
12.75
 49
6
 49
-1.5
 49
0.25
 49
-1.5
 49
0.25
 49
-1.5
 49
0.25
 49
-1.5
  0
LTYPE
  2
double-dashed_triplicate-dotted
 70
   64
  3
-----  ---------  -  -  -  -----
 72
   65
 73
   10
 40
20.25
 49
6
 49
-1.5
 49
6
 49
-1.5
 49
0.25
 49
-1.5
 49
0.25
 49
-1.5
 49
0.25
 49
-1.5
  0
LTYPE
  2
undefined
 70
   64
  3
--------------------------------
 72
   65
 73
    0
 40
0
  0
ENDTAB
  0
TABLE
  2
STYLE
  5
3
100
AcDbSymbolTable
 70
     1
  0
STYLE
  5
10
100
AcDbSymbolTableRecord
100
AcDbTextStyleTableRecord
  2
STANDARD
 70
     0
 40
0.0
 41
1.0
 50
0.0
 71
     0
 42
0.2
  3
txt
  4
bigfont.shx
  0
STYLE
  5
26
100
AcDbSymbolTableRecord
100
AcDbTextStyleTableRecord
  2
TATEGAKI
 70
    68
 40
0.0
 41
1.0
 50
0.0
 71
     0
 42
1.0
  3
txt
  4
bigfont.shx
  0
ENDTAB
  0
TABLE
  2
LAYER
 70
    3
  0
LAYER
  2
_0-0_
 70
   64
 62
    7
  6
CONTINUOUS
  0
LAYER
  2
_0-1_
 70
   64
 62
    7
  6
CONTINUOUS
  0
LAYER
  2
ADD_LINE
 70
   64
 62
    7
  6
CONTINUOUS
  0
ENDTAB
  0
ENDSEC
  0
SECTION
  2
BLOCKS
  0
ENDSEC
  0
SECTION
  2
ENTITIES
  0
LINE
  8
_0-0_
  6
CONTINUOUS
 62
    7
 10
1484.8580437737544
 20
760.33605627111478
 11
1504.8581097577071
 21
758.33606204471084
  0
LINE
  8
_0-0_
  6
CONTINUOUS
 62
    7
 10
1475.8581625448692
 20
806.33604719832135
 11
1484.8580437737544
 21
760.33605627111478
  0
LINE
  8
_0-0_
  6
CONTINUOUS
 62
    7
 10
1495.8973240207981
 20
772.52518937394427
 11
1504.8581097577071
 21
766.37600048168292
  0
LINE
  8
_0-0_
  6
CONTINUOUS
 62
    7
 10
1504.8581097577071
 20
758.33606204471084
 11
1504.8581097577071
 21
766.37600048168292
  0
LINE
  8
_0-0_
  6
CONTINUOUS
 62
    7
 10
1465.8581295528927
 20
1096.8361519478462
 11
1475.8581625448692
 21
1091.8361354518581
  0
LINE
  8
_0-0_
  6
CONTINUOUS
 62
    7
 10
1475.8581625448692
 20
1108.3361651446369
 11
1465.8581295528927
 21
1108.3361651446369
  0
LINE
  8
_0-0_
  6
CONTINUOUS
 62
    7
 10
1465.8581295528927
 20
1108.3361651446369
 11
1465.8581295528927
 21
1096.8361519478462
  0
LINE
  8
_0-0_
  6
CONTINUOUS
 62
    7
 10
1475.8581625448692
 20
1091.8361354518581
 11
1475.8581625448692
 21
806.33604719832135
  0
LINE
  8
_0-0_
  6
CONTINUOUS
 62
    7
 10
1492.8580206793708
 20
1088.3360991606842
 11
1484.2597342826227
 21
1099.0841427364867
  0
LINE
  8
_0-0_
  6
CONTINUOUS
 62
    7
 10
1500.8579975849875
 20
1103.3361486486488
 11
1492.8580206793708
 21
1098.3361321526606
  0
LINE
  8
_0-0_
  6
CONTINUOUS
 62
    7
 10
1500.8579975849875
 20
1108.3361651446369
 11
1500.8579975849875
 21
1103.3361486486488
  0
LINE
  8
_0-0_
  6
CONTINUOUS
 62
    7
 10
1484.2597342826227
 20
1099.0841427364867
 11
1484.2597342826227
 21
1108.3361651446369
  0
LINE
  8
_0-0_
  6
CONTINUOUS
 62
    7
 10
1465.8581295528927
 20
1108.3361651446369
 11
1500.8579975849875
 21
1108.3361651446369
  0
LINE
  8
_0-0_
  6
CONTINUOUS
 62
    7
 10
1492.8580206793708
 20
778.29690881677584
 11
1492.8580206793708
 21
1098.3361321526606
  0
LINE
  8
_0-0_
  6
CONTINUOUS
 62
    7
 10
1465.8581295528927
 20
1306.9848137932854
 11
1500.8579975849875
 21
1306.9848137932854
  0
LINE
  8
_0-0_
  6
CONTINUOUS
 62
    7
 10
1465.8581295528927
 20
1161.0388678473396
 11
1465.8581295528927
 21
1306.9848137932854
  0
LINE
  8
_0-0_
  6
CONTINUOUS
 62
    7
 10
1500.8579975849875
 20
1161.0388678473396
 11
1500.8579975849875
 21
1306.9848137932854
  0
LINE
  8
_0-0_
  6
CONTINUOUS
 62
    7
 10
1484.8580437737544
 20
607.81000498178844
 11
1504.8581097577071
 21
607.81000498178844
  0
LINE
  8
_0-0_
  6
CONTINUOUS
 62
    7
 10
1484.8580437737544
 20
719.58216074350719
 11
1484.8580437737544
 21
607.81000498178844
  0
LINE
  8
_0-0_
  6
CONTINUOUS
 62
    7
 10
1504.8581097577071
 20
719.58216074350719
 11
1504.8581097577071
 21
607.81000498178844
  0
LINE
  8
_0-0_
  6
CONTINUOUS
 62
    7
 10
567.74993071684969
 20
758.33606204471084
 11
567.74993071684969
 21
1108.3361651446369
  0
LINE
  8
_0-0_
  6
CONTINUOUS
 62
    7
 10
802.8850658519849
 20
758.33606204471084
 11
567.74993071684969
 21
758.33606204471084
  0
LINE
  8
_0-0_
  6
CONTINUOUS
 62
    7
 10
802.8850658519849
 20
1108.3361651446369
 11
567.74993071684969
 21
1108.3361651446369
  0
LINE
  8
_0-0_
  6
CONTINUOUS
 62
    7
 10
660.99317396009292
 20
301.72827437117292
 11
660.99317396009292
 21
276.72825375118776
  0
LINE
  8
_0-0_
  6
CONTINUOUS
 62
    7
 10
802.8850658519849
 20
301.72827437117292
 11
660.99317396009292
 21
301.72827437117292
  0
LINE
  8
_0-0_
  6
CONTINUOUS
 62
    7
 10
802.8850658519849
 20
276.72825375118776
 11
660.99317396009292
 21
276.72825375118776
  0
LINE
  8
_0-0_
  6
CONTINUOUS
 62
    7
 10
1694.7770814637879
 20
1108.3361651446369
 11
1694.7770814637879
 21
758.33606204471084
  0
LINE
  8
_0-0_
  6
CONTINUOUS
 62
    7
 10
1581.2635679502746
 20
1108.3361651446369
 11
1694.7770814637879
 21
1108.3361651446369
  0
LINE
  8
_0-0_
  6
CONTINUOUS
 62
    7
 10
1581.2635679502746
 20
758.33606204471084
 11
1694.7770814637879
 21
758.33606204471084
  0
LINE
  8
ADD_LINE
  6
DOT
 62
    4
 10
1058.3039567277237
 20
1340.0558884079394
 11
1058.3039567277237
 21
83.899513450828778
  0
LINE
  8
_0-0_
  6
CONTINUOUS
 62
    7
 10
1211.3039171373523
 20
1108.3361651446369
 11
1211.3039171373523
 21
758.33606204471084
  0
LINE
  8
_0-0_
  6
CONTINUOUS
 62
    7
 10
1122.3038956925675
 20
1097.3362278293919
 11
1161.3038758973817
 21
1097.3362278293919
  0
LINE
  8
_0-0_
  6
CONTINUOUS
 62
    7
 10
1122.3038956925675
 20
1108.3361651446369
 11
1122.3038956925675
 21
1097.3362278293919
  0
LINE
  8
_0-0_
  6
CONTINUOUS
 62
    7
 10
1161.3038758973817
 20
1108.3361651446369
 11
1161.3038758973817
 21
1097.3362278293919
  0
LINE
  8
_0-0_
  6
CONTINUOUS
 62
    7
 10
1113.3038907437713
 20
1088.3360991606842
 11
1113.3038907437713
 21
1083.5946572793498
  0
LINE
  8
_0-0_
  6
CONTINUOUS
 62
    7
 10
1096.3039088893581
 20
1096.8361519478462
 11
1096.3039088893581
 21
1083.5946572793498
  0
LINE
  8
_0-0_
  6
CONTINUOUS
 62
    7
 10
1113.3038907437713
 20
1096.8361519478462
 11
1113.3038907437713
 21
1088.3360991606842
  0
LINE
  8
_0-0_
  6
CONTINUOUS
 62
    7
 10
1204.3039682749156
 20
1088.3360991606842
 11
1204.3039682749156
 21
1027.3359968855575
  0
LINE
  8
_0-0_
  6
CONTINUOUS
 62
    7
 10
1204.3039682749156
 20
1027.3359968855575
 11
1211.3039171373523
 21
1027.3359968855575
  0
LINE
  8
_0-0_
  6
CONTINUOUS
 62
    7
 10
1122.3038956925675
 20
1088.3360991606842
 11
1204.3039682749156
 21
1088.3360991606842
  0
LINE
  8
_0-0_
  6
CONTINUOUS
 62
    7
 10
1122.3038956925675
 20
1088.3360991606842
 11
1121.8038198110221
 21
1088.3360991606842
  0
LINE
  8
_0-0_
  6
CONTINUOUS
 62
    7
 10
1148.3040062156883
 20
1023.6333073796453
 11
1148.3040062156883
 21
758.33606204471084
  0
LINE
  8
_0-0_
  6
CONTINUOUS
 62
    7
 10
1169.3039765229096
 20
1027.3359968855575
 11
1148.3040062156883
 21
1023.6333073796453
  0
LINE
  8
_0-0_
  6
CONTINUOUS
 62
    7
 10
1204.3039682749156
 20
1027.3359968855575
 11
1169.3039765229096
 21
1027.3359968855575
  0
LINE
  8
_0-0_
  6
CONTINUOUS
 62
    7
 10
1169.3039765229096
 20
1088.3360991606842
 11
1169.3039765229096
 21
788.33603730072855
  0
LINE
  8
_0-0_
  6
CONTINUOUS
 62
    7
 10
1157.304011164485
 20
1027.3359968855575
 11
1148.3040062156883
 21
1023.6333073796453
  0
LINE
  8
_0-0_
  6
CONTINUOUS
 62
    7
 10
1157.304011164485
 20
1083.3360826646961
 11
1169.3039765229096
 21
1088.3360991606842
  0
LINE
  8
_0-0_
  6
CONTINUOUS
 62
    7
 10
1157.304011164485
 20
1083.3360826646961
 11
1157.304011164485
 21
1027.3359968855575
  0
LINE
  8
_0-0_
  6
CONTINUOUS
 62
    7
 10
1121.7121433567356
 20
1083.3360826646961
 11
1157.304011164485
 21
1083.3360826646961
  0
LINE
  8
_0-0_
  6
CONTINUOUS
 62
    7
 10
1211.3039171373523
 20
313.72823972959782
 11
1211.3039171373523
 21
276.72825375118776
  0
LINE
  8
_0-0_
  6
CONTINUOUS
 62
    7
 10
1171.3040326092696
 20
313.72823972959782
 11
1211.3039171373523
 21
313.72823972959782
  0
LINE
  8
_0-0_
  6
CONTINUOUS
 62
    7
 10
1092.3040441564613
 20
296.7282578751848
 11
1148.3040062156883
 21
296.7282578751848
  0
LINE
  8
_0-0_
  6
CONTINUOUS
 62
    7
 10
1169.3039765229096
 20
301.72827437117292
 11
1211.3039171373523
 21
301.72827437117292
  0
LINE
  8
_0-0_
  6
CONTINUOUS
 62
    7
 10
1171.3040326092696
 20
313.72823972959782
 11
1169.3039765229096
 21
301.72827437117292
  0
LINE
  8
_0-0_
  6
CONTINUOUS
 62
    7
 10
1169.3039765229096
 20
493.03099142538537
 11
1211.3039171373523
 21
493.03099142538537
  0
LINE
  8
_0-0_
  6
CONTINUOUS
 62
    7
 10
1196.3038676493877
 20
479.03096998060073
 11
1201.3038841453758
 21
479.03096998060073
  0
LINE
  8
_0-0_
  6
CONTINUOUS
 62
    7
 10
1176.3039253853462
 20
481.0309642070049
 11
1196.3038676493877
 21
481.0309642070049
  0
LINE
  8
_0-0_
  6
CONTINUOUS
 62
    7
 10
1201.3038841453758
 20
481.0309642070049
 11
1211.3039171373523
 21
481.0309642070049
  0
LINE
  8
_0-0_
  6
CONTINUOUS
 62
    7
 10
1196.3038676493877
 20
481.0309642070049
 11
1196.3038676493877
 21
479.03096998060073
  0
LINE
  8
_0-0_
  6
CONTINUOUS
 62
    7
 10
1201.3038841453758
 20
481.0309642070049
 11
1201.3038841453758
 21
479.03096998060073
  0
LINE
  8
_0-0_
  6
CONTINUOUS
 62
    7
 10
1211.3039171373523
 20
493.03099142538537
 11
1211.3039171373523
 21
481.0309642070049
  0
LINE
  8
ADD_LINE
  6
DOT
 62
    3
 10
1211.3039171373523
 20
493.03099142538537
 11
1211.3039171373523
 21
507.14644354742927
  0
LINE
  8
ADD_LINE
  6
DOT
 62
    3
 10
1211.3039171373523
 20
493.03099142538537
 11
1202.14654046136
 21
493.03099142538537
  0
LINE
  8
ADD_LINE
  6
DOT
 62
    3
 10
1211.3039171373523
 20
493.03099142538537
 11
1223.5368470887879
 21
493.03099142538537
  0
LINE
  8
ADD_LINE
  6
DOT
 62
    3
 10
1211.3039171373523
 20
493.03099142538537
 11
1211.3039171373523
 21
481.88209533691406
  0
LINE
  8
_0-0_
  6
CONTINUOUS
 62
    7
 10
1100.3040210620777
 20
276.72828468116558
 11
1211.3039171373523
 21
276.72828468116558
  0
LINE
  8
_0-0_
  6
CONTINUOUS
 62
    7
 10
1176.3039253853462
 20
481.0309642070049
 11
1167.5329259923988
 21
470.06727682577599
  0
LINE
  8
_0-0_
  6
CONTINUOUS
 62
    7
 10
1141.8038857949748
 20
1108.3361651446369
 11
1141.8038857949748
 21
1097.3362278293919
  0
LINE
  8
_0-0_
  6
CONTINUOUS
 62
    7
 10
905.30399631809541
 20
1108.3361651446369
 11
905.30399631809541
 21
758.33606204471084
  0
LINE
  8
_0-0_
  6
CONTINUOUS
 62
    7
 10
949.30399301889793
 20
1108.3361651446369
 11
949.30399301889793
 21
1096.3360760663008
  0
LINE
  8
_0-0_
  6
CONTINUOUS
 62
    7
 10
958.30399796769427
 20
1095.3361717430321
 11
958.30399796769427
 21
1108.3361651446369
  0
LINE
  8
_0-0_
  6
CONTINUOUS
 62
    7
 10
950.30402106207771
 20
1087.3361948374156
 11
914.30400126689187
 21
1087.3361948374156
  0
LINE
  8
_0-0_
  6
CONTINUOUS
 62
    7
 10
914.30400126689187
 20
1096.3360760663008
 11
949.30399301889793
 21
1096.3360760663008
  0
LINE
  8
_0-0_
  6
CONTINUOUS
 62
    7
 10
914.30400126689187
 20
1108.3361651446369
 11
914.30400126689187
 21
1096.3360760663008
  0
LINE
  8
_0-0_
  6
CONTINUOUS
 62
    7
 10
914.30400126689187
 20
1087.3361948374156
 11
914.30400126689187
 21
758.33606204471084
  0
LINE
  8
_0-0_
  6
CONTINUOUS
 62
    7
 10
1012.8039798221073
 20
1088.3360991606842
 11
1012.8039798221073
 21
1083.5946572793498
  0
LINE
  8
_0-0_
  6
CONTINUOUS
 62
    7
 10
995.80399796769427
 20
1096.8361519478462
 11
995.80399796769427
 21
1083.5946572793498
  0
LINE
  8
_0-0_
  6
CONTINUOUS
 62
    7
 10
1012.8039798221073
 20
1096.8361519478462
 11
1012.8039798221073
 21
1088.3360991606842
  0
LINE
  8
_0-0_
  6
CONTINUOUS
 62
    7
 10
905.30399631809541
 20
1027.33624432538
 11
914.30400126689187
 21
1027.33624432538
  0
LINE
  8
_0-0_
  6
CONTINUOUS
 62
    7
 10
904.30396827491563
 20
1082.5556574641048
 11
905.30399631809541
 21
1082.5556574641048
  0
LINE
  8
_0-0_
  6
CONTINUOUS
 62
    7
 10
914.30400126689187
 20
1027.33624432538
 11
938.3039938436973
 21
1023.1042810388515
  0
LINE
  8
_0-0_
  6
CONTINUOUS
 62
    7
 10
938.3039938436973
 20
1023.1042810388515
 11
938.3039938436973
 21
758.33606204471084
  0
LINE
  8
_0-0_
  6
CONTINUOUS
 62
    7
 10
930.30401693808074
 20
1027.33624432538
 11
938.3039938436973
 21
1023.1042810388515
  0
LINE
  8
_0-0_
  6
CONTINUOUS
 62
    7
 10
962.82398120777032
 20
1091.8361354518581
 11
995.80399796769427
 21
1091.8361354518581
  0
LINE
  8
_0-0_
  6
CONTINUOUS
 62
    7
 10
930.30401693808074
 20
1082.3361783414275
 11
930.30401693808074
 21
1027.33624432538
  0
LINE
  8
_0-0_
  6
CONTINUOUS
 62
    7
 10
914.30400126689187
 20
1087.3361948374156
 11
930.30401693808074
 21
1082.3361783414275
  0
LINE
  8
_0-0_
  6
CONTINUOUS
 62
    7
 10
950.30402106207771
 20
1082.3361783414275
 11
930.30401693808074
 21
1082.3361783414275
  0
LINE
  8
_0-0_
  6
CONTINUOUS
 62
    7
 10
905.30399631809541
 20
313.72823972959782
 11
905.30399631809541
 21
276.72825375118776
  0
LINE
  8
_0-0_
  6
CONTINUOUS
 62
    7
 10
905.30399631809541
 20
276.72825375118776
 11
987.3040070404877
 21
276.72825375118776
  0
LINE
  8
_0-0_
  6
CONTINUOUS
 62
    7
 10
905.30399631809541
 20
313.72823972959782
 11
912.30431634026615
 21
313.72823972959782
  0
LINE
  8
_0-0_
  6
CONTINUOUS
 62
    7
 10
914.30400126689187
 20
301.72821251121729
 11
914.30400126689187
 21
313.27035233781146
  0
LINE
  8
_0-0_
  6
CONTINUOUS
 62
    7
 10
929.30349401525564
 20
296.7282578751848
 11
995.30398394610427
 21
296.7282578751848
  0
LINE
  8
_0-0_
  6
CONTINUOUS
 62
    7
 10
905.30399631809541
 20
301.72827437117292
 11
914.30400126689187
 21
301.72827437117292
  0
LINE
  8
_0-0_
  6
CONTINUOUS
 62
    7
 10
905.30399631809541
 20
493.03099142538537
 11
914.30406312684772
 21
493.03099142538537
  0
LINE
  8
ADD_LINE
  6
DOT
 62
    3
 10
905.30399631809541
 20
493.03099142538537
 11
905.30399631809541
 21
507.14644354742927
  0
LINE
  8
ADD_LINE
  6
DOT
 62
    3
 10
905.30399631809541
 20
493.03099142538537
 11
896.14661964210313
 21
493.03099142538537
  0
LINE
  8
ADD_LINE
  6
DOT
 62
    3
 10
905.30399631809541
 20
493.03099142538537
 11
917.53698812948699
 21
493.03099142538537
  0
LINE
  8
ADD_LINE
  6
DOT
 62
    3
 10
905.30399631809541
 20
493.03099142538537
 11
905.30399631809541
 21
477.03097575419662
  0
LINE
  8
_0-0_
  6
CONTINUOUS
 62
    7
 10
905.30399631809541
 20
493.03099142538537
 11
905.30399631809541
 21
477.03097575419662
  0
LINE
  8
_0-0_
  6
CONTINUOUS
 62
    7
 10
931.8039971428949
 20
1108.3361651446369
 11
931.8039971428949
 21
1096.3360760663008
  0
LINE
  8
_0-0_
  6
CONTINUOUS
 62
    7
 10
905.30399631809541
 20
758.33606204471084
 11
1211.3039171373523
 21
758.33606204471084
  0
LINE
  8
_0-0_
  6
CONTINUOUS
 62
    7
 10
958.30399796769427
 20
1096.8361519478462
 11
1113.3038907437713
 21
1096.8361519478462
  0
LINE
  8
_0-0_
  6
CONTINUOUS
 62
    7
 10
1014.8039740485115
 20
287.72825292638828
 11
1072.8040540540542
 21
287.72825292638828
  0
LINE
  8
_0-0_
  6
CONTINUOUS
 62
    7
 10
938.3039938436973
 20
481.0309642070049
 11
1150.5135201119087
 21
481.0309642070049
  0
LINE
  8
_0-0_
  6
CONTINUOUS
 62
    7
 10
927.36548346442146
 20
466.03097657899605
 11
1160.3939159496413
 21
466.03097657899605
  0
LINE
  8
_0-0_
  6
CONTINUOUS
 62
    7
 10
940.30398807010147
 20
301.72827437117292
 11
1148.3040062156883
 21
301.72827437117292
  0
LINE
  8
_0-0_
  6
CONTINUOUS
 62
    7
 10
904.30396827491563
 20
793.3361156566724
 11
905.30399631809541
 21
793.3361156566724
  0
LINE
  8
_0-0_
  6
CONTINUOUS
 62
    7
 10
904.30396827491563
 20
1082.5556574641048
 11
904.30396827491563
 21
793.3361156566724
  0
LINE
  8
_0-0_
  6
CONTINUOUS
 62
    7
 10
872.30399879249376
 20
1102.3359968855575
 11
905.30399631809541
 21
1102.3359968855575
  0
LINE
  8
_0-0_
  6
CONTINUOUS
 62
    7
 10
866.30401611328125
 20
480.03099802378068
 11
866.30401611328125
 21
466.03097657899605
  0
LINE
  8
_0-0_
  6
CONTINUOUS
 62
    7
 10
866.30401611328125
 20
480.03099802378068
 11
872.30399879249376
 21
480.03099802378068
  0
LINE
  8
_0-0_
  6
CONTINUOUS
 62
    7
 10
872.30399879249376
 20
477.03097575419662
 11
872.30399879249376
 21
480.03099802378068
  0
LINE
  8
_0-0_
  6
CONTINUOUS
 62
    7
 10
872.30399879249376
 20
480.03099802378068
 11
872.30399879249376
 21
477.03097575419662
  0
LINE
  8
_0-0_
  6
CONTINUOUS
 62
    7
 10
905.30399631809541
 20
477.03097575419662
 11
872.30399879249376
 21
477.03097575419662
  0
LINE
  8
_0-0_
  6
CONTINUOUS
 62
    7
 10
872.30399879249376
 20
477.03097575419662
 11
905.30399631809541
 21
477.03097575419662
  0
LINE
  8
_0-0_
  6
CONTINUOUS
 62
    7
 10
866.30401611328125
 20
466.03097657899605
 11
905.30399631809541
 21
466.03097657899605
  0
LINE
  8
_0-0_
  6
CONTINUOUS
 62
    7
 10
866.30401611328125
 20
1108.3361651446369
 11
1211.3039171373523
 21
1108.3361651446369
  0
LINE
  8
_0-0_
  6
CONTINUOUS
 62
    7
 10
866.30401611328125
 20
1108.3361651446369
 11
866.30401611328125
 21
778.33606616870782
  0
LINE
  8
_0-0_
  6
CONTINUOUS
 62
    7
 10
866.30401611328125
 20
778.33606616870782
 11
905.30399631809541
 21
778.33606616870782
  0
LINE
  8
_0-0_
  6
CONTINUOUS
 62
    7
 10
866.30401611328125
 20
793.3361156566724
 11
872.30399879249376
 21
793.3361156566724
  0
LINE
  8
_0-0_
  6
CONTINUOUS
 62
    7
 10
872.30399879249376
 20
1102.3359968855575
 11
872.30399879249376
 21
793.3361156566724
  0
LINE
  8
_0-0_
  6
CONTINUOUS
 62
    7
 10
866.30401611328125
 20
1306.9848137932854
 11
866.30401611328125
 21
1161.0388678473396
  0
LINE
  8
_0-0_
  6
CONTINUOUS
 62
    7
 10
905.30399631809541
 20
1306.9848137932854
 11
905.30399631809541
 21
1161.0388678473396
  0
LINE
  8
_0-0_
  6
CONTINUOUS
 62
    7
 10
866.30401611328125
 20
1306.9848137932854
 11
905.30399631809541
 21
1306.9848137932854
  0
LINE
  8
_0-0_
  6
CONTINUOUS
 62
    7
 10
1211.3039171373523
 20
1306.9848137932854
 11
1211.3039171373523
 21
1161.0388678473396
  0
LINE
  8
_0-0_
  6
CONTINUOUS
 62
    7
 10
905.30399631809541
 20
1306.9848137932854
 11
1211.3039171373523
 21
1306.9848137932854
  0
LINE
  8
_0-0_
  6
CONTINUOUS
 62
    7
 10
866.30401611328125
 20
607.81000498178844
 11
866.30401611328125
 21
719.58216074350719
  0
LINE
  8
_0-0_
  6
CONTINUOUS
 62
    7
 10
1211.3039171373523
 20
607.81000498178844
 11
1211.3039171373523
 21
719.58216074350719
  0
LINE
  8
_0-0_
  6
CONTINUOUS
 62
    7
 10
866.30401611328125
 20
607.81000498178844
 11
1211.3039171373523
 21
607.81000498178844
  0
LINE
  8
_0-0_
  6
CONTINUOUS
 62
    7
 10
866.30401611328125
 20
384.39869236301729
 11
866.30401611328125
 21
431.5700634105786
  0
LINE
  8
_0-0_
  6
CONTINUOUS
 62
    7
 10
1211.3039171373523
 20
384.39869236301729
 11
1211.3039171373523
 21
431.5700634105786
  0
LINE
  8
_0-0_
  6
CONTINUOUS
 62
    7
 10
866.30401611328125
 20
384.39869236301729
 11
1211.3039171373523
 21
384.39869236301729
  0
LINE
  8
_0-0_
  6
CONTINUOUS
 62
    7
 10
905.30399631809541
 20
166.01266603212096
 11
905.30399631809541
 21
234.14910290692305
  0
LINE
  8
_0-0_
  6
CONTINUOUS
 62
    7
 10
1211.3039171373523
 20
166.01266603212096
 11
1211.3039171373523
 21
234.14910290692305
  0
LINE
  8
_0-0_
  6
CONTINUOUS
 62
    7
 10
905.30399631809541
 20
166.01266603212096
 11
1211.3039171373523
 21
166.01266603212096
  0
ARC
  8
_0-0_
  6
CONTINUOUS
 62
    7
 10
1499.8580932617187
 20
778.29690881677584
 40
6.9999996069315316
 50
180
 51
235.54063415527344
  0
CIRCLE
  8
_0-0_
  6
CONTINUOUS
 62
    7
 10
1104.8039616765204
 20
1086.83611895587
 40
2.9999997970220207
  0
ARC
  8
_0-0_
  6
CONTINUOUS
 62
    7
 10
1104.8039616765204
 20
1085.5605666701858
 40
8.7243386217065773
 50
193.02180480957034
 51
346.97819519042969
  0
ARC
  8
_0-0_
  6
CONTINUOUS
 62
    7
 10
1122.1708967879013
 20
1097.2031052048142
 40
8.8746109524288705
 50
182.37057495117187
 51
267.62942504882812
  0
ARC
  8
_0-0_
  6
CONTINUOUS
 62
    7
 10
1122.7004180083404
 20
790.7144288758974
 40
46.664208334845469
 50
316.06367492675781
 51
357.07847595214844
  0
ARC
  8
_0-0_
  6
CONTINUOUS
 62
    7
 10
1122.1708967879013
 20
1097.2031052048142
 40
13.874610050304517
 50
230.27651977539065
 51
268.10496520996099
  0
ARC
  8
_0-0_
  6
CONTINUOUS
 62
    7
 10
1099.1097527581294
 20
313.6176341288799
 40
36.908680683857689
 50
224.54290771484375
 51
271.85426330566406
  0
ARC
  8
_0-0_
  6
CONTINUOUS
 62
    7
 10
1099.1097527581294
 20
313.6176341288799
 40
36.908680683857689
 50
224.54290771484375
 51
271.85426330566406
  0
ARC
  8
_0-0_
  6
CONTINUOUS
 62
    7
 10
1148.0331833298142
 20
344.46570937697959
 40
47.738201553757129
 50
270.32504272460937
 51
296.45993041992187
  0
ARC
  8
_0-0_
  6
CONTINUOUS
 62
    7
 10
1171.5962590398017
 20
309.67752611314927
 40
4.0612143439215584
 50
94.12628173828125
 51
144.88386535644531
  0
ARC
  8
_0-0_
  6
CONTINUOUS
 62
    7
 10
1149.1133818755279
 20
324.6868545944626
 40
22.97283121057459
 50
267.98094177246094
 51
326.51896667480469
  0
CIRCLE
  8
ADD_LINE
  6
DOT
 62
    3
 10
1211.3039171373523
 20
493.03099142538537
 40
2.9999997970220207
  0
ARC
  8
_0-0_
  6
CONTINUOUS
 62
    7
 10
1149.4088250237544
 20
503.47245706094276
 40
22.468668705708271
 50
272.81814575195312
 51
332.30841064453125
  0
ARC
  8
_0-0_
  6
CONTINUOUS
 62
    7
 10
1159.8970567857898
 20
475.24136723698803
 40
9.223796870257404
 50
273.08824157714844
 51
325.87852478027344
  0
ARC
  8
_0-0_
  6
CONTINUOUS
 62
    7
 10
1074.5329160948058
 20
267.94605770626589
 40
33.826450399450351
 50
92.92974853515625
 51
92.929763793945313
  0
ARC
  8
_0-0_
  6
CONTINUOUS
 62
    7
 10
1074.5330398147171
 20
267.94605770626589
 40
33.826450399450351
 50
92.92974853515625
 51
92.929763793945313
  0
ARC
  8
_0-0_
  6
CONTINUOUS
 62
    7
 10
1097.0847052496833
 20
340.29987438305005
 40
43.833110139176654
 50
241.63819885253906
 51
263.7386474609375
  0
ARC
  8
_0-0_
  6
CONTINUOUS
 62
    7
 10
950.30402106207771
 20
1095.3361717430321
 40
7.9999996198190226
 50
270
 51
0
  0
CIRCLE
  8
_0-0_
  6
CONTINUOUS
 62
    7
 10
1004.3039888949008
 20
1086.83611895587
 40
2.9999997970220207
  0
ARC
  8
_0-0_
  6
CONTINUOUS
 62
    7
 10
1004.3039888949008
 20
1085.5605666701858
 40
8.7243386217065773
 50
193.02180480957034
 51
346.97819519042969
  0
ARC
  8
_0-0_
  6
CONTINUOUS
 62
    7
 10
950.30402106207771
 20
1095.3361717430321
 40
12.999999200975573
 50
270
 51
344.38131713867187
  0
ARC
  8
_0-0_
  6
CONTINUOUS
 62
    7
 10
988.49827534443637
 20
313.6176341288799
 40
36.908680683857689
 50
268.14573669433594
 51
315.45709228515625
  0
ARC
  8
_0-0_
  6
CONTINUOUS
 62
    7
 10
930.08657919394011
 20
324.07611125224349
 40
27.359063560898242
 50
234.76937866210937
 51
268.36085510253906
  0
ARC
  8
_0-0_
  6
CONTINUOUS
 62
    7
 10
912.39797231313344
 20
309.54199095030094
 40
4.1872965322958464
 50
39.753768920898445
 51
91.285858154296875
  0
ARC
  8
_0-0_
  6
CONTINUOUS
 62
    7
 10
939.64115864521762
 20
334.45880992992505
 40
32.737266695177233
 50
222.79052734375
 51
271.16014099121094
  0
ARC
  8
_0-0_
  6
CONTINUOUS
 62
    7
 10
938.26254767340583
 20
510.94798526248417
 40
29.91702105547931
 50
216.79035949707031
 51
270.07937622070313
  0
CIRCLE
  8
ADD_LINE
  6
DOT
 62
    3
 10
905.30399631809541
 20
493.03099142538537
 40
2.9999997970220207
  0
ARC
  8
_0-0_
  6
CONTINUOUS
 62
    7
 10
1013.0751120077598
 20
267.94605770626589
 40
33.826450399450351
 50
87.070236206054688
 51
87.07025146484375
  0
ARC
  8
_0-0_
  6
CONTINUOUS
 62
    7
 10
916.46879041517104
 20
448.34063761943099
 40
20.918912500948519
 50
58.36822509765625
 51
122.25700378417969
  0
ARC
  8
_0-0_
  6
CONTINUOUS
 62
    7
 10
990.52338471283792
 20
340.29987438305005
 40
43.833110139176654
 50
276.2613525390625
 51
298.36180114746094
  0
TEXT
  8
_0-0_
 62
    7
 10
1478.3580017089844
 20
1309.4846983213683
 40
10
 41
1
 50
0
  1
35
  0
TEXT
  8
_0-0_
 62
    7
 10
1489.858014905775
 20
610.3100132297825
 40
10
 41
1
 50
0
  1
20
  0
TEXT
  8
_0-0_
 62
    7
 10
565.24992246885563
 20
925.83608266469594
 40
10
 41
1
 50
90
  1
350
  0
TEXT
  8
_0-0_
 62
    7
 10
658.49316571209886
 20
284.22827952616927
 40
10
 41
1
 50
90
  1
25
  0
TEXT
  8
_0-0_
 62
    7
 10
1692.2769494958829
 20
925.83608266469594
 40
10
 41
1
 50
90
  1
350
  0
TEXT
  8
_0-0_
 62
    7
 10
879.55397528571052
 20
1309.4848220412796
 40
12.5
 41
1
 50
0
  1
39
  0
TEXT
  8
_0-0_
 62
    7
 10
1048.9289567277237
 20
1309.4848220412796
 40
12.5
 41
1
 50
0
  1
306
  0
TEXT
  8
_0-0_
 62
    7
 10
1029.4289666253169
 20
610.3100132297825
 40
12.5
 41
1
 50
0
  1
345
  0
TEXT
  8
_0-0_
 62
    7
 10
1029.4289666253169
 20
386.8986696810336
 40
12.5
 41
1
 50
0
  1
345
  0
TEXT
  8
_0-0_
 62
    7
 10
1048.9289567277237
 20
168.51265881512617
 40
12.5
 41
1
 50
0
  1
306
  0
POINT
  8
_0-0_
 62
    7
 10
1465.8581295528927
 20
1306.9848137932854
  0
POINT
  8
_0-0_
 62
    7
 10
1500.8579975849875
 20
1306.9848137932854
  0
POINT
  8
_0-0_
 62
    7
 10
1484.8580437737544
 20
607.81000498178844
  0
POINT
  8
_0-0_
 62
    7
 10
1504.8581097577071
 20
607.81000498178844
  0
POINT
  8
_0-0_
 62
    7
 10
567.74993071684969
 20
758.33606204471084
  0
POINT
  8
_0-0_
 62
    7
 10
567.74993071684969
 20
1108.3361651446369
  0
POINT
  8
_0-0_
 62
    7
 10
660.99317396009292
 20
301.72827437117292
  0
POINT
  8
_0-0_
 62
    7
 10
660.99317396009292
 20
276.72825375118776
  0
POINT
  8
_0-0_
 62
    7
 10
1694.7770814637879
 20
1108.3361651446369
  0
POINT
  8
_0-0_
 62
    7
 10
1694.7770814637879
 20
758.33606204471084
  0
POINT
  8
_0-0_
 62
    7
 10
866.30401611328125
 20
1306.9848137932854
  0
POINT
  8
_0-0_
 62
    7
 10
905.30399631809541
 20
1306.9848137932854
  0
POINT
  8
_0-0_
 62
    7
 10
1211.3039171373523
 20
1306.9848137932854
  0
POINT
  8
_0-0_
 62
    7
 10
866.30401611328125
 20
607.81000498178844
  0
POINT
  8
_0-0_
 62
    7
 10
1211.3039171373523
 20
607.81000498178844
  0
POINT
  8
_0-0_
 62
    7
 10
866.30401611328125
 20
384.39869236301729
  0
POINT
  8
_0-0_
 62
    7
 10
1211.3039171373523
 20
384.39869236301729
  0
POINT
  8
_0-0_
 62
    7
 10
905.30399631809541
 20
166.01266603212096
  0
POINT
  8
_0-0_
 62
    7
 10
1211.3039171373523
 20
166.01266603212096
  0
LINE
  8
_0-0_
  6
CONTINUOUS
 62
    7
 10
1036.3734557006635
 20
1096.8361519478462
 11
1036.3734557006635
 21
1074.8361535974452
  0
LINE
  8
_0-0_
  6
CONTINUOUS
 62
    7
 10
1051.3734433286725
 20
1096.8361519478462
 11
1051.3734433286725
 21
1074.8361535974452
  0
LINE
  8
_0-0_
  6
CONTINUOUS
 62
    7
 10
1024.3734284822831
 20
1074.8361535974452
 11
1064.373436730277
 21
1074.8361535974452
  0
LINE
  8
_0-0_
  6
CONTINUOUS
 62
    7
 10
1056.3734598246606
 20
1096.8361519478462
 11
1056.3734598246606
 21
1074.8361535974452
  0
LINE
  8
ADD_LINE
  6
DOT
 62
    4
 10
1026.6129444569979
 20
1071.5793506519217
 11
1026.6129444569979
 21
1064.3693253800677
  0
LINE
  8
ADD_LINE
  6
DOT
 62
    4
 10
1057.1339661195295
 20
1071.5793506519217
 11
1057.1339661195295
 21
1064.3693253800677
  0
LINE
  8
_0-0_
  6
CONTINUOUS
 62
    7
 10
1064.373436730277
 20
1096.8361519478462
 11
1064.373436730277
 21
1081.6000448690879
  0
LINE
  8
_0-0_
  6
CONTINUOUS
 62
    7
 10
1012.8039798221073
 20
1091.8361354518581
 11
1024.3734284822831
 21
1091.8361354518581
  0
LINE
  8
_0-0_
  6
CONTINUOUS
 62
    7
 10
1064.373436730277
 20
1091.8361354518581
 11
1096.3039088893581
 21
1091.8361354518581
  0
LINE
  8
_0-0_
  6
CONTINUOUS
 62
    7
 10
1024.3734284822831
 20
1096.8361519478462
 11
1024.3734284822831
 21
1074.8361535974452
  0
LINE
  8
_0-0_
  6
CONTINUOUS
 62
    7
 10
1064.373436730277
 20
1081.6000448690879
 11
1064.373436730277
 21
1074.8361535974452
  0
ENDSEC
  0
EOF
