  0
SECTION
  2
HEADER
  9
$EXTMIN
 10
0
 20
0
  9
$EXTMAX
 10
2100
 20
1485
  0
ENDSEC
  0
SECTION
  2
TABLES
  0
TABLE
  2
LTYPE
 70
     9
  0
LTYPE
  2
CONTINUOUS
 70
    64
  3
実線
 72
    65
 73
     0
 40
0.0
  0
LTYPE
  2
DASHED1
 70
    64
  3
--  --  --  --  --  --  --  --  
 72
    65
 73
     2
 40
2.5
 49
1.25
 49
-1.25
  0
LTYPE
  2
DASHED2
 70
    64
  3
----    ----    ----    ----    
 72
    65
 73
     2
 40
5.0
 49
2.5
 49
-2.5
  0
LTYPE
  2
DASHED3
 70
    64
  3
------  ------  ------  ------  
 72
    65
 73
     2
 40
5.0
 49
3.75
 49
-1.25
  0
LTYPE
  2
CENTER1
 70
    64
  3
----- - ----- - ----- - ----- - 
 72
    65
 73
     4
 40
10.0
 49
6.25
 49
-1.25
 49
1.25
 49
-1.25
  0
LTYPE
  2
CENTER2
 70
    64
  3
----------  --  ----------  --  
 72
    65
 73
     4
 40
20.0
 49
12.5
 49
-2.5
 49
2.5
 49
-2.5
  0
LTYPE
  2
PHANTOM1
 70
    64
  3
--- - - --- - - --- - - --- - - 
 72
    65
 73
     6
 40
10.0
 49
3.25
 49
-1.25
 49
1.25
 49
-1.25
 49
1.25
 49
-1.25
  0
LTYPE
  2
PHANTOM2
 70
    64
  3
--------  -  -  --------  -  -  
 72
    65
 73
     6
 40
20.0
 49
10.0
 49
-2.5
 49
1.25
 49
-2.5
 49
1.25
 49
-2.5
  0
LTYPE
  2
DOT
 70
    64
  3
-   -   -   -   -   -   -   -   
 72
    65
 73
     2
 40
2.5
 49
0.625
 49
-1.875
  0
ENDTAB
  0
TABLE
  2
STYLE
 70
    1
  0
STYLE
  2
STANDARD
 70
    64
 40
0.0
 41
1.0
 42
0.0
 50
0.0
 71
     0
  3
TXT
  4
BIGFONT
  0
ENDTAB
  0
TABLE
  2
LAYER
 70
    5
  0
LAYER
  2
0-0
 70
   64
 62
    7
  6
CONTINUOUS
  0
LAYER
  2
0-1
 70
   64
 62
    7
  6
CONTINUOUS
  0
LAYER
  2
0-2
 70
   64
 62
    7
  6
CONTINUOUS
  0
LAYER
  2
ADD_LINE
 70
   64
 62
    7
  6
CONTINUOUS
  0
LAYER
  2
ADD_LINE
 70
   64
 62
    7
  6
CONTINUOUS
  0
ENDTAB
  0
ENDSEC
  0
SECTION
  2
ENTITIES
  0
LINE
  8
0-0
  6
CONTINUOUS
 62
    7
 10
1063.649
 20
768.68403
 11
1098.649
 21
768.68403
  0
LINE
  8
0-0
  6
CONTINUOUS
 62
    7
 10
1063.649
 20
1093.6839
 11
1063.649
 21
768.68403
  0
LINE
  8
0-0
  6
CONTINUOUS
 62
    7
 10
1098.649
 20
1093.6839
 11
1098.649
 21
743.68401
  0
LINE
  8
0-0
  6
CONTINUOUS
 62
    7
 10
1069.6491
 20
1087.683
 11
1098.649
 21
1087.683
  0
LINE
  8
0-0
  6
CONTINUOUS
 62
    7
 10
1063.649
 20
783.68402
 11
1069.6491
 21
783.68402
  0
LINE
  8
0-0
  6
CONTINUOUS
 62
    7
 10
1069.6491
 20
1087.683
 11
1069.6491
 21
783.68402
  0
LINE
  8
0-0
  6
CONTINUOUS
 62
    7
 10
1151.649
 20
1080.6839
 11
1151.649
 21
1093.6839
  0
LINE
  8
0-0
  6
CONTINUOUS
 62
    7
 10
1143.6491
 20
1072.6839
 11
1107.649
 21
1072.6839
  0
LINE
  8
0-0
  6
CONTINUOUS
 62
    7
 10
1107.649
 20
1072.6839
 11
1107.649
 21
743.68401
  0
LINE
  8
0-0
  6
CONTINUOUS
 62
    7
 10
1206.149
 20
1073.683
 11
1206.149
 21
1068.942
  0
LINE
  8
0-0
  6
CONTINUOUS
 62
    7
 10
1189.149
 20
1082.1839
 11
1189.149
 21
1068.942
  0
LINE
  8
0-0
  6
CONTINUOUS
 62
    7
 10
1206.149
 20
1082.1839
 11
1206.149
 21
1073.683
  0
LINE
  8
0-0
  6
CONTINUOUS
 62
    7
 10
1098.649
 20
1012.684
 11
1107.649
 21
1012.684
  0
LINE
  8
0-0
  6
CONTINUOUS
 62
    7
 10
1097.649
 20
783.68402
 11
1098.649
 21
783.68402
  0
LINE
  8
0-0
  6
CONTINUOUS
 62
    7
 10
1097.649
 20
1067.9029
 11
1097.649
 21
783.68402
  0
LINE
  8
0-0
  6
CONTINUOUS
 62
    7
 10
1097.649
 20
1067.9029
 11
1098.649
 21
1067.9029
  0
LINE
  8
0-0
  6
CONTINUOUS
 62
    7
 10
1107.649
 20
1012.684
 11
1131.649
 21
1008.4519
  0
LINE
  8
0-0
  6
CONTINUOUS
 62
    7
 10
1131.649
 20
1008.4519
 11
1131.649
 21
743.68401
  0
LINE
  8
0-0
  6
CONTINUOUS
 62
    7
 10
1123.649
 20
1012.684
 11
1131.649
 21
1008.4519
  0
LINE
  8
0-0
  6
CONTINUOUS
 62
    7
 10
1156.1689
 20
1077.184
 11
1189.149
 21
1077.184
  0
LINE
  8
0-0
  6
CONTINUOUS
 62
    7
 10
1123.649
 20
1067.6839
 11
1123.649
 21
1012.684
  0
LINE
  8
0-0
  6
CONTINUOUS
 62
    7
 10
1107.649
 20
1072.6839
 11
1123.649
 21
1067.6839
  0
LINE
  8
0-0
  6
CONTINUOUS
 62
    7
 10
1143.6491
 20
1067.6839
 11
1123.649
 21
1067.6839
  0
LINE
  8
0-0
  6
CONTINUOUS
 62
    7
 10
1098.649
 20
299.07601
 11
1098.649
 21
262.07599
  0
LINE
  8
0-0
  6
CONTINUOUS
 62
    7
 10
1098.649
 20
262.07599
 11
1180.649
 21
262.07599
  0
LINE
  8
0-0
  6
CONTINUOUS
 62
    7
 10
1098.649
 20
299.07601
 11
1105.649
 21
299.07601
  0
LINE
  8
0-0
  6
CONTINUOUS
 62
    7
 10
1107.649
 20
287.07601
 11
1107.649
 21
298.618
  0
LINE
  8
0-0
  6
CONTINUOUS
 62
    7
 10
1122.6478
 20
282.07599
 11
1188.6491
 21
282.07599
  0
LINE
  8
0-0
  6
CONTINUOUS
 62
    7
 10
1098.649
 20
287.07601
 11
1107.649
 21
287.07601
  0
LINE
  8
0-0
  6
CONTINUOUS
 62
    7
 10
1098.649
 20
478.378
 11
1107.649
 21
478.378
  0
LINE
  8
0-0
  6
CONTINUOUS
 62
    7
 10
1437.514
 20
745.68406
 11
1457.5141
 21
743.68401
  0
LINE
  8
0-0
  6
CONTINUOUS
 62
    7
 10
1428.514
 20
791.684
 11
1437.514
 21
745.68406
  0
LINE
  8
0-0
  6
CONTINUOUS
 62
    7
 10
1448.553
 20
757.87295
 11
1457.5141
 21
751.72302
  0
LINE
  8
0-0
  6
CONTINUOUS
 62
    7
 10
1457.5141
 20
743.68401
 11
1457.5141
 21
751.72302
  0
LINE
  8
0-0
  6
CONTINUOUS
 62
    7
 10
1418.514
 20
1082.1839
 11
1428.514
 21
1077.184
  0
LINE
  8
0-0
  6
CONTINUOUS
 62
    7
 10
1428.514
 20
1093.6839
 11
1418.514
 21
1093.6839
  0
LINE
  8
0-0
  6
CONTINUOUS
 62
    7
 10
1418.514
 20
1093.6839
 11
1418.514
 21
1082.1839
  0
LINE
  8
0-0
  6
CONTINUOUS
 62
    7
 10
1428.514
 20
1077.184
 11
1428.514
 21
791.684
  0
LINE
  8
0-0
  6
CONTINUOUS
 62
    7
 10
1445.514
 20
1073.683
 11
1436.915
 21
1084.4319
  0
LINE
  8
0-0
  6
CONTINUOUS
 62
    7
 10
1453.514
 20
1088.6839
 11
1445.514
 21
1083.6839
  0
LINE
  8
0-0
  6
CONTINUOUS
 62
    7
 10
1453.514
 20
1093.6839
 11
1453.514
 21
1088.6839
  0
LINE
  8
0-0
  6
CONTINUOUS
 62
    7
 10
1436.915
 20
1084.4319
 11
1436.915
 21
1093.6839
  0
LINE
  8
0-0
  6
CONTINUOUS
 62
    7
 10
1418.514
 20
1093.6839
 11
1453.514
 21
1093.6839
  0
LINE
  8
0-0
  6
CONTINUOUS
 62
    7
 10
1445.514
 20
763.64399
 11
1445.514
 21
1083.6839
  0
LINE
  8
0-0
  6
CONTINUOUS
 62
    7
 10
1418.514
 20
1292.3321
 11
1453.514
 21
1292.3321
  0
LINE
  8
0-0
  6
CONTINUOUS
 62
    7
 10
1418.514
 20
1146.386
 11
1418.514
 21
1292.3321
  0
LINE
  8
0-0
  6
CONTINUOUS
 62
    7
 10
1453.514
 20
1146.386
 11
1453.514
 21
1292.3321
  0
LINE
  8
0-0
  6
CONTINUOUS
 62
    7
 10
1437.514
 20
593.15702
 11
1457.5141
 21
593.15702
  0
LINE
  8
0-0
  6
CONTINUOUS
 62
    7
 10
1437.514
 20
704.92998
 11
1437.514
 21
593.15702
  0
LINE
  8
0-0
  6
CONTINUOUS
 62
    7
 10
1457.5141
 20
704.92998
 11
1457.5141
 21
593.15702
  0
LINE
  8
0-0
  6
CONTINUOUS
 62
    7
 10
1647.432
 20
1093.6839
 11
1647.432
 21
743.68401
  0
LINE
  8
0-0
  6
CONTINUOUS
 62
    7
 10
1533.919
 20
1093.6839
 11
1647.432
 21
1093.6839
  0
LINE
  8
0-0
  6
CONTINUOUS
 62
    7
 10
1533.919
 20
743.68401
 11
1647.432
 21
743.68401
  0
LINE
  8
ADD_LINE
  6
DASHED1
 62
    3
 10
1098.649
 20
478.378
 11
1098.649
 21
492.49401
  0
LINE
  8
ADD_LINE
  6
DASHED1
 62
    3
 10
1098.649
 20
478.378
 11
1089.4909
 21
478.378
  0
LINE
  8
ADD_LINE
  6
DASHED1
 62
    3
 10
1098.649
 20
478.378
 11
1110.882
 21
478.378
  0
LINE
  8
0-0
  6
CONTINUOUS
 62
    7
 10
1063.649
 20
465.378
 11
1063.649
 21
451.37798
  0
LINE
  8
0-0
  6
CONTINUOUS
 62
    7
 10
1063.649
 20
465.378
 11
1069.6491
 21
465.378
  0
LINE
  8
0-0
  6
CONTINUOUS
 62
    7
 10
1069.6491
 20
462.37801
 11
1069.6491
 21
465.378
  0
LINE
  8
0-0
  6
CONTINUOUS
 62
    7
 10
1069.6491
 20
465.378
 11
1069.6491
 21
462.37801
  0
LINE
  8
0-0
  6
CONTINUOUS
 62
    7
 10
1098.649
 20
462.37801
 11
1069.6491
 21
462.37801
  0
LINE
  8
ADD_LINE
  6
DASHED1
 62
    3
 10
1098.649
 20
478.378
 11
1098.649
 21
462.37801
  0
LINE
  8
0-0
  6
CONTINUOUS
 62
    7
 10
1098.649
 20
478.378
 11
1098.649
 21
462.37801
  0
LINE
  8
0-0
  6
CONTINUOUS
 62
    7
 10
1069.6491
 20
462.37801
 11
1098.649
 21
462.37801
  0
LINE
  8
0-0
  6
CONTINUOUS
 62
    7
 10
1063.649
 20
451.37798
 11
1098.649
 21
451.37798
  0
LINE
  8
0-0
  6
CONTINUOUS
 62
    7
 10
1063.649
 20
1093.6839
 11
1248.649
 21
1093.6839
  0
LINE
  8
0-0
  6
CONTINUOUS
 62
    7
 10
1248.649
 20
1093.6839
 11
1248.649
 21
743.68401
  0
LINE
  8
0-0
  6
CONTINUOUS
 62
    7
 10
1098.649
 20
743.68401
 11
1248.649
 21
743.68401
  0
LINE
  8
0-0
  6
CONTINUOUS
 62
    7
 10
1241.649
 20
1012.6829
 11
1248.649
 21
1012.6829
  0
LINE
  8
0-0
  6
CONTINUOUS
 62
    7
 10
1185.649
 20
743.68401
 11
1248.649
 21
743.68401
  0
LINE
  8
0-0
  6
CONTINUOUS
 62
    7
 10
1248.649
 20
1056.0069
 11
1248.649
 21
743.68401
  0
LINE
  8
0-0
  6
CONTINUOUS
 62
    7
 10
1151.649
 20
1082.1839
 11
1237.649
 21
1082.1839
  0
LINE
  8
0-0
  6
CONTINUOUS
 62
    7
 10
1237.649
 20
1082.1839
 11
1237.649
 21
1012.6829
  0
LINE
  8
0-0
  6
CONTINUOUS
 62
    7
 10
1206.149
 20
1077.184
 11
1232.6491
 21
1077.184
  0
LINE
  8
0-0
  6
CONTINUOUS
 62
    7
 10
1237.649
 20
1082.1839
 11
1232.6491
 21
1077.184
  0
LINE
  8
0-0
  6
CONTINUOUS
 62
    7
 10
1185.649
 20
1016.684
 11
1185.649
 21
743.68401
  0
LINE
  8
0-0
  6
CONTINUOUS
 62
    7
 10
1185.649
 20
1016.684
 11
1232.6491
 21
1016.684
  0
LINE
  8
0-0
  6
CONTINUOUS
 62
    7
 10
1232.6491
 20
1077.184
 11
1232.6491
 21
1016.684
  0
LINE
  8
0-0
  6
CONTINUOUS
 62
    7
 10
1232.6491
 20
1016.684
 11
1237.649
 21
1012.6829
  0
LINE
  8
0-0
  6
CONTINUOUS
 62
    7
 10
1185.649
 20
1016.684
 11
1214.6491
 21
1012.6829
  0
LINE
  8
0-0
  6
CONTINUOUS
 62
    7
 10
1214.6491
 20
1012.6829
 11
1206.6491
 21
1004.6829
  0
LINE
  8
0-0
  6
CONTINUOUS
 62
    7
 10
1206.6491
 20
1004.6829
 11
1206.6491
 21
773.68299
  0
LINE
  8
0-0
  6
CONTINUOUS
 62
    7
 10
1241.649
 20
1012.6829
 11
1214.6491
 21
1012.6829
  0
LINE
  8
0-0
  6
CONTINUOUS
 62
    7
 10
1208.1491
 20
273.07599
 11
1242.2679
 21
273.07599
  0
LINE
  8
0-0
  6
CONTINUOUS
 62
    7
 10
1245.6639
 20
273.07599
 11
1248.649
 21
273.07599
  0
LINE
  8
0-0
  6
CONTINUOUS
 62
    7
 10
1133.649
 20
287.07601
 11
1248.649
 21
287.07601
  0
LINE
  8
0-0
  6
CONTINUOUS
 62
    7
 10
1248.649
 20
287.07601
 11
1248.649
 21
273.07599
  0
LINE
  8
0-0
  6
CONTINUOUS
 62
    7
 10
1242.2679
 20
273.07599
 11
1248.649
 21
273.07599
  0
LINE
  8
0-0
  6
CONTINUOUS
 62
    7
 10
705.405
 20
1093.6839
 11
705.405
 21
743.68401
  0
LINE
  8
0-0
  6
CONTINUOUS
 62
    7
 10
555.40506
 20
1093.6839
 11
555.40506
 21
743.68401
  0
LINE
  8
0-0
  6
CONTINUOUS
 62
    7
 10
616.40504
 20
1082.684
 11
655.40601
 21
1082.684
  0
LINE
  8
0-0
  6
CONTINUOUS
 62
    7
 10
616.40504
 20
1093.6839
 11
616.40504
 21
1082.684
  0
LINE
  8
0-0
  6
CONTINUOUS
 62
    7
 10
655.40601
 20
1093.6839
 11
655.40601
 21
1082.684
  0
LINE
  8
0-0
  6
CONTINUOUS
 62
    7
 10
607.40503
 20
1073.683
 11
607.40503
 21
1068.942
  0
LINE
  8
0-0
  6
CONTINUOUS
 62
    7
 10
590.40505
 20
1082.1839
 11
590.40505
 21
1068.942
  0
LINE
  8
0-0
  6
CONTINUOUS
 62
    7
 10
607.40503
 20
1082.1839
 11
607.40503
 21
1073.683
  0
LINE
  8
0-0
  6
CONTINUOUS
 62
    7
 10
616.40504
 20
1073.683
 11
698.40505
 21
1073.683
  0
LINE
  8
0-0
  6
CONTINUOUS
 62
    7
 10
616.40504
 20
1073.683
 11
615.90503
 21
1073.683
  0
LINE
  8
0-0
  6
CONTINUOUS
 62
    7
 10
555.40506
 20
1012.684
 11
564.40506
 21
1012.684
  0
LINE
  8
0-0
  6
CONTINUOUS
 62
    7
 10
663.40599
 20
1073.683
 11
663.40599
 21
773.68299
  0
LINE
  8
0-0
  6
CONTINUOUS
 62
    7
 10
651.40602
 20
1068.6829
 11
663.40599
 21
1073.683
  0
LINE
  8
0-0
  6
CONTINUOUS
 62
    7
 10
615.81403
 20
1068.6829
 11
651.40602
 21
1068.6829
  0
LINE
  8
0-0
  6
CONTINUOUS
 62
    7
 10
705.405
 20
299.07601
 11
705.405
 21
262.07599
  0
LINE
  8
0-0
  6
CONTINUOUS
 62
    7
 10
665.40604
 20
299.07601
 11
705.405
 21
299.07601
  0
LINE
  8
0-0
  6
CONTINUOUS
 62
    7
 10
586.40506
 20
282.07599
 11
642.40602
 21
282.07599
  0
LINE
  8
0-0
  6
CONTINUOUS
 62
    7
 10
663.40599
 20
287.07601
 11
705.405
 21
287.07601
  0
LINE
  8
0-0
  6
CONTINUOUS
 62
    7
 10
665.40604
 20
299.07601
 11
663.40599
 21
287.07601
  0
LINE
  8
0-0
  6
CONTINUOUS
 62
    7
 10
663.40599
 20
478.378
 11
705.405
 21
478.378
  0
LINE
  8
0-0
  6
CONTINUOUS
 62
    7
 10
690.40501
 20
464.378
 11
695.40503
 21
464.378
  0
LINE
  8
0-0
  6
CONTINUOUS
 62
    7
 10
670.406
 20
466.378
 11
690.40501
 21
466.378
  0
LINE
  8
0-0
  6
CONTINUOUS
 62
    7
 10
695.40503
 20
466.378
 11
705.405
 21
466.378
  0
LINE
  8
0-0
  6
CONTINUOUS
 62
    7
 10
690.40501
 20
466.378
 11
690.40501
 21
464.378
  0
LINE
  8
0-0
  6
CONTINUOUS
 62
    7
 10
695.40503
 20
466.378
 11
695.40503
 21
464.378
  0
LINE
  8
0-0
  6
CONTINUOUS
 62
    7
 10
705.405
 20
478.378
 11
705.405
 21
466.378
  0
LINE
  8
ADD_LINE
  6
DASHED1
 62
    3
 10
705.405
 20
478.378
 11
705.405
 21
492.49401
  0
LINE
  8
ADD_LINE
  6
DASHED1
 62
    3
 10
705.405
 20
478.378
 11
696.248
 21
478.378
  0
LINE
  8
ADD_LINE
  6
DASHED1
 62
    3
 10
705.405
 20
478.378
 11
717.63806
 21
478.378
  0
LINE
  8
ADD_LINE
  6
DASHED1
 62
    3
 10
705.405
 20
478.378
 11
705.405
 21
467.22901
  0
LINE
  8
0-0
  6
CONTINUOUS
 62
    7
 10
594.40504
 20
262.07599
 11
705.405
 21
262.07599
  0
LINE
  8
0-0
  6
CONTINUOUS
 62
    7
 10
670.406
 20
466.378
 11
661.63395
 21
455.41502
  0
LINE
  8
0-0
  6
CONTINUOUS
 62
    7
 10
555.40506
 20
1093.6839
 11
705.405
 21
1093.6839
  0
LINE
  8
0-0
  6
CONTINUOUS
 62
    7
 10
555.40506
 20
743.68401
 11
705.405
 21
743.68401
  0
LINE
  8
0-0
  6
CONTINUOUS
 62
    7
 10
555.40506
 20
1093.6839
 11
555.40506
 21
743.68401
  0
LINE
  8
0-0
  6
CONTINUOUS
 62
    7
 10
569.40508
 20
1077.184
 11
590.40505
 21
1077.184
  0
LINE
  8
0-0
  6
CONTINUOUS
 62
    7
 10
564.40506
 20
1082.1839
 11
569.40508
 21
1077.184
  0
LINE
  8
0-0
  6
CONTINUOUS
 62
    7
 10
588.40605
 20
1012.684
 11
588.40605
 21
743.68401
  0
LINE
  8
0-0
  6
CONTINUOUS
 62
    7
 10
588.40605
 20
1012.684
 11
588.40605
 21
1015.684
  0
LINE
  8
0-0
  6
CONTINUOUS
 62
    7
 10
564.40506
 20
1082.1839
 11
564.40506
 21
743.68401
  0
LINE
  8
0-0
  6
CONTINUOUS
 62
    7
 10
564.40506
 20
1082.1839
 11
607.40503
 21
1082.1839
  0
LINE
  8
0-0
  6
CONTINUOUS
 62
    7
 10
569.40508
 20
1015.684
 11
588.40605
 21
1015.684
  0
LINE
  8
0-0
  6
CONTINUOUS
 62
    7
 10
569.40508
 20
1077.184
 11
569.40508
 21
1015.684
  0
LINE
  8
0-0
  6
CONTINUOUS
 62
    7
 10
564.40506
 20
1012.684
 11
588.40605
 21
1015.684
  0
LINE
  8
0-0
  6
CONTINUOUS
 62
    7
 10
569.40508
 20
1015.684
 11
564.40506
 21
1012.684
  0
LINE
  8
0-0
  6
CONTINUOUS
 62
    7
 10
698.40505
 20
1073.683
 11
698.40505
 21
1015.684
  0
LINE
  8
0-0
  6
CONTINUOUS
 62
    7
 10
651.40602
 20
1015.684
 11
642.40602
 21
1010.684
  0
LINE
  8
0-0
  6
CONTINUOUS
 62
    7
 10
642.40602
 20
1010.684
 11
705.405
 21
1010.684
  0
LINE
  8
0-0
  6
CONTINUOUS
 62
    7
 10
651.40602
 20
1068.6829
 11
651.40602
 21
1015.684
  0
LINE
  8
0-0
  6
CONTINUOUS
 62
    7
 10
651.40602
 20
1015.684
 11
705.405
 21
1015.684
  0
LINE
  8
0-0
  6
CONTINUOUS
 62
    7
 10
642.40602
 20
1010.684
 11
642.40602
 21
743.68401
  0
LINE
  8
0-0
  6
CONTINUOUS
 62
    7
 10
555.40506
 20
273.07599
 11
566.90501
 21
273.07599
  0
LINE
  8
0-0
  6
CONTINUOUS
 62
    7
 10
555.40506
 20
287.07601
 11
642.40602
 21
287.07601
  0
LINE
  8
0-0
  6
CONTINUOUS
 62
    7
 10
555.40506
 20
287.07601
 11
555.40506
 21
273.07599
  0
LINE
  8
0-1
  6
CONTINUOUS
 62
    7
 10
352.70302
 20
1093.6839
 11
352.70302
 21
743.68401
  0
LINE
  8
0-1
  6
CONTINUOUS
 62
    7
 10
490.54099
 20
1093.6839
 11
352.70302
 21
1093.6839
  0
LINE
  8
0-1
  6
CONTINUOUS
 62
    7
 10
490.54099
 20
743.68401
 11
352.70302
 21
743.68401
  0
LINE
  8
0-1
  6
CONTINUOUS
 62
    7
 10
920.27006
 20
1093.6839
 11
920.27006
 21
768.68403
  0
LINE
  8
0-1
  6
CONTINUOUS
 62
    7
 10
1001.351
 20
1093.6839
 11
920.27006
 21
1093.6839
  0
LINE
  8
0-1
  6
CONTINUOUS
 62
    7
 10
1001.351
 20
768.68403
 11
920.27006
 21
768.68403
  0
LINE
  8
0-1
  6
CONTINUOUS
 62
    7
 10
920.27006
 20
768.68403
 11
920.27006
 21
743.68401
  0
LINE
  8
0-1
  6
CONTINUOUS
 62
    7
 10
1001.351
 20
743.68401
 11
920.27006
 21
743.68401
  0
LINE
  8
0-1
  6
CONTINUOUS
 62
    7
 10
555.40506
 20
1292.3321
 11
705.405
 21
1292.3321
  0
LINE
  8
0-1
  6
CONTINUOUS
 62
    7
 10
555.40506
 20
1146.386
 11
555.40506
 21
1292.3321
  0
LINE
  8
0-1
  6
CONTINUOUS
 62
    7
 10
705.405
 20
1146.386
 11
705.405
 21
1292.3321
  0
LINE
  8
0-1
  6
CONTINUOUS
 62
    7
 10
1063.649
 20
1292.3321
 11
1248.649
 21
1292.3321
  0
LINE
  8
0-1
  6
CONTINUOUS
 62
    7
 10
1063.649
 20
1146.386
 11
1063.649
 21
1292.3321
  0
LINE
  8
0-1
  6
CONTINUOUS
 62
    7
 10
1248.649
 20
1146.386
 11
1248.649
 21
1292.3321
  0
LINE
  8
0-0
  6
CONTINUOUS
 62
    7
 10
1206.6491
 20
478.378
 11
1248.649
 21
478.378
  0
LINE
  8
0-0
  6
CONTINUOUS
 62
    7
 10
1248.649
 20
478.378
 11
1248.649
 21
466.378
  0
LINE
  8
ADD_LINE
  6
DASHED1
 62
    3
 10
1248.649
 20
478.378
 11
1248.649
 21
492.49401
  0
LINE
  8
ADD_LINE
  6
DASHED1
 62
    3
 10
1248.649
 20
478.378
 11
1239.4909
 21
478.378
  0
LINE
  8
ADD_LINE
  6
DASHED1
 62
    3
 10
1248.649
 20
478.378
 11
1260.882
 21
478.378
  0
LINE
  8
ADD_LINE
  6
DASHED1
 62
    3
 10
1248.649
 20
478.378
 11
1248.649
 21
467.22901
  0
LINE
  8
0-0
  6
CONTINUOUS
 62
    7
 10
1213.649
 20
466.378
 11
1204.878
 21
455.41502
  0
LINE
  8
0-0
  6
CONTINUOUS
 62
    7
 10
1187.858
 20
451.37798
 11
1197.739
 21
451.37798
  0
LINE
  8
0-0
  6
CONTINUOUS
 62
    7
 10
1120.7099
 20
451.37798
 11
1187.858
 21
451.37798
  0
LINE
  8
0-0
  6
CONTINUOUS
 62
    7
 10
1131.649
 20
466.378
 11
1187.858
 21
466.378
  0
LINE
  8
0-0
  6
CONTINUOUS
 62
    7
 10
1213.649
 20
466.378
 11
1248.649
 21
466.378
  0
LINE
  8
0-0
  6
CONTINUOUS
 62
    7
 10
555.40506
 20
478.378
 11
564.40599
 21
478.378
  0
LINE
  8
ADD_LINE
  6
DASHED1
 62
    3
 10
555.40506
 20
478.378
 11
546.24799
 21
478.378
  0
LINE
  8
ADD_LINE
  6
DASHED1
 62
    3
 10
555.40506
 20
478.378
 11
567.63805
 21
478.378
  0
LINE
  8
0-0
  6
CONTINUOUS
 62
    7
 10
555.40506
 20
478.378
 11
555.40506
 21
462.37801
  0
LINE
  8
0-0
  6
CONTINUOUS
 62
    7
 10
588.40506
 20
466.378
 11
644.61504
 21
466.378
  0
LINE
  8
0-0
  6
CONTINUOUS
 62
    7
 10
555.40506
 20
462.37801
 11
568.40505
 21
462.37801
  0
LINE
  8
0-0
  6
CONTINUOUS
 62
    7
 10
555.40506
 20
466.378
 11
555.40506
 21
462.37801
  0
LINE
  8
0-0
  6
CONTINUOUS
 62
    7
 10
555.40506
 20
478.378
 11
555.40506
 21
462.37801
  0
LINE
  8
0-0
  6
CONTINUOUS
 62
    7
 10
583.97805
 20
451.37798
 11
654.495
 21
451.37798
  0
LINE
  8
0-0
  6
CONTINUOUS
 62
    7
 10
568.40505
 20
462.37801
 11
577.47106
 21
454.06802
  0
LINE
  8
ADD_LINE
  6
DASHED1
 62
    3
 10
555.40506
 20
478.378
 11
555.40506
 21
481.61401
  0
LINE
  8
ADD_LINE
  6
DASHED1
 62
    3
 10
555.40506
 20
481.61401
 11
555.40506
 21
492.49401
  0
LINE
  8
0-0
  6
CONTINUOUS
 62
    7
 10
555.40506
 20
462.37801
 11
555.40506
 21
478.378
  0
LINE
  8
0-2
  6
CONTINUOUS
 62
    7
 10
635.90503
 20
1093.6839
 11
635.90503
 21
1082.684
  0
LINE
  8
0-2
  6
CONTINUOUS
 62
    7
 10
1125.1491
 20
1093.6839
 11
1125.1491
 21
1081.6839
  0
LINE
  8
0-0
  6
CONTINUOUS
 62
    7
 10
1142.649
 20
1093.6839
 11
1142.649
 21
1081.6839
  0
LINE
  8
0-0
  6
CONTINUOUS
 62
    7
 10
1107.649
 20
1081.6839
 11
1142.649
 21
1081.6839
  0
LINE
  8
0-0
  6
CONTINUOUS
 62
    7
 10
1107.649
 20
1093.6839
 11
1107.649
 21
1081.6839
  0
ARC
  8
0-0
  6
CONTINUOUS
 62
    7
 10
1143.6491
 20
1080.6839
 40
8
 50
270
 51
0
  0
CIRCLE
  8
0-0
  6
CONTINUOUS
 62
    7
 10
1197.6491
 20
1072.183
 40
2.9999999
  0
ARC
  8
0-0
  6
CONTINUOUS
 62
    7
 10
1197.6491
 20
1070.9079
 40
8.7240007
 50
193.0218
 51
346.97819
  0
ARC
  8
0-0
  6
CONTINUOUS
 62
    7
 10
1143.6491
 20
1080.6839
 40
12.999999
 50
270
 51
344.3813
  0
ARC
  8
0-0
  6
CONTINUOUS
 62
    7
 10
1181.843
 20
298.965
 40
36.908999
 50
268.14575
 51
315.45707
  0
ARC
  8
0-0
  6
CONTINUOUS
 62
    7
 10
1123.431
 20
309.42403
 40
27.359001
 50
234.76937
 51
268.36083
  0
ARC
  8
0-0
  6
CONTINUOUS
 62
    7
 10
1105.743
 20
294.88902
 40
4.187
 50
39.753768
 51
91.285842
  0
ARC
  8
0-0
  6
CONTINUOUS
 62
    7
 10
1132.986
 20
319.80599
 40
32.737001
 50
222.79051
 51
271.16014
  0
ARC
  8
0-0
  6
CONTINUOUS
 62
    7
 10
1131.607
 20
496.29505
 40
29.916999
 50
216.79034
 51
270.07936
  0
ARC
  8
0-0
  6
CONTINUOUS
 62
    7
 10
1452.514
 20
763.64399
 40
6.9999999
 50
180
 51
235.54061
  0
CIRCLE
  8
ADD_LINE
  6
DASHED1
 62
    3
 10
1098.649
 20
478.378
 40
2.9999999
  0
ARC
  8
0-0
  6
CONTINUOUS
 62
    7
 10
1206.42
 20
253.29299
 40
33.826003
 50
87.07022
 51
87.070236
  0
ARC
  8
0-0
  6
CONTINUOUS
 62
    7
 10
1109.813
 20
433.68798
 40
20.919
 50
58.368225
 51
122.257
  0
ARC
  8
0-0
  6
CONTINUOUS
 62
    7
 10
1160.045
 20
776.06207
 40
46.664001
 50
316.06365
 51
357.07847
  0
ARC
  8
0-0
  6
CONTINUOUS
 62
    7
 10
1134.3211
 20
902.48601
 40
125.203
 50
54.71202
 51
65.79779
  0
CIRCLE
  8
0-0
  6
CONTINUOUS
 62
    7
 10
598.90504
 20
1072.183
 40
2.9999999
  0
ARC
  8
0-0
  6
CONTINUOUS
 62
    7
 10
598.90504
 20
1070.9079
 40
8.7240007
 50
193.0218
 51
346.97819
  0
ARC
  8
0-0
  6
CONTINUOUS
 62
    7
 10
616.27198
 20
1082.5511
 40
8.8749999
 50
182.37057
 51
267.6294
  0
ARC
  8
0-0
  6
CONTINUOUS
 62
    7
 10
616.80199
 20
776.06207
 40
46.664001
 50
316.06365
 51
357.07847
  0
ARC
  8
0-0
  6
CONTINUOUS
 62
    7
 10
616.27198
 20
1082.5511
 40
13.875
 50
230.27651
 51
268.10496
  0
ARC
  8
0-0
  6
CONTINUOUS
 62
    7
 10
593.21102
 20
298.965
 40
36.908999
 50
224.5429
 51
271.85423
  0
ARC
  8
0-0
  6
CONTINUOUS
 62
    7
 10
593.21102
 20
298.965
 40
36.908999
 50
224.5429
 51
271.85423
  0
ARC
  8
0-0
  6
CONTINUOUS
 62
    7
 10
642.13507
 20
329.81298
 40
47.737999
 50
270.32504
 51
296.45991
  0
ARC
  8
0-0
  6
CONTINUOUS
 62
    7
 10
665.69802
 20
295.02502
 40
4.0609999
 50
94.126281
 51
144.88385
  0
ARC
  8
0-0
  6
CONTINUOUS
 62
    7
 10
643.21502
 20
310.03397
 40
22.973
 50
267.98094
 51
326.51898
  0
CIRCLE
  8
ADD_LINE
  6
DASHED1
 62
    3
 10
705.405
 20
478.378
 40
2.9999999
  0
ARC
  8
0-0
  6
CONTINUOUS
 62
    7
 10
643.51003
 20
488.82002
 40
22.468998
 50
272.81814
 51
332.30841
  0
ARC
  8
0-0
  6
CONTINUOUS
 62
    7
 10
653.99901
 20
460.58899
 40
9.2240003
 50
273.08825
 51
325.87852
  0
CIRCLE
  8
ADD_LINE
  6
DASHED1
 62
    3
 10
1248.649
 20
478.378
 40
2.9999999
  0
ARC
  8
0-0
  6
CONTINUOUS
 62
    7
 10
1186.7539
 20
488.82002
 40
22.468998
 50
272.81814
 51
332.30841
  0
ARC
  8
0-0
  6
CONTINUOUS
 62
    7
 10
1197.2419
 20
460.58899
 40
9.2240003
 50
273.08825
 51
325.87852
  0
ARC
  8
0-0
  6
CONTINUOUS
 62
    7
 10
1182.154
 20
347.92997
 40
66.174002
 50
275.63249
 51
293.13047
  0
ARC
  8
0-0
  6
CONTINUOUS
 62
    7
 10
592.403
 20
329.552
 40
47.853998
 50
242.57688
 51
262.79992
  0
ARC
  8
0-0
  6
CONTINUOUS
 62
    7
 10
588.36404
 20
496.29505
 40
29.916999
 50
216.79034
 51
270.07936
  0
CIRCLE
  8
ADD_LINE
  6
DASHED1
 62
    3
 10
555.40506
 20
478.378
 40
2.9999999
  0
ARC
  8
0-0
  6
CONTINUOUS
 62
    7
 10
584.66302
 20
462.25101
 40
10.893999
 50
228.68467
 51
266.39274
  0
TEXT
  8
0-0
 10
1431.014
 20
1294.8321
 40
10
 41
1
 50
0
  1
35
  0
TEXT
  8
0-0
 10
1442.5139
 20
595.65696
 40
10
 41
1
 50
0
  1
20
  0
TEXT
  8
0-0
 10
1644.9321
 20
911.18407
 40
10
 41
1
 50
90
  1
350
  0
TEXT
  8
0-1
 10
350.20302
 20
909.30904
 40
10
 41
1
 50
90
  1
350
  0
TEXT
  8
0-1
 10
917.76999
 20
921.80902
 40
10
 41
1
 50
90
  1
325
  0
TEXT
  8
0-1
 10
917.76999
 20
749.93403
 40
10
 41
1
 50
90
  1
25
  0
TEXT
  8
0-1
 10
621.03006
 20
1294.8321
 40
10
 41
1
 50
0
  1
150
  0
TEXT
  8
0-1
 10
1146.7741
 20
1294.8321
 40
10
 41
1
 50
0
  1
185
  0
TEXT
  8
0-2
 10
575.67601
 20
1337.838
 40
10
 41
1
 50
0
  1
左半瓦
  0
TEXT
  8
0-2
 10
1110.8111
 20
1337.838
 40
10
 41
1
 50
0
  1
右半瓦
  0
POINT
  8
0-0
 62
    7
 10
1418.514
 20
1292.3321
  0
POINT
  8
0-0
 62
    7
 10
1453.514
 20
1292.3321
  0
POINT
  8
0-0
 62
    7
 10
1437.514
 20
593.15702
  0
POINT
  8
0-0
 62
    7
 10
1457.5141
 20
593.15702
  0
POINT
  8
0-0
 62
    7
 10
1647.432
 20
1093.6839
  0
POINT
  8
0-0
 62
    7
 10
1647.432
 20
743.68401
  0
POINT
  8
0-1
 62
    7
 10
352.70302
 20
1093.6839
  0
POINT
  8
0-1
 62
    7
 10
352.70302
 20
743.68401
  0
POINT
  8
0-1
 62
    7
 10
920.27006
 20
1093.6839
  0
POINT
  8
0-1
 62
    7
 10
920.27006
 20
768.68403
  0
POINT
  8
0-1
 62
    7
 10
920.27006
 20
743.68401
  0
POINT
  8
0-1
 62
    7
 10
555.40506
 20
1292.3321
  0
POINT
  8
0-1
 62
    7
 10
705.405
 20
1292.3321
  0
POINT
  8
0-1
 62
    7
 10
1063.649
 20
1292.3321
  0
POINT
  8
0-1
 62
    7
 10
1248.649
 20
1292.3321
  0
ENDSEC
  0
EOF
