0
SECTION
2
HEADER
  9
$EXTMIN
10
0
20
0
30
0
  9
$EXTMAX
10
1305.719
20
1251.149
30
0
  9
$LTSCALE
40
5.000
  9
$DIMSCALE
40
5.000
  9
$PDMODE
70
0
  9
$PDSIZE
40
40
0
ENDSEC
0
SECTION
2
TABLES
0
TABLE
2
LTYPE
70
9
0
LTYPE
5
1f4
2
CONTINUOUS
70
0
3
実線
72
65
73
0
40
0.0
0
LTYPE
5
1f5
2
DOT
70
0
3
--  --  --  --  --  --  --  --     
72
65
73
2
40
5.000
49
1.000
49
-4.000
0
LTYPE
5
1f6
2
DASHED
70
0
3
----    ----    ----    ----    
72
65
73
2
40
5.000
49
2.000
49
-3.000
0
LTYPE
5
1f7
2
DASHED2
70
0
3
------  ------  ------  ------ 
72
65
73
2
40
10.000
49
4.000
49
-6.000
0
LTYPE
5
1f8
2
CENTER
70
0
3
----- - ----- - ----- - ----- - 
72
65
73
4
40
9.000
49
6.000
49
-1.000
49
1.000
49
-1.000
0
LTYPE
5
1f9
2
CENTER2
70
0
3
----------  --  ----------  -- 
72
65
73
4
40
18.000
49
12.000
49
-2.000
49
2.000
49
-2.000
0
LTYPE
5
1fa
2
PHANTOM
70
0
3
--- - - --- - - --- - - --- - -
72
65
73
6
40
10.000
49
5.000
49
-1.000
49
1.000
49
-1.000
49
1.000
49
-1.000
0
LTYPE
5
1fb
2
PHANTOM2
70
0
3
--------  -  -  --------  -  -
72
65
73
6
40
16.000
49
6.000
49
-2.000
49
2.000
49
-2.000
49
2.000
49
-2.000
0
LTYPE
5
1fc
2
HIDDEN
70
0
3
-   -   -   -   -   -   -   -   
72
65
73
2
40
2.500
49
0.500
49
-2.000
0
ENDTAB
0
TABLE
2
STYLE
70
1
0
STYLE
5
1fd
100
AcDbSymbolTableRecord
100
AcDbTextStyleTableRecord
2
STANDARD
70
0
40
0.0
41
1.0
50
0.0
71
0
42
0.0
3
txt.shx
4
extfont.shx
0
STYLE
5
1fe
100
AcDbSymbolTableRecord
100
AcDbTextStyleTableRecord
2
TATEGAKI
70
4
40
0.0
41
1.0
50
0.0
71
0
42
0.0
3
txt.shx
4
extfont.shx
0
STYLE
5
1ff
100
AcDbSymbolTableRecord
100
AcDbTextStyleTableRecord
2
MT
70
0
40
0.0
41
1.0
50
0.0
71
0
42
0.0
3
MS Mincho
4

0
STYLE
5
200
100
AcDbSymbolTableRecord
100
AcDbTextStyleTableRecord
2
TMT
70
4
40
0.0
41
1.0
50
0.0
71
0
42
0.0
3
@MS Mincho
4

0
ENDTAB
0
TABLE
2
LAYER
5
3e8
100
AcDbSymbolTable
70
10
0
LAYER
5
3e9
100
AcDbSymbolTableRecord
100
AcDbLayerTableRecord
2
0
70
64
62
  7
  6
CONTINUOUS
0
LAYER
5
3ea
100
AcDbSymbolTableRecord
100
AcDbLayerTableRecord
2
0-0
70
64
62
  7
  6
CONTINUOUS
0
LAYER
5
3eb
100
AcDbSymbolTableRecord
100
AcDbLayerTableRecord
2
0-1
70
64
62
  7
  6
CONTINUOUS
0
LAYER
5
3ec
100
AcDbSymbolTableRecord
100
AcDbLayerTableRecord
2
0-2
70
64
62
  7
  6
CONTINUOUS
0
LAYER
5
3ed
100
AcDbSymbolTableRecord
100
AcDbLayerTableRecord
2
ADD_LINE
70
64
62
  -7
  6
CONTINUOUS
0
ENDTAB
0
ENDSEC
0
SECTION
2
ENTITIES
0
LINE
5
3ee
8
0-0
6
CONTINUOUS
62
  7
10
985.939
20
1078.378
30
0.0
11
1098.649
21
1078.378
31
0.0
0
LINE
5
3ef
8
0-0
6
CONTINUOUS
62
  7
10
1098.649
20
1078.378
30
0.0
11
1098.649
21
768.378
31
0.0
0
LINE
5
3f0
8
0-0
6
CONTINUOUS
62
  7
10
1089.649
20
1070.378
30
0.0
11
1089.649
21
1078.378
31
0.0
0
LINE
5
3f1
8
0-0
6
CONTINUOUS
62
  7
10
1089.763
20
838.582
30
0.0
11
1089.906
21
836.038
31
0.0
0
LINE
5
3f2
8
0-0
6
CONTINUOUS
62
  7
10
1089.906
20
836.038
30
0.0
11
1090.064
21
833.202
31
0.0
0
LINE
5
3f3
8
0-0
6
CONTINUOUS
62
  7
10
1090.064
20
833.202
30
0.0
11
1090.233
21
830.177
31
0.0
0
LINE
5
3f4
8
0-0
6
CONTINUOUS
62
  7
10
1090.233
20
830.177
30
0.0
11
1090.413
21
827.052
31
0.0
0
LINE
5
3f5
8
0-0
6
CONTINUOUS
62
  7
10
1090.413
20
827.052
30
0.0
11
1090.601
21
823.898
31
0.0
0
LINE
5
3f6
8
0-0
6
CONTINUOUS
62
  7
10
1090.601
20
823.898
30
0.0
11
1090.797
21
820.773
31
0.0
0
LINE
5
3f7
8
0-0
6
CONTINUOUS
62
  7
10
1090.797
20
820.773
30
0.0
11
1090.999
21
817.721
31
0.0
0
LINE
5
3f8
8
0-0
6
CONTINUOUS
62
  7
10
1090.999
20
817.721
30
0.0
11
1091.208
21
814.779
31
0.0
0
LINE
5
3f9
8
0-0
6
CONTINUOUS
62
  7
10
1091.208
20
814.779
30
0.0
11
1091.422
21
811.971
31
0.0
0
LINE
5
3fa
8
0-0
6
CONTINUOUS
62
  7
10
1091.422
20
811.971
30
0.0
11
1091.640
21
809.316
31
0.0
0
LINE
5
3fb
8
0-0
6
CONTINUOUS
62
  7
10
1091.640
20
809.316
30
0.0
11
1091.864
21
806.823
31
0.0
0
LINE
5
3fc
8
0-0
6
CONTINUOUS
62
  7
10
1091.864
20
806.823
30
0.0
11
1092.092
21
804.499
31
0.0
0
LINE
5
3fd
8
0-0
6
CONTINUOUS
62
  7
10
1092.092
20
804.499
30
0.0
11
1092.324
21
802.345
31
0.0
0
LINE
5
3fe
8
0-0
6
CONTINUOUS
62
  7
10
1092.324
20
802.345
30
0.0
11
1092.561
21
800.356
31
0.0
0
LINE
5
3ff
8
0-0
6
CONTINUOUS
62
  7
10
1092.561
20
800.356
30
0.0
11
1092.803
21
798.529
31
0.0
0
LINE
5
400
8
0-0
6
CONTINUOUS
62
  7
10
1092.803
20
798.529
30
0.0
11
1093.049
21
796.854
31
0.0
0
LINE
5
401
8
0-0
6
CONTINUOUS
62
  7
10
1093.049
20
796.854
30
0.0
11
1093.300
21
795.323
31
0.0
0
LINE
5
402
8
0-0
6
CONTINUOUS
62
  7
10
1093.300
20
795.323
30
0.0
11
1093.557
21
793.925
31
0.0
0
LINE
5
403
8
0-0
6
CONTINUOUS
62
  7
10
1093.557
20
793.925
30
0.0
11
1093.818
21
792.649
31
0.0
0
LINE
5
404
8
0-0
6
CONTINUOUS
62
  7
10
1093.818
20
792.649
30
0.0
11
1094.086
21
791.485
31
0.0
0
LINE
5
405
8
0-0
6
CONTINUOUS
62
  7
10
1094.086
20
791.485
30
0.0
11
1094.358
21
790.421
31
0.0
0
LINE
5
406
8
0-0
6
CONTINUOUS
62
  7
10
1094.358
20
790.421
30
0.0
11
1094.637
21
789.448
31
0.0
0
LINE
5
407
8
0-0
6
CONTINUOUS
62
  7
10
1094.637
20
789.448
30
0.0
11
1094.922
21
788.557
31
0.0
0
LINE
5
408
8
0-0
6
CONTINUOUS
62
  7
10
1094.922
20
788.557
30
0.0
11
1095.213
21
787.738
31
0.0
0
LINE
5
409
8
0-0
6
CONTINUOUS
62
  7
10
1095.213
20
787.738
30
0.0
11
1095.510
21
786.984
31
0.0
0
LINE
5
40a
8
0-0
6
CONTINUOUS
62
  7
10
1095.510
20
786.984
30
0.0
11
1095.815
21
786.289
31
0.0
0
LINE
5
40b
8
0-0
6
CONTINUOUS
62
  7
10
1095.815
20
786.289
30
0.0
11
1096.128
21
785.647
31
0.0
0
LINE
5
40c
8
0-0
6
CONTINUOUS
62
  7
10
1096.128
20
785.647
30
0.0
11
1096.449
21
785.054
31
0.0
0
LINE
5
40d
8
0-0
6
CONTINUOUS
62
  7
10
1096.449
20
785.054
30
0.0
11
1096.780
21
784.507
31
0.0
0
LINE
5
40e
8
0-0
6
CONTINUOUS
62
  7
10
1096.780
20
784.507
30
0.0
11
1097.122
21
784.001
31
0.0
0
LINE
5
40f
8
0-0
6
CONTINUOUS
62
  7
10
1097.122
20
784.001
30
0.0
11
1097.477
21
783.537
31
0.0
0
LINE
5
410
8
0-0
6
CONTINUOUS
62
  7
10
1097.477
20
783.537
30
0.0
11
1097.848
21
783.112
31
0.0
0
LINE
5
411
8
0-0
6
CONTINUOUS
62
  7
10
1097.848
20
783.112
30
0.0
11
1098.237
21
782.726
31
0.0
0
LINE
5
412
8
0-0
6
CONTINUOUS
62
  7
10
1098.237
20
782.726
30
0.0
11
1098.649
21
782.378
31
0.0
0
LINE
5
413
8
0-0
6
CONTINUOUS
62
  7
10
1089.763
20
838.582
30
0.0
11
1089.744
21
839.142
31
0.0
0
LINE
5
414
8
0-0
6
CONTINUOUS
62
  7
10
1089.744
20
839.142
30
0.0
11
1089.727
21
839.668
31
0.0
0
LINE
5
415
8
0-0
6
CONTINUOUS
62
  7
10
1089.727
20
839.668
30
0.0
11
1089.712
21
840.159
31
0.0
0
LINE
5
416
8
0-0
6
CONTINUOUS
62
  7
10
1089.712
20
840.159
30
0.0
11
1089.698
21
840.617
31
0.0
0
LINE
5
417
8
0-0
6
CONTINUOUS
62
  7
10
1089.698
20
840.617
30
0.0
11
1089.685
21
841.041
31
0.0
0
LINE
5
418
8
0-0
6
CONTINUOUS
62
  7
10
1089.685
20
841.041
30
0.0
11
1089.674
21
841.431
31
0.0
0
LINE
5
419
8
0-0
6
CONTINUOUS
62
  7
10
1089.674
20
841.431
30
0.0
11
1089.664
21
841.786
31
0.0
0
LINE
5
41a
8
0-0
6
CONTINUOUS
62
  7
10
1089.664
20
841.786
30
0.0
11
1089.656
21
842.108
31
0.0
0
LINE
5
41b
8
0-0
6
CONTINUOUS
62
  7
10
1089.656
20
842.108
30
0.0
11
1089.649
21
842.396
31
0.0
0
LINE
5
41c
8
0-0
6
CONTINUOUS
62
  7
10
1089.649
20
1063.379
30
0.0
11
1089.649
21
842.396
31
0.0
0
LINE
5
41d
8
0-0
6
CONTINUOUS
62
  7
10
960.649
20
798.378
30
0.0
11
960.752
21
797.157
31
0.0
0
LINE
5
41e
8
0-0
6
CONTINUOUS
62
  7
10
960.752
20
797.157
30
0.0
11
960.852
21
796.049
31
0.0
0
LINE
5
41f
8
0-0
6
CONTINUOUS
62
  7
10
960.852
20
796.049
30
0.0
11
960.955
21
795.027
31
0.0
0
LINE
5
420
8
0-0
6
CONTINUOUS
62
  7
10
960.955
20
795.027
30
0.0
11
961.064
21
794.067
31
0.0
0
LINE
5
421
8
0-0
6
CONTINUOUS
62
  7
10
961.064
20
794.067
30
0.0
11
961.182
21
793.152
31
0.0
0
LINE
5
422
8
0-0
6
CONTINUOUS
62
  7
10
961.182
20
793.152
30
0.0
11
961.314
21
792.266
31
0.0
0
LINE
5
423
8
0-0
6
CONTINUOUS
62
  7
10
961.314
20
792.266
30
0.0
11
961.462
21
791.397
31
0.0
0
LINE
5
424
8
0-0
6
CONTINUOUS
62
  7
10
961.462
20
791.397
30
0.0
11
961.628
21
790.535
31
0.0
0
LINE
5
425
8
0-0
6
CONTINUOUS
62
  7
10
961.628
20
790.535
30
0.0
11
961.816
21
789.673
31
0.0
0
LINE
5
426
8
0-0
6
CONTINUOUS
62
  7
10
961.816
20
789.673
30
0.0
11
962.027
21
788.806
31
0.0
0
LINE
5
427
8
0-0
6
CONTINUOUS
62
  7
10
962.027
20
788.806
30
0.0
11
962.262
21
787.931
31
0.0
0
LINE
5
428
8
0-0
6
CONTINUOUS
62
  7
10
962.262
20
787.931
30
0.0
11
962.523
21
787.045
31
0.0
0
LINE
5
429
8
0-0
6
CONTINUOUS
62
  7
10
962.523
20
787.045
30
0.0
11
962.812
21
786.148
31
0.0
0
LINE
5
42a
8
0-0
6
CONTINUOUS
62
  7
10
962.812
20
786.148
30
0.0
11
963.128
21
785.240
31
0.0
0
LINE
5
42b
8
0-0
6
CONTINUOUS
62
  7
10
963.128
20
785.240
30
0.0
11
963.471
21
784.324
31
0.0
0
LINE
5
42c
8
0-0
6
CONTINUOUS
62
  7
10
963.471
20
784.324
30
0.0
11
963.843
21
783.401
31
0.0
0
LINE
5
42d
8
0-0
6
CONTINUOUS
62
  7
10
963.843
20
783.401
30
0.0
11
964.241
21
782.475
31
0.0
0
LINE
5
42e
8
0-0
6
CONTINUOUS
62
  7
10
964.241
20
782.475
30
0.0
11
964.666
21
781.549
31
0.0
0
LINE
5
42f
8
0-0
6
CONTINUOUS
62
  7
10
964.666
20
781.549
30
0.0
11
965.116
21
780.628
31
0.0
0
LINE
5
430
8
0-0
6
CONTINUOUS
62
  7
10
965.116
20
780.628
30
0.0
11
965.590
21
779.716
31
0.0
0
LINE
5
431
8
0-0
6
CONTINUOUS
62
  7
10
965.590
20
779.716
30
0.0
11
966.085
21
778.817
31
0.0
0
LINE
5
432
8
0-0
6
CONTINUOUS
62
  7
10
966.085
20
778.817
30
0.0
11
966.602
21
777.936
31
0.0
0
LINE
5
433
8
0-0
6
CONTINUOUS
62
  7
10
966.602
20
777.936
30
0.0
11
967.137
21
777.077
31
0.0
0
LINE
5
434
8
0-0
6
CONTINUOUS
62
  7
10
967.137
20
777.077
30
0.0
11
967.689
21
776.245
31
0.0
0
LINE
5
435
8
0-0
6
CONTINUOUS
62
  7
10
967.689
20
776.245
30
0.0
11
968.257
21
775.443
31
0.0
0
LINE
5
436
8
0-0
6
CONTINUOUS
62
  7
10
968.257
20
775.443
30
0.0
11
968.840
21
774.675
31
0.0
0
LINE
5
437
8
0-0
6
CONTINUOUS
62
  7
10
968.840
20
774.675
30
0.0
11
969.436
21
773.945
31
0.0
0
LINE
5
438
8
0-0
6
CONTINUOUS
62
  7
10
969.436
20
773.945
30
0.0
11
970.046
21
773.253
31
0.0
0
LINE
5
439
8
0-0
6
CONTINUOUS
62
  7
10
970.046
20
773.253
30
0.0
11
970.669
21
772.602
31
0.0
0
LINE
5
43a
8
0-0
6
CONTINUOUS
62
  7
10
970.669
20
772.602
30
0.0
11
971.306
21
771.992
31
0.0
0
LINE
5
43b
8
0-0
6
CONTINUOUS
62
  7
10
971.306
20
771.992
30
0.0
11
971.957
21
771.425
31
0.0
0
LINE
5
43c
8
0-0
6
CONTINUOUS
62
  7
10
971.957
20
771.425
30
0.0
11
972.625
21
770.900
31
0.0
0
LINE
5
43d
8
0-0
6
CONTINUOUS
62
  7
10
972.625
20
770.900
30
0.0
11
973.311
21
770.417
31
0.0
0
LINE
5
43e
8
0-0
6
CONTINUOUS
62
  7
10
973.311
20
770.417
30
0.0
11
974.018
21
769.974
31
0.0
0
LINE
5
43f
8
0-0
6
CONTINUOUS
62
  7
10
974.018
20
769.974
30
0.0
11
974.748
21
769.571
31
0.0
0
LINE
5
440
8
0-0
6
CONTINUOUS
62
  7
10
974.748
20
769.571
30
0.0
11
975.503
21
769.209
31
0.0
0
LINE
5
441
8
0-0
6
CONTINUOUS
62
  7
10
975.503
20
769.209
30
0.0
11
976.286
21
768.887
31
0.0
0
LINE
5
442
8
0-0
6
CONTINUOUS
62
  7
10
976.286
20
768.887
30
0.0
11
977.098
21
768.609
31
0.0
0
LINE
5
443
8
0-0
6
CONTINUOUS
62
  7
10
977.098
20
768.609
30
0.0
11
977.939
21
768.378
31
0.0
0
LINE
5
444
8
0-0
6
CONTINUOUS
62
  7
10
977.939
20
768.378
30
0.0
11
1098.649
21
768.378
31
0.0
0
LINE
5
445
8
0-0
6
CONTINUOUS
62
  7
10
984.584
20
1063.379
30
0.0
11
1089.649
21
1063.379
31
0.0
0
LINE
5
446
8
0-0
6
CONTINUOUS
62
  7
10
985.216
20
1070.378
30
0.0
11
1089.649
21
1070.378
31
0.0
0
LINE
5
447
8
0-0
6
CONTINUOUS
62
  7
10
985.939
20
1078.378
30
0.0
11
985.216
21
1070.378
31
0.0
0
LINE
5
448
8
0-0
6
CONTINUOUS
62
  7
10
984.584
20
1063.379
30
0.0
11
960.649
21
798.378
31
0.0
0
LINE
5
449
8
0-0
6
CONTINUOUS
62
  7
10
594.106
20
1078.378
30
0.0
11
566.106
21
768.378
31
0.0
0
LINE
5
44a
8
0-0
6
CONTINUOUS
62
  7
10
704.106
20
1078.378
30
0.0
11
704.106
21
1070.378
31
0.0
0
LINE
5
44b
8
0-0
6
CONTINUOUS
62
  7
10
581.828
20
842.396
30
0.0
11
581.511
21
840.249
31
0.0
0
LINE
5
44c
8
0-0
6
CONTINUOUS
62
  7
10
581.511
20
840.249
30
0.0
11
581.212
21
838.183
31
0.0
0
LINE
5
44d
8
0-0
6
CONTINUOUS
62
  7
10
581.212
20
838.183
30
0.0
11
580.929
21
836.187
31
0.0
0
LINE
5
44e
8
0-0
6
CONTINUOUS
62
  7
10
580.929
20
836.187
30
0.0
11
580.660
21
834.252
31
0.0
0
LINE
5
44f
8
0-0
6
CONTINUOUS
62
  7
10
580.660
20
834.252
30
0.0
11
580.403
21
832.370
31
0.0
0
LINE
5
450
8
0-0
6
CONTINUOUS
62
  7
10
580.403
20
832.370
30
0.0
11
580.156
21
830.535
31
0.0
0
LINE
5
451
8
0-0
6
CONTINUOUS
62
  7
10
580.156
20
830.535
30
0.0
11
579.915
21
828.740
31
0.0
0
LINE
5
452
8
0-0
6
CONTINUOUS
62
  7
10
579.915
20
828.740
30
0.0
11
579.679
21
826.982
31
0.0
0
LINE
5
453
8
0-0
6
CONTINUOUS
62
  7
10
579.679
20
826.982
30
0.0
11
579.446
21
825.257
31
0.0
0
LINE
5
454
8
0-0
6
CONTINUOUS
62
  7
10
579.446
20
825.257
30
0.0
11
579.215
21
823.561
31
0.0
0
LINE
5
455
8
0-0
6
CONTINUOUS
62
  7
10
579.215
20
823.561
30
0.0
11
578.982
21
821.893
31
0.0
0
LINE
5
456
8
0-0
6
CONTINUOUS
62
  7
10
578.982
20
821.893
30
0.0
11
578.748
21
820.249
31
0.0
0
LINE
5
457
8
0-0
6
CONTINUOUS
62
  7
10
578.748
20
820.249
30
0.0
11
578.511
21
818.630
31
0.0
0
LINE
5
458
8
0-0
6
CONTINUOUS
62
  7
10
578.511
20
818.630
30
0.0
11
578.270
21
817.033
31
0.0
0
LINE
5
459
8
0-0
6
CONTINUOUS
62
  7
10
578.270
20
817.033
30
0.0
11
578.024
21
815.458
31
0.0
0
LINE
5
45a
8
0-0
6
CONTINUOUS
62
  7
10
578.024
20
815.458
30
0.0
11
577.773
21
813.906
31
0.0
0
LINE
5
45b
8
0-0
6
CONTINUOUS
62
  7
10
577.773
20
813.906
30
0.0
11
577.516
21
812.376
31
0.0
0
LINE
5
45c
8
0-0
6
CONTINUOUS
62
  7
10
577.516
20
812.376
30
0.0
11
577.254
21
810.870
31
0.0
0
LINE
5
45d
8
0-0
6
CONTINUOUS
62
  7
10
577.254
20
810.870
30
0.0
11
576.986
21
809.389
31
0.0
0
LINE
5
45e
8
0-0
6
CONTINUOUS
62
  7
10
576.986
20
809.389
30
0.0
11
576.713
21
807.933
31
0.0
0
LINE
5
45f
8
0-0
6
CONTINUOUS
62
  7
10
576.713
20
807.933
30
0.0
11
576.435
21
806.506
31
0.0
0
LINE
5
460
8
0-0
6
CONTINUOUS
62
  7
10
576.435
20
806.506
30
0.0
11
576.151
21
805.108
31
0.0
0
LINE
5
461
8
0-0
6
CONTINUOUS
62
  7
10
576.151
20
805.108
30
0.0
11
575.863
21
803.743
31
0.0
0
LINE
5
462
8
0-0
6
CONTINUOUS
62
  7
10
575.863
20
803.743
30
0.0
11
575.570
21
802.412
31
0.0
0
LINE
5
463
8
0-0
6
CONTINUOUS
62
  7
10
575.570
20
802.412
30
0.0
11
575.273
21
801.118
31
0.0
0
LINE
5
464
8
0-0
6
CONTINUOUS
62
  7
10
575.273
20
801.118
30
0.0
11
574.972
21
799.862
31
0.0
0
LINE
5
465
8
0-0
6
CONTINUOUS
62
  7
10
574.972
20
799.862
30
0.0
11
574.667
21
798.648
31
0.0
0
LINE
5
466
8
0-0
6
CONTINUOUS
62
  7
10
574.667
20
798.648
30
0.0
11
574.357
21
797.475
31
0.0
0
LINE
5
467
8
0-0
6
CONTINUOUS
62
  7
10
574.357
20
797.475
30
0.0
11
574.044
21
796.346
31
0.0
0
LINE
5
468
8
0-0
6
CONTINUOUS
62
  7
10
574.044
20
796.346
30
0.0
11
573.725
21
795.261
31
0.0
0
LINE
5
469
8
0-0
6
CONTINUOUS
62
  7
10
573.725
20
795.261
30
0.0
11
573.399
21
794.219
31
0.0
0
LINE
5
46a
8
0-0
6
CONTINUOUS
62
  7
10
573.399
20
794.219
30
0.0
11
573.067
21
793.220
31
0.0
0
LINE
5
46b
8
0-0
6
CONTINUOUS
62
  7
10
573.067
20
793.220
30
0.0
11
572.725
21
792.260
31
0.0
0
LINE
5
46c
8
0-0
6
CONTINUOUS
62
  7
10
572.725
20
792.260
30
0.0
11
572.373
21
791.337
31
0.0
0
LINE
5
46d
8
0-0
6
CONTINUOUS
62
  7
10
572.373
20
791.337
30
0.0
11
572.007
21
790.446
31
0.0
0
LINE
5
46e
8
0-0
6
CONTINUOUS
62
  7
10
572.007
20
790.446
30
0.0
11
571.624
21
789.580
31
0.0
0
LINE
5
46f
8
0-0
6
CONTINUOUS
62
  7
10
571.624
20
789.580
30
0.0
11
571.220
21
788.733
31
0.0
0
LINE
5
470
8
0-0
6
CONTINUOUS
62
  7
10
571.220
20
788.733
30
0.0
11
570.792
21
787.895
31
0.0
0
LINE
5
471
8
0-0
6
CONTINUOUS
62
  7
10
570.792
20
787.895
30
0.0
11
570.335
21
787.056
31
0.0
0
LINE
5
472
8
0-0
6
CONTINUOUS
62
  7
10
570.335
20
787.056
30
0.0
11
569.841
21
786.204
31
0.0
0
LINE
5
473
8
0-0
6
CONTINUOUS
62
  7
10
569.841
20
786.204
30
0.0
11
569.306
21
785.326
31
0.0
0
LINE
5
474
8
0-0
6
CONTINUOUS
62
  7
10
569.306
20
785.326
30
0.0
11
568.722
21
784.406
31
0.0
0
LINE
5
475
8
0-0
6
CONTINUOUS
62
  7
10
568.722
20
784.406
30
0.0
11
568.080
21
783.429
31
0.0
0
LINE
5
476
8
0-0
6
CONTINUOUS
62
  7
10
568.080
20
783.429
30
0.0
11
567.371
21
782.378
31
0.0
0
LINE
5
477
8
0-0
6
CONTINUOUS
62
  7
10
704.106
20
798.378
30
0.0
11
703.959
21
797.551
31
0.0
0
LINE
5
478
8
0-0
6
CONTINUOUS
62
  7
10
703.959
20
797.551
30
0.0
11
703.811
21
796.757
31
0.0
0
LINE
5
479
8
0-0
6
CONTINUOUS
62
  7
10
703.811
20
796.757
30
0.0
11
703.658
21
795.987
31
0.0
0
LINE
5
47a
8
0-0
6
CONTINUOUS
62
  7
10
703.658
20
795.987
30
0.0
11
703.500
21
795.231
31
0.0
0
LINE
5
47b
8
0-0
6
CONTINUOUS
62
  7
10
703.500
20
795.231
30
0.0
11
703.332
21
794.486
31
0.0
0
LINE
5
47c
8
0-0
6
CONTINUOUS
62
  7
10
703.332
20
794.486
30
0.0
11
703.155
21
793.748
31
0.0
0
LINE
5
47d
8
0-0
6
CONTINUOUS
62
  7
10
703.155
20
793.748
30
0.0
11
702.967
21
793.013
31
0.0
0
LINE
5
47e
8
0-0
6
CONTINUOUS
62
  7
10
702.967
20
793.013
30
0.0
11
702.767
21
792.282
31
0.0
0
LINE
5
47f
8
0-0
6
CONTINUOUS
62
  7
10
702.767
20
792.282
30
0.0
11
702.556
21
791.554
31
0.0
0
LINE
5
480
8
0-0
6
CONTINUOUS
62
  7
10
702.556
20
791.554
30
0.0
11
702.332
21
790.828
31
0.0
0
LINE
5
481
8
0-0
6
CONTINUOUS
62
  7
10
702.332
20
790.828
30
0.0
11
702.097
21
790.107
31
0.0
0
LINE
5
482
8
0-0
6
CONTINUOUS
62
  7
10
702.097
20
790.107
30
0.0
11
701.851
21
789.391
31
0.0
0
LINE
5
483
8
0-0
6
CONTINUOUS
62
  7
10
701.851
20
789.391
30
0.0
11
701.594
21
788.681
31
0.0
0
LINE
5
484
8
0-0
6
CONTINUOUS
62
  7
10
701.594
20
788.681
30
0.0
11
701.326
21
787.978
31
0.0
0
LINE
5
485
8
0-0
6
CONTINUOUS
62
  7
10
701.326
20
787.978
30
0.0
11
701.048
21
787.284
31
0.0
0
LINE
5
486
8
0-0
6
CONTINUOUS
62
  7
10
701.048
20
787.284
30
0.0
11
700.759
21
786.598
31
0.0
0
LINE
5
487
8
0-0
6
CONTINUOUS
62
  7
10
700.759
20
786.598
30
0.0
11
700.460
21
785.923
31
0.0
0
LINE
5
488
8
0-0
6
CONTINUOUS
62
  7
10
700.460
20
785.923
30
0.0
11
700.152
21
785.258
31
0.0
0
LINE
5
489
8
0-0
6
CONTINUOUS
62
  7
10
700.152
20
785.258
30
0.0
11
699.833
21
784.604
31
0.0
0
LINE
5
48a
8
0-0
6
CONTINUOUS
62
  7
10
699.833
20
784.604
30
0.0
11
699.505
21
783.962
31
0.0
0
LINE
5
48b
8
0-0
6
CONTINUOUS
62
  7
10
699.505
20
783.962
30
0.0
11
699.166
21
783.331
31
0.0
0
LINE
5
48c
8
0-0
6
CONTINUOUS
62
  7
10
699.166
20
783.331
30
0.0
11
698.818
21
782.711
31
0.0
0
LINE
5
48d
8
0-0
6
CONTINUOUS
62
  7
10
698.818
20
782.711
30
0.0
11
698.458
21
782.103
31
0.0
0
LINE
5
48e
8
0-0
6
CONTINUOUS
62
  7
10
698.458
20
782.103
30
0.0
11
698.088
21
781.506
31
0.0
0
LINE
5
48f
8
0-0
6
CONTINUOUS
62
  7
10
698.088
20
781.506
30
0.0
11
697.706
21
780.920
31
0.0
0
LINE
5
490
8
0-0
6
CONTINUOUS
62
  7
10
697.706
20
780.920
30
0.0
11
697.313
21
780.345
31
0.0
0
LINE
5
491
8
0-0
6
CONTINUOUS
62
  7
10
697.313
20
780.345
30
0.0
11
696.907
21
779.780
31
0.0
0
LINE
5
492
8
0-0
6
CONTINUOUS
62
  7
10
696.907
20
779.780
30
0.0
11
696.488
21
779.225
31
0.0
0
LINE
5
493
8
0-0
6
CONTINUOUS
62
  7
10
696.488
20
779.225
30
0.0
11
696.056
21
778.679
31
0.0
0
LINE
5
494
8
0-0
6
CONTINUOUS
62
  7
10
696.056
20
778.679
30
0.0
11
695.611
21
778.142
31
0.0
0
LINE
5
495
8
0-0
6
CONTINUOUS
62
  7
10
695.611
20
778.142
30
0.0
11
695.151
21
777.613
31
0.0
0
LINE
5
496
8
0-0
6
CONTINUOUS
62
  7
10
695.151
20
777.613
30
0.0
11
694.676
21
777.092
31
0.0
0
LINE
5
497
8
0-0
6
CONTINUOUS
62
  7
10
694.676
20
777.092
30
0.0
11
694.186
21
776.578
31
0.0
0
LINE
5
498
8
0-0
6
CONTINUOUS
62
  7
10
694.186
20
776.578
30
0.0
11
693.680
21
776.071
31
0.0
0
LINE
5
499
8
0-0
6
CONTINUOUS
62
  7
10
693.680
20
776.071
30
0.0
11
693.158
21
775.568
31
0.0
0
LINE
5
49a
8
0-0
6
CONTINUOUS
62
  7
10
693.158
20
775.568
30
0.0
11
692.620
21
775.070
31
0.0
0
LINE
5
49b
8
0-0
6
CONTINUOUS
62
  7
10
692.620
20
775.070
30
0.0
11
692.066
21
774.576
31
0.0
0
LINE
5
49c
8
0-0
6
CONTINUOUS
62
  7
10
692.066
20
774.576
30
0.0
11
691.495
21
774.083
31
0.0
0
LINE
5
49d
8
0-0
6
CONTINUOUS
62
  7
10
691.495
20
774.083
30
0.0
11
690.908
21
773.591
31
0.0
0
LINE
5
49e
8
0-0
6
CONTINUOUS
62
  7
10
690.908
20
773.591
30
0.0
11
690.305
21
773.099
31
0.0
0
LINE
5
49f
8
0-0
6
CONTINUOUS
62
  7
10
690.305
20
773.099
30
0.0
11
689.685
21
772.604
31
0.0
0
LINE
5
4a0
8
0-0
6
CONTINUOUS
62
  7
10
689.685
20
772.604
30
0.0
11
689.049
21
772.106
31
0.0
0
LINE
5
4a1
8
0-0
6
CONTINUOUS
62
  7
10
689.049
20
772.106
30
0.0
11
688.397
21
771.602
31
0.0
0
LINE
5
4a2
8
0-0
6
CONTINUOUS
62
  7
10
688.397
20
771.602
30
0.0
11
687.728
21
771.091
31
0.0
0
LINE
5
4a3
8
0-0
6
CONTINUOUS
62
  7
10
687.728
20
771.091
30
0.0
11
687.043
21
770.572
31
0.0
0
LINE
5
4a4
8
0-0
6
CONTINUOUS
62
  7
10
687.043
20
770.572
30
0.0
11
686.340
21
770.043
31
0.0
0
LINE
5
4a5
8
0-0
6
CONTINUOUS
62
  7
10
686.340
20
770.043
30
0.0
11
685.618
21
769.502
31
0.0
0
LINE
5
4a6
8
0-0
6
CONTINUOUS
62
  7
10
685.618
20
769.502
30
0.0
11
684.875
21
768.948
31
0.0
0
LINE
5
4a7
8
0-0
6
CONTINUOUS
62
  7
10
684.875
20
768.948
30
0.0
11
684.106
21
768.378
31
0.0
0
LINE
5
4a8
8
0-0
6
CONTINUOUS
62
  7
10
684.106
20
768.378
30
0.0
11
566.106
21
768.378
31
0.0
0
LINE
5
4a9
8
0-0
6
CONTINUOUS
62
  7
10
704.106
20
1063.379
30
0.0
11
704.106
21
798.378
31
0.0
0
LINE
5
4aa
8
0-0
6
CONTINUOUS
62
  7
10
960.649
20
798.378
30
0.0
11
1092.825
21
798.378
31
0.0
0
LINE
5
4ab
8
0-0
6
CONTINUOUS
62
  7
10
704.106
20
798.378
30
0.0
11
574.667
21
798.378
31
0.0
0
LINE
5
4ac
8
0-0
6
CONTINUOUS
62
  7
10
597.656
20
1078.378
30
0.0
11
594.106
21
1078.378
31
0.0
0
LINE
5
4ad
8
0-0
6
CONTINUOUS
62
  7
10
704.106
20
1078.378
30
0.0
11
599.216
21
1078.378
31
0.0
0
LINE
5
4ae
8
0-0
6
CONTINUOUS
62
  7
10
599.216
20
1078.378
30
0.0
11
597.656
21
1078.378
31
0.0
0
LINE
5
4af
8
0-0
6
CONTINUOUS
62
  7
10
704.106
20
1070.378
30
0.0
11
602.420
21
1070.378
31
0.0
0
LINE
5
4b0
8
0-0
6
CONTINUOUS
62
  7
10
704.106
20
1063.379
30
0.0
11
601.788
21
1063.379
31
0.0
0
LINE
5
4b1
8
0-0
6
CONTINUOUS
62
  7
10
603.143
20
1078.378
30
0.0
11
602.420
21
1070.378
31
0.0
0
LINE
5
4b2
8
0-0
6
CONTINUOUS
62
  7
10
601.788
20
1063.379
30
0.0
11
581.828
21
842.396
31
0.0
0
LINE
5
4b3
8
0-0
6
CONTINUOUS
62
  7
10
973.649
20
461.730
30
0.0
11
980.649
21
454.730
31
0.0
0
LINE
5
4b4
8
0-0
6
CONTINUOUS
62
  7
10
989.649
20
475.730
30
0.0
11
994.649
21
461.730
31
0.0
0
LINE
5
4b5
8
0-0
6
CONTINUOUS
62
  7
10
980.649
20
454.730
30
0.0
11
994.649
21
454.730
31
0.0
0
LINE
5
4b6
8
0-0
6
CONTINUOUS
62
  7
10
994.649
20
461.730
30
0.0
11
994.649
21
454.730
31
0.0
0
LINE
5
4b7
8
0-0
6
CONTINUOUS
62
  7
10
1077.649
20
563.730
30
0.0
11
1091.649
21
558.730
31
0.0
0
LINE
5
4b8
8
0-0
6
CONTINUOUS
62
  7
10
1091.649
20
579.730
30
0.0
11
1098.649
21
572.730
31
0.0
0
LINE
5
4b9
8
0-0
6
CONTINUOUS
62
  7
10
1091.649
20
558.730
30
0.0
11
1098.649
21
558.730
31
0.0
0
LINE
5
4ba
8
0-0
6
CONTINUOUS
62
  7
10
1098.649
20
572.730
30
0.0
11
1098.649
21
558.730
31
0.0
0
LINE
5
4bb
8
0-0
6
CONTINUOUS
62
  7
10
997.649
20
563.730
30
0.0
11
1077.649
21
563.730
31
0.0
0
LINE
5
4bc
8
0-0
6
CONTINUOUS
62
  7
10
989.649
20
555.730
30
0.0
11
989.649
21
475.730
31
0.0
0
LINE
5
4bd
8
0-0
6
CONTINUOUS
62
  7
10
993.648
20
579.730
30
0.0
11
1091.649
21
579.730
31
0.0
0
LINE
5
4be
8
0-0
6
CONTINUOUS
62
  7
10
973.649
20
559.730
30
0.0
11
973.649
21
461.730
31
0.0
0
LINE
5
4bf
8
0-2
6
CONTINUOUS
62
  7
10
594.106
20
1248.649
30
0.0
11
704.106
21
1248.649
31
0.0
0
LINE
5
4c0
8
0-2
6
CONTINUOUS
62
  7
10
594.106
20
1131.081
30
0.0
11
594.106
21
1248.649
31
0.0
0
LINE
5
4c1
8
0-2
6
CONTINUOUS
62
  7
10
704.106
20
1131.081
30
0.0
11
704.106
21
1248.649
31
0.0
0
LINE
5
4c2
8
0-2
6
CONTINUOUS
62
  7
10
988.649
20
1248.649
30
0.0
11
1098.649
21
1248.649
31
0.0
0
LINE
5
4c3
8
0-2
6
CONTINUOUS
62
  7
10
988.649
20
1131.081
30
0.0
11
988.649
21
1248.649
31
0.0
0
LINE
5
4c4
8
0-2
6
CONTINUOUS
62
  7
10
1098.649
20
1131.081
30
0.0
11
1098.649
21
1248.649
31
0.0
0
LINE
5
4c5
8
0-2
6
CONTINUOUS
62
  7
10
566.106
20
664.865
30
0.0
11
704.106
21
664.865
31
0.0
0
LINE
5
4c6
8
0-2
6
CONTINUOUS
62
  7
10
566.106
20
721.622
30
0.0
11
566.106
21
664.865
31
0.0
0
LINE
5
4c7
8
0-2
6
CONTINUOUS
62
  7
10
704.106
20
721.622
30
0.0
11
704.106
21
664.865
31
0.0
0
LINE
5
4c8
8
0-2
6
CONTINUOUS
62
  7
10
960.649
20
664.865
30
0.0
11
1098.649
21
664.865
31
0.0
0
LINE
5
4c9
8
0-2
6
CONTINUOUS
62
  7
10
960.649
20
721.622
30
0.0
11
960.649
21
664.865
31
0.0
0
LINE
5
4ca
8
0-2
6
CONTINUOUS
62
  7
10
1098.649
20
721.622
30
0.0
11
1098.649
21
664.865
31
0.0
0
LINE
5
4cb
8
0-2
6
CONTINUOUS
62
  7
10
704.106
20
798.378
30
0.0
11
574.667
21
798.378
31
0.0
0
LINE
5
4cc
8
0-2
6
CONTINUOUS
62
  7
10
1305.719
20
1078.378
30
0.0
11
1305.719
21
768.378
31
0.0
0
LINE
5
4cd
8
0-2
6
CONTINUOUS
62
  7
10
1180.387
20
1078.378
30
0.0
11
1305.719
21
1078.378
31
0.0
0
LINE
5
4ce
8
0-2
6
CONTINUOUS
62
  7
10
1180.387
20
768.378
30
0.0
11
1305.719
21
768.378
31
0.0
0
LINE
5
4cf
8
0-2
6
CONTINUOUS
62
  7
10
1305.719
20
579.730
30
0.0
11
1305.719
21
558.730
31
0.0
0
LINE
5
4d0
8
0-2
6
CONTINUOUS
62
  7
10
1180.387
20
579.730
30
0.0
11
1305.719
21
579.730
31
0.0
0
LINE
5
4d1
8
0-2
6
CONTINUOUS
62
  7
10
1180.387
20
558.730
30
0.0
11
1305.719
21
558.730
31
0.0
0
LINE
5
4d2
8
ADD_LINE
6
HIDDEN
62
  3
10
1098.649
20
558.730
30
0.0
11
1105.735
21
558.730
31
0.0
0
LINE
5
4d3
8
ADD_LINE
6
HIDDEN
62
  3
10
1098.649
20
558.730
30
0.0
11
1098.649
21
553.680
31
0.0
0
ARC
5
4d4
8
0-0
6
CONTINUOUS
62
  7
10
1086.249
20
1066.878
30
0.0
40
4.879
50
314.166809
51
45.834183
0
ARC
5
4d5
8
0-0
6
CONTINUOUS
62
  7
10
981.653
20
1066.878
30
0.0
40
6.597
50
327.956787
51
32.044113
0
CIRCLE
5
4d6
8
0-0
6
CONTINUOUS
62
  7
10
1051.649
20
988.378
30
0.0
40
3.000
0
CIRCLE
5
4d7
8
0-0
6
CONTINUOUS
62
  7
10
1043.649
20
868.378
30
0.0
40
3.000
0
ARC
5
4d8
8
0-0
6
CONTINUOUS
62
  7
10
705.838
20
1066.878
30
0.0
40
5.628
50
141.547897
51
218.451111
0
CIRCLE
5
4d9
8
0-0
6
CONTINUOUS
62
  7
10
633.169
20
988.378
30
0.0
40
3.000
0
CIRCLE
5
4da
8
0-0
6
CONTINUOUS
62
  7
10
630.362
20
868.378
30
0.0
40
3.000
0
ARC
5
4db
8
0-0
6
CONTINUOUS
62
  7
10
606.139
20
1066.514
30
0.0
40
5.363
50
133.899414
51
215.778595
0
ARC
5
4dc
8
0-0
6
CONTINUOUS
62
  7
10
994.966
20
558.413
30
0.0
40
21.358
50
93.535172
51
176.464828
0
ARC
5
4dd
8
0-0
6
CONTINUOUS
62
  7
10
997.927
20
555.451
30
0.0
40
8.283
50
91.925919
51
178.074081
0
CIRCLE
5
4de
8
ADD_LINE
6
HIDDEN
62
  3
10
1098.649
20
558.730
30
0.0
40
3.000
0
TEXT
5
4df
100
AcDbEntity
8
0-2
62
7
100
AcDbText
10
639.731
20
1251.149
30
0.0
40
9.750
41
0.800
50
0.000
1
110
100
AcDbText
0
TEXT
5
4e0
100
AcDbEntity
8
0-2
62
7
100
AcDbText
10
1034.274
20
1251.149
30
0.0
40
9.750
41
0.800
50
0.000
1
110
100
AcDbText
0
TEXT
5
4e1
100
AcDbEntity
8
0-2
62
7
100
AcDbText
10
625.731
20
667.365
30
0.0
40
9.750
41
0.800
50
0.000
1
138
100
AcDbText
0
TEXT
5
4e2
100
AcDbEntity
8
0-2
62
7
100
AcDbText
10
1020.274
20
667.365
30
0.0
40
9.750
41
0.800
50
0.000
1
138
100
AcDbText
0
TEXT
5
4e3
100
AcDbEntity
8
0-2
62
7
100
AcDbText
10
1303.219
20
914.003
30
0.0
40
9.750
41
0.800
50
90.000
1
310
100
AcDbText
0
TEXT
5
4e4
100
AcDbEntity
8
0-2
62
7
100
AcDbText
10
1303.219
20
562.980
30
0.0
40
9.750
41
0.800
50
90.000
1
21
100
AcDbText
0
POINT
5
4e5
8
0-2
62
  7
10
594.106
20
1248.649
30
0.0
0
POINT
5
4e6
8
0-2
62
  7
10
704.106
20
1248.649
30
0.0
0
POINT
5
4e7
8
0-2
62
  7
10
988.649
20
1248.649
30
0.0
0
POINT
5
4e8
8
0-2
62
  7
10
1098.649
20
1248.649
30
0.0
0
POINT
5
4e9
8
0-2
62
  7
10
566.106
20
664.865
30
0.0
0
POINT
5
4ea
8
0-2
62
  7
10
704.106
20
664.865
30
0.0
0
POINT
5
4eb
8
0-2
62
  7
10
960.649
20
664.865
30
0.0
0
POINT
5
4ec
8
0-2
62
  7
10
1098.649
20
664.865
30
0.0
0
POINT
5
4ed
8
0-2
62
  7
10
1305.719
20
1078.378
30
0.0
0
POINT
5
4ee
8
0-2
62
  7
10
1305.719
20
768.378
30
0.0
0
POINT
5
4ef
8
0-2
62
  7
10
1305.719
20
579.730
30
0.0
0
POINT
5
4f0
8
0-2
62
  7
10
1305.719
20
558.730
30
0.0
0
ENDSEC
0
EOF
