  0
SECTION
  2
HEADER
  9
$ACADVER
  1
AC1009
  9
$INSBASE
 10
0
 20
0
 30
0
  9
$EXTMIN
 10
0
 20
0
  9
$EXTMAX
 10
2100
 20
1485
  9
$LIMMIN
 10
0
 20
0
  9
$LIMMAX
 10
2100
 20
1485
  9
$LTSCALE
 40
5
  0
ENDSEC
  0
SECTION
  2
TABLES
  0
TABLE
  2
LTYPE
 70
     9
  0
LTYPE
  2
CONTINUOUS
 70
    64
  3
実線
 72
    65
 73
     0
 40
0.0
  0
LTYPE
  2
DASHED1
 70
    64
  3
--  --  --  --  --  --  --  --  
 72
    65
 73
     2
 40
2.5
 49
1.25
 49
-1.25
  0
LTYPE
  2
DASHED2
 70
    64
  3
----    ----    ----    ----    
 72
    65
 73
     2
 40
5.0
 49
2.5
 49
-2.5
  0
LTYPE
  2
DASHED3
 70
    64
  3
------  ------  ------  ------  
 72
    65
 73
     2
 40
5.0
 49
3.75
 49
-1.25
  0
LTYPE
  2
CENTER1
 70
    64
  3
----- - ----- - ----- - ----- - 
 72
    65
 73
     4
 40
10.0
 49
6.25
 49
-1.25
 49
1.25
 49
-1.25
  0
LTYPE
  2
CENTER2
 70
    64
  3
----------  --  ----------  --  
 72
    65
 73
     4
 40
20.0
 49
12.5
 49
-2.5
 49
2.5
 49
-2.5
  0
LTYPE
  2
PHANTOM1
 70
    64
  3
--- - - --- - - --- - - --- - - 
 72
    65
 73
     6
 40
10.0
 49
3.25
 49
-1.25
 49
1.25
 49
-1.25
 49
1.25
 49
-1.25
  0
LTYPE
  2
PHANTOM2
 70
    64
  3
--------  -  -  --------  -  -  
 72
    65
 73
     6
 40
20.0
 49
10.0
 49
-2.5
 49
1.25
 49
-2.5
 49
1.25
 49
-2.5
  0
LTYPE
  2
DOT
 70
    64
  3
-   -   -   -   -   -   -   -   
 72
    65
 73
     2
 40
2.5
 49
0.625
 49
-1.875
  0
LTYPE
  2
DUMMY
 70
    64
  3
ダミー
 72
    65
 73
     0
 40
0.0
  0
LTYPE
  2
RAND1
 70
    64
  3
ランダム線1
 72
    65
 73
     4
 40
10.0
 49
1.0
 49
-2.0
 49
3.0
 49
-4.0
  0
LTYPE
  2
RAND2
 70
    64
  3
ランダム線2
 72
    65
 73
     4
 40
14.0
 49
2.0
 49
-3.0
 49
4.0
 49
-5.0
  0
LTYPE
  2
RAND3
 70
    64
  3
ランダム線3
 72
    65
 73
     4
 40
18.0
 49
3.0
 49
-4.0
 49
5.0
 49
-6.0
  0
LTYPE
  2
RAND4
 70
    64
  3
ランダム線4
 72
    65
 73
     4
 40
22.0
 49
4.0
 49
-5.0
 49
6.0
 49
-7.0
  0
LTYPE
  2
RAND5
 70
    64
  3
ランダム線5
 72
    65
 73
     4
 40
26.0
 49
5.0
 49
-6.0
 49
7.0
 49
-8.0
  0
LTYPE
  2
LONG1
 70
    64
  3
----------  --  ----------  --  
 72
    65
 73
     4
 40
40.0
 49
32.5
 49
-2.5
 49
2.5
 49
-2.5
  0
LTYPE
  2
LONG2
 70
    64
  3
--------  -  -  --------  -  -  
 72
    65
 73
     6
 40
40.0
 49
30.0
 49
-2.5
 49
1.25
 49
-2.5
 49
1.25
 49
-2.5
  0
LTYPE
  2
LONG3
 70
    64
  3
+++++++++++++++..+++++++++++++++
 72
    65
 73
     2
 40
40.0
 49
37.5
 49
-2.5
  0
LTYPE
  2
LONG4
 70
    64
  3
+++++++++++++++..+++++++++++++++
 72
    65
 73
     2
 40
80.0
 49
75.0
 49
-5.0
  0
LTYPE
  2
LONG5
 70
    64
  3
----------  --  ----------  --  
 72
    65
 73
     4
 40
60.0
 49
37.5
 49
-7.5
 49
7.5
 49
-7.5
  0
LTYPE
  2
dashed
 70
   64
  3
-------   -------------   ------
 72
   65
 73
    2
 40
7.5
 49
6
 49
-1.5
  0
LTYPE
  2
dashed_spaced
 70
   64
  3
----        --------        ----
 72
   65
 73
    2
 40
12
 49
6
 49
-6
  0
LTYPE
  2
long_dashed_dotted
 70
   64
  3
------------- --- --------------
 72
   65
 73
    4
 40
15.25
 49
12
 49
-1.5
 49
0.25
 49
-1.5
  0
LTYPE
  2
long_dashed_double-dotted
 70
   64
  3
----------- --- --- ------------
 72
   65
 73
    6
 40
17
 49
12
 49
-1.5
 49
0.25
 49
-1.5
 49
0.25
 49
-1.5
  0
LTYPE
  2
long_dashed_triplicate-dotted
 70
   64
  3
--------- --- --- --- ----------
 72
   65
 73
    8
 40
18.75
 49
12
 49
-1.5
 49
0.25
 49
-1.5
 49
0.25
 49
-1.5
 49
0.25
 49
-1.5
  0
LTYPE
  2
dotted
 70
   64
  3
   -       -       -       -    
 72
   65
 73
    2
 40
1.75
 49
0.25
 49
-1.5
  0
LTYPE
  2
chain
 70
   64
  3
-------------- -- --------------
 72
   65
 73
    4
 40
18.5
 49
12
 49
-1.5
 49
3.5
 49
-1.5
  0
LTYPE
  2
chain_double_dash
 70
   64
  3
------------ -- -- -------------
 72
   65
 73
    6
 40
23.5
 49
12
 49
-1.5
 49
3.5
 49
-1.5
 49
3.5
 49
-1.5
  0
LTYPE
  2
dashed_dotted
 70
   64
  3
-----------     -     ----------
 72
   65
 73
    4
 40
9.25
 49
6
 49
-1.5
 49
0.25
 49
-1.5
  0
LTYPE
  2
double-dashed_dotted
 70
   64
  3
------   -----------   -   -----
 72
   65
 73
    6
 40
16.75
 49
6
 49
-1.5
 49
6
 49
-1.5
 49
0.25
 49
-1.5
  0
LTYPE
  2
dashed_double-dotted
 70
   64
  3
---------    -    -    ---------
 72
   65
 73
    6
 40
11
 49
6
 49
-1.5
 49
0.25
 49
-1.5
 49
0.25
 49
-1.5
  0
LTYPE
  2
double-dashed_double-dotted
 70
   64
  3
-----   ---------   -   -   ----
 72
   65
 73
    8
 40
18.5
 49
6
 49
-1.5
 49
6
 49
-1.5
 49
0.25
 49
-1.5
 49
0.25
 49
-1.5
  0
LTYPE
  2
dashed_triplicate-dotted
 70
   64
  3
-------    -    -    -    ------
 72
   65
 73
    8
 40
12.75
 49
6
 49
-1.5
 49
0.25
 49
-1.5
 49
0.25
 49
-1.5
 49
0.25
 49
-1.5
  0
LTYPE
  2
double-dashed_triplicate-dotted
 70
   64
  3
-----  ---------  -  -  -  -----
 72
   65
 73
   10
 40
20.25
 49
6
 49
-1.5
 49
6
 49
-1.5
 49
0.25
 49
-1.5
 49
0.25
 49
-1.5
 49
0.25
 49
-1.5
  0
LTYPE
  2
undefined
 70
   64
  3
--------------------------------
 72
   65
 73
    0
 40
0
  0
ENDTAB
  0
TABLE
  2
STYLE
  5
3
100
AcDbSymbolTable
 70
     1
  0
STYLE
  5
10
100
AcDbSymbolTableRecord
100
AcDbTextStyleTableRecord
  2
STANDARD
 70
     0
 40
0.0
 41
1.0
 50
0.0
 71
     0
 42
0.2
  3
txt
  4
bigfont.shx
  0
STYLE
  5
26
100
AcDbSymbolTableRecord
100
AcDbTextStyleTableRecord
  2
TATEGAKI
 70
    68
 40
0.0
 41
1.0
 50
0.0
 71
     0
 42
1.0
  3
txt
  4
bigfont.shx
  0
ENDTAB
  0
TABLE
  2
LAYER
 70
    4
  0
LAYER
  2
_0-0_
 70
   64
 62
    7
  6
CONTINUOUS
  0
LAYER
  2
_0-1_
 70
   64
 62
    7
  6
CONTINUOUS
  0
LAYER
  2
_0-2_
 70
   64
 62
    7
  6
CONTINUOUS
  0
LAYER
  2
ADD_LINE
 70
   64
 62
    7
  6
CONTINUOUS
  0
ENDTAB
  0
ENDSEC
  0
SECTION
  2
BLOCKS
  0
ENDSEC
  0
SECTION
  2
ENTITIES
  0
LINE
  8
_0-1_
  6
CONTINUOUS
 62
    7
 10
760.04160288217906
 20
458.73023368216849
 11
1066.0416474213471
 21
458.73023368216849
  0
LINE
  8
_0-1_
  6
CONTINUOUS
 62
    7
 10
760.04160288217906
 20
458.73023368216849
 11
760.04160288217906
 21
428.73022749617297
  0
LINE
  8
_0-1_
  6
CONTINUOUS
 62
    7
 10
760.04160288217906
 20
428.73022749617297
 11
1066.0416474213471
 21
428.73022749617297
  0
LINE
  8
_0-1_
  6
CONTINUOUS
 62
    7
 10
1066.0416474213471
 20
458.73023368216849
 11
1066.0416474213471
 21
428.73022749617297
  0
LINE
  8
_0-1_
  6
CONTINUOUS
 62
    7
 10
760.04160288217906
 20
453.73021718618031
 11
1066.0416474213471
 21
453.73021718618031
  0
LINE
  8
_0-0_
  6
CONTINUOUS
 62
    7
 10
1021.041622677365
 20
1158.207997027389
 11
1021.041622677365
 21
1143.2080712593358
  0
LINE
  8
_0-0_
  6
CONTINUOUS
 62
    7
 10
1021.041622677365
 20
1143.2080712593358
 11
1066.0416474213471
 21
1143.2080712593358
  0
LINE
  8
_0-0_
  6
CONTINUOUS
 62
    7
 10
973.24490933804907
 20
1116.2079945529908
 11
933.00203890413854
 21
1116.2079945529908
  0
LINE
  8
_0-0_
  6
CONTINUOUS
 62
    7
 10
1003.8383071487015
 20
1120.2080448657548
 11
1056.0416144293708
 21
1120.2080448657548
  0
LINE
  8
_0-0_
  6
CONTINUOUS
 62
    7
 10
998.21362882047094
 20
1116.2079945529908
 11
1066.0416474213471
 21
1116.2079945529908
  0
LINE
  8
_0-0_
  6
CONTINUOUS
 62
    7
 10
1002.3498947555954
 20
1119.8127597490952
 11
998.21362882047094
 21
1117.4491527033285
  0
LINE
  8
_0-0_
  6
CONTINUOUS
 62
    7
 10
974.73332173115512
 20
1116.6032796696504
 11
979.72944104993667
 21
1119.458178483259
  0
LINE
  8
ADD_LINE
  6
DOT
 62
    4
 10
959.33322390994522
 20
1139.8049076587236
 11
959.33322390994522
 21
1118.8879534119962
  0
LINE
  8
ADD_LINE
  6
DOT
 62
    4
 10
952.33321318755293
 20
1131.2079821809996
 11
966.33323463233751
 21
1131.2079821809996
  0
LINE
  8
_0-0_
  6
CONTINUOUS
 62
    7
 10
952.33321318755293
 20
1120.2080448657548
 11
952.33321318755293
 21
1131.2079821809996
  0
LINE
  8
_0-0_
  6
CONTINUOUS
 62
    7
 10
966.33323463233751
 20
1120.2080448657548
 11
966.33323463233751
 21
1131.2079821809996
  0
LINE
  8
_0-0_
  6
CONTINUOUS
 62
    7
 10
760.04160288217906
 20
1149.2079920785927
 11
760.04160288217906
 21
1144.4795407879465
  0
LINE
  8
_0-0_
  6
CONTINUOUS
 62
    7
 10
760.04160288217906
 20
1137.2080267201679
 11
765.0416193781673
 21
1137.2080267201679
  0
LINE
  8
_0-0_
  6
CONTINUOUS
 62
    7
 10
775.04159051018803
 20
1158.207997027389
 11
775.04159051018803
 21
1144.2079755826044
  0
LINE
  8
_0-0_
  6
CONTINUOUS
 62
    7
 10
775.04159051018803
 20
1144.2079755826044
 11
801.0415773133974
 21
1144.2079755826044
  0
LINE
  8
_0-0_
  6
CONTINUOUS
 62
    7
 10
801.0415773133974
 20
1158.207997027389
 11
801.0415773133974
 21
1144.2079755826044
  0
LINE
  8
_0-0_
  6
CONTINUOUS
 62
    7
 10
818.04162102776615
 20
1158.207997027389
 11
818.04162102776615
 21
1148.2079640354127
  0
LINE
  8
_0-0_
  6
CONTINUOUS
 62
    7
 10
816.29593307907521
 20
1148.2079640354127
 11
818.04162102776615
 21
1148.2079640354127
  0
LINE
  8
_0-0_
  6
CONTINUOUS
 62
    7
 10
775.04159051018803
 20
1144.2079755826044
 11
788.04158391179271
 21
1147.3327693827523
  0
LINE
  8
_0-0_
  6
CONTINUOUS
 62
    7
 10
788.04158391179271
 20
1147.3327693827523
 11
801.0415773133974
 21
1144.2079755826044
  0
LINE
  8
_0-0_
  6
CONTINUOUS
 62
    7
 10
857.04160123258032
 20
1158.207997027389
 11
857.04160123258032
 21
1136.2079986769879
  0
LINE
  8
_0-0_
  6
CONTINUOUS
 62
    7
 10
872.04158886058917
 20
1158.207997027389
 11
872.04158886058917
 21
1136.2079986769879
  0
LINE
  8
_0-0_
  6
CONTINUOUS
 62
    7
 10
845.0415740141998
 20
1136.2079986769879
 11
885.04158226219386
 21
1136.2079986769879
  0
LINE
  8
_0-0_
  6
CONTINUOUS
 62
    7
 10
845.0415740141998
 20
1132.2080102241796
 11
885.04158226219386
 21
1132.2080102241796
  0
LINE
  8
_0-0_
  6
CONTINUOUS
 62
    7
 10
877.04160535657729
 20
1158.207997027389
 11
877.04160535657729
 21
1136.2079986769879
  0
LINE
  8
ADD_LINE
  6
DOT
 62
    4
 10
844.90498723210521
 20
1129.7080019761856
 11
893.2703791437923
 21
1129.7080019761856
  0
LINE
  8
ADD_LINE
  6
DOT
 62
    4
 10
847.28108998891469
 20
1132.9511957314642
 11
847.28108998891469
 21
1125.7411704596102
  0
LINE
  8
ADD_LINE
  6
DOT
 62
    4
 10
877.80211165144635
 20
1132.9511957314642
 11
877.80211165144635
 21
1125.7411704596102
  0
LINE
  8
_0-0_
  6
CONTINUOUS
 62
    7
 10
847.28108998891469
 20
1127.2079937281912
 11
877.80211165144635
 21
1127.2079937281912
  0
LINE
  8
_0-0_
  6
CONTINUOUS
 62
    7
 10
845.0415740141998
 20
1158.207997027389
 11
845.0415740141998
 21
1132.2080102241796
  0
LINE
  8
_0-0_
  6
CONTINUOUS
 62
    7
 10
977.0416259765625
 20
1158.207997027389
 11
977.0416259765625
 21
1144.2079755826044
  0
LINE
  8
_0-0_
  6
CONTINUOUS
 62
    7
 10
977.0416259765625
 20
1144.2079755826044
 11
1001.0416185533678
 21
1144.2079755826044
  0
LINE
  8
_0-0_
  6
CONTINUOUS
 62
    7
 10
988.82792704814187
 20
1158.207997027389
 11
988.82792704814187
 21
1147.3327693827523
  0
LINE
  8
_0-0_
  6
CONTINUOUS
 62
    7
 10
977.0416259765625
 20
1144.2079755826044
 11
988.82792704814187
 21
1147.3327693827523
  0
LINE
  8
_0-0_
  6
CONTINUOUS
 62
    7
 10
988.82792704814187
 20
1147.3327693827523
 11
1001.0416185533678
 21
1144.2079755826044
  0
LINE
  8
_0-0_
  6
CONTINUOUS
 62
    7
 10
1001.0416185533678
 20
1137.2080267201679
 11
1056.0416144293708
 21
1137.2080267201679
  0
LINE
  8
_0-0_
  6
CONTINUOUS
 62
    7
 10
1056.0416144293708
 20
1137.2080267201679
 11
1056.0416144293708
 21
1120.2080448657548
  0
LINE
  8
_0-0_
  6
CONTINUOUS
 62
    7
 10
1014.0416119549727
 20
1158.207997027389
 11
1014.0416119549727
 21
1137.2080267201679
  0
LINE
  8
_0-0_
  6
CONTINUOUS
 62
    7
 10
885.04158226219386
 20
1158.207997027389
 11
885.04158226219386
 21
1142.9718899486306
  0
LINE
  8
_0-0_
  6
CONTINUOUS
 62
    7
 10
885.04158226219386
 20
1142.9718899486306
 11
885.04158226219386
 21
1132.2080102241796
  0
LINE
  8
_0-0_
  6
CONTINUOUS
 62
    7
 10
885.04158226219386
 20
1148.2079640354127
 11
962.07430040514157
 21
1148.2079640354127
  0
LINE
  8
ADD_LINE
  6
DOT
 62
    4
 10
925.16271230336781
 20
1136.2079986769879
 11
940.78043344858543
 21
1136.2079986769879
  0
LINE
  8
ADD_LINE
  6
DOT
 62
    4
 10
934.27635399070948
 20
1140.9781435777481
 11
934.27635399070948
 21
1130.5038921656912
  0
LINE
  8
_0-0_
  6
CONTINUOUS
 62
    7
 10
885.04158226219386
 20
1132.2080102241796
 11
934.27635399070948
 21
1132.2080102241796
  0
LINE
  8
_0-0_
  6
CONTINUOUS
 62
    7
 10
885.04158226219386
 20
1140.2079871297963
 11
934.27635399070948
 21
1140.2079871297963
  0
LINE
  8
_0-0_
  6
CONTINUOUS
 62
    7
 10
885.04158226219386
 20
1138.7080069249819
 11
934.27635399070948
 21
1138.7080069249819
  0
LINE
  8
_0-0_
  6
CONTINUOUS
 62
    7
 10
885.04158226219386
 20
1133.7079904289935
 11
934.27635399070948
 21
1133.7079904289935
  0
LINE
  8
ADD_LINE
  6
DOT
 62
    4
 10
769.20590787320532
 20
1118.207988779395
 11
876.77084433065886
 21
1118.207988779395
  0
LINE
  8
ADD_LINE
  6
DOT
 62
    4
 10
771.98465708139781
 20
1120.6367343584702
 11
771.98465708139781
 21
1114.9991272995069
  0
LINE
  8
ADD_LINE
  6
DOT
 62
    4
 10
822.54162350216438
 20
1123.3064863247919
 11
822.54162350216438
 21
1106.5159622802394
  0
LINE
  8
ADD_LINE
  6
DOT
 62
    4
 10
873.09852806297511
 20
1120.6367343584702
 11
873.09852806297511
 21
1114.9991272995069
  0
LINE
  8
_0-0_
  6
CONTINUOUS
 62
    7
 10
873.09852806297511
 20
1116.2079945529908
 11
771.98465708139781
 21
1116.2079945529908
  0
LINE
  8
_0-0_
  6
CONTINUOUS
 62
    7
 10
873.09852806297511
 20
1120.2080448657548
 11
771.98465708139781
 21
1120.2080448657548
  0
LINE
  8
ADD_LINE
  6
DOT
 62
    4
 10
770.0415740141998
 20
1118.207988779395
 11
770.0415740141998
 21
1128.5173215496652
  0
LINE
  8
ADD_LINE
  6
DOT
 62
    4
 10
803.04157153980157
 20
1118.207988779395
 11
803.04157153980157
 21
1128.5173215496652
  0
LINE
  8
ADD_LINE
  6
DOT
 62
    4
 10
813.53370047904355
 20
1139.8049076587236
 11
813.53370047904355
 21
1118.8879534119962
  0
LINE
  8
ADD_LINE
  6
DOT
 62
    4
 10
806.53375161660688
 20
1131.2079821809996
 11
820.53371120143584
 21
1131.2079821809996
  0
LINE
  8
_0-0_
  6
CONTINUOUS
 62
    7
 10
806.53375161660688
 20
1120.2080448657548
 11
806.53375161660688
 21
1131.2079821809996
  0
LINE
  8
_0-0_
  6
CONTINUOUS
 62
    7
 10
820.53371120143584
 20
1120.2080448657548
 11
820.53371120143584
 21
1131.2079821809996
  0
LINE
  8
_0-0_
  6
CONTINUOUS
 62
    7
 10
804.53369553024709
 20
1120.2080448657548
 11
804.53369553024709
 21
1131.2079821809996
  0
LINE
  8
_0-0_
  6
CONTINUOUS
 62
    7
 10
822.53370542784
 20
1120.2080448657548
 11
822.53370542784
 21
1131.2079821809996
  0
LINE
  8
_0-0_
  6
CONTINUOUS
 62
    7
 10
885.04158226219386
 20
1146.8080732388544
 11
961.0015869140625
 21
1146.8080732388544
  0
LINE
  8
_0-0_
  6
CONTINUOUS
 62
    7
 10
977.0416259765625
 20
1135.8080122036981
 11
1054.6415999129013
 21
1135.8080122036981
  0
LINE
  8
_0-0_
  6
CONTINUOUS
 62
    7
 10
1054.6415999129013
 20
1135.8080122036981
 11
1056.0416144293708
 21
1137.2080267201679
  0
LINE
  8
_0-0_
  6
CONTINUOUS
 62
    7
 10
947.35614673511407
 20
1120.2080448657548
 11
979.72944104993667
 21
1120.2080448657548
  0
LINE
  8
_0-0_
  6
CONTINUOUS
 62
    7
 10
947.18467093802792
 20
1120.2080448657548
 11
947.35614673511407
 21
1120.2080448657548
  0
LINE
  8
_0-0_
  6
CONTINUOUS
 62
    7
 10
933.0819619668498
 20
1120.2080448657548
 11
937.75368767815678
 21
1120.2080448657548
  0
LINE
  8
_0-0_
  6
CONTINUOUS
 62
    7
 10
937.75368767815678
 20
1120.2080448657548
 11
938.09663927232907
 21
1120.2080448657548
  0
LINE
  8
_0-0_
  6
CONTINUOUS
 62
    7
 10
938.09663927232907
 20
1120.2080448657548
 11
947.18467093802792
 21
1120.2080448657548
  0
LINE
  8
_0-0_
  6
CONTINUOUS
 62
    7
 10
950.33321896114876
 20
1120.2080448657548
 11
950.33321896114876
 21
1131.2079821809996
  0
LINE
  8
_0-0_
  6
CONTINUOUS
 62
    7
 10
968.33322885874168
 20
1120.2080448657548
 11
968.33322885874168
 21
1131.2079821809996
  0
LINE
  8
_0-0_
  6
CONTINUOUS
 62
    7
 10
1054.6415999129013
 20
1135.8080122036981
 11
1054.6415999129013
 21
1120.2080448657548
  0
LINE
  8
_0-0_
  6
CONTINUOUS
 62
    7
 10
817.54160700617615
 20
1146.7136749465192
 11
816.42614828573699
 21
1146.7136749465192
  0
LINE
  8
_0-0_
  6
CONTINUOUS
 62
    7
 10
819.54160123258032
 20
1148.7137310328787
 11
819.54160123258032
 21
1158.207997027389
  0
LINE
  8
_0-0_
  6
CONTINUOUS
 62
    7
 10
819.54160123258032
 20
1148.2079640354127
 11
845.0415740141998
 21
1148.2079640354127
  0
LINE
  8
_0-0_
  6
CONTINUOUS
 62
    7
 10
977.0416259765625
 20
1137.2080267201679
 11
1000.9876766720334
 21
1137.2080267201679
  0
LINE
  8
_0-0_
  6
CONTINUOUS
 62
    7
 10
1000.9876766720334
 20
1137.2080267201679
 11
1001.0416185533678
 21
1137.2080267201679
  0
LINE
  8
_0-0_
  6
CONTINUOUS
 62
    7
 10
1001.0416185533678
 20
1158.207997027389
 11
1001.0416185533678
 21
1137.2080267201679
  0
LINE
  8
_0-0_
  6
CONTINUOUS
 62
    7
 10
788.04158391179271
 20
1158.207997027389
 11
788.04158391179271
 21
1147.3327693827523
  0
LINE
  8
_0-0_
  6
CONTINUOUS
 62
    7
 10
788.04158391179271
 20
1144.2079755826044
 11
788.04158391179271
 21
1137.2080267201679
  0
LINE
  8
_0-0_
  6
CONTINUOUS
 62
    7
 10
765.0416193781673
 20
1138.7080069249819
 11
765.0416193781673
 21
1158.207997027389
  0
LINE
  8
_0-0_
  6
CONTINUOUS
 62
    7
 10
768.04157978779574
 20
1135.7080465153535
 11
803.73013470623948
 21
1135.7080465153535
  0
LINE
  8
_0-0_
  6
CONTINUOUS
 62
    7
 10
764.98823423643375
 20
1137.2080267201679
 11
765.4435235100824
 21
1137.2080267201679
  0
LINE
  8
_0-0_
  6
CONTINUOUS
 62
    7
 10
766.10851803341438
 20
1137.2080267201679
 11
803.73013470623948
 21
1137.2080267201679
  0
ARC
  8
_0-0_
  6
CONTINUOUS
 62
    7
 10
817.04047950538438
 20
1139.6621348810629
 40
7.0782814476941089
 50
94.979156494140625
 51
167.50323486328125
  0
ARC
  8
_0-0_
  6
CONTINUOUS
 62
    7
 10
998.32448186101146
 20
1116.8285736281598
 40
0.6304047800399161
 50
100.13012695312501
 51
259.86985778808599
  0
ARC
  8
_0-0_
  6
CONTINUOUS
 62
    7
 10
933.04200043549417
 20
1118.207988779395
 40
2.0003990949811161
 50
88.855560302734375
 51
271.14442443847656
  0
ARC
  8
_0-0_
  6
CONTINUOUS
 62
    7
 10
973.24490933804907
 20
1119.2080168225748
 40
3.0000000386624723
 50
270
 51
299.744873046875
  0
ARC
  8
_0-0_
  6
CONTINUOUS
 62
    7
 10
1003.8383071487015
 20
1117.2080225961708
 40
3.0000000386624723
 50
90
 51
119.744873046875
  0
ARC
  8
_0-0_
  6
CONTINUOUS
 62
    7
 10
979.54930485905834
 20
1119.8331735344623
 40
0.4159499664564391
 50
295.67131042480469
 51
64.32867431640625
  0
ARC
  8
_0-0_
  6
CONTINUOUS
 62
    7
 10
959.33322390994522
 20
1131.2079821809996
 40
7.0000000902124357
 50
0
 51
180
  0
CIRCLE
  8
_0-0_
  6
CONTINUOUS
 62
    7
 10
959.33322390994522
 20
1131.2079821809996
 40
1.9630271035271725
  0
ARC
  8
_0-0_
  6
CONTINUOUS
 62
    7
 10
804.36945734797303
 20
1141.4566921947244
 40
4.2964334423477588
 50
261.44293212890625
 51
0.8227081298828309
  0
ARC
  8
_0-0_
  6
CONTINUOUS
 62
    7
 10
817.04047950538438
 20
1139.6621348810629
 40
8.5782814670253451
 50
94.979156494140625
 51
167.50323486328125
  0
ARC
  8
_0-0_
  6
CONTINUOUS
 62
    7
 10
847.55673795133032
 20
1129.7080019761856
 40
2.5151511301865446
 50
96.292114257812514
 51
263.70787048339844
  0
ARC
  8
_0-0_
  6
CONTINUOUS
 62
    7
 10
877.52646368903083
 20
1129.7080019761856
 40
2.5151511301865446
 50
276.2921142578125
 51
83.707870483398438
  0
ARC
  8
_0-0_
  6
CONTINUOUS
 62
    7
 10
960.74802295581719
 20
1139.1555018442177
 40
9.0567179628320655
 50
18.477493286132812
 51
91.744873046875014
  0
ARC
  8
_0-0_
  6
CONTINUOUS
 62
    7
 10
979.16459779481647
 20
1149.2729450320344
 40
12.209998272560739
 50
216.40800476074219
 51
261.15711975097656
  0
ARC
  8
_0-0_
  6
CONTINUOUS
 62
    7
 10
934.03429598421667
 20
1136.2079986769879
 40
4.0073190991942944
 50
273.46343994140625
 51
86.536544799804688
  0
ARC
  8
_0-0_
  6
CONTINUOUS
 62
    7
 10
934.03429598421667
 20
1136.2079986769879
 40
2.5073190798630582
 50
273.46343994140625
 51
86.536544799804688
  0
ARC
  8
_0-0_
  6
CONTINUOUS
 62
    7
 10
772.04243427998324
 20
1118.207988779395
 40
2.0008347727156974
 50
91.65509033203125
 51
268.34489440917969
  0
ARC
  8
_0-0_
  6
CONTINUOUS
 62
    7
 10
873.04075086438979
 20
1118.207988779395
 40
2.0008347727156974
 50
271.65509033203125
 51
88.344894409179716
  0
ARC
  8
_0-0_
  6
CONTINUOUS
 62
    7
 10
813.53370047904355
 20
1131.2079821809996
 40
7.0000000902124357
 50
0
 51
180
  0
CIRCLE
  8
_0-0_
  6
CONTINUOUS
 62
    7
 10
813.53370047904355
 20
1131.2079821809996
 40
1.9630271035271725
  0
ARC
  8
_0-0_
  6
CONTINUOUS
 62
    7
 10
959.33322390994522
 20
1131.2079821809996
 40
9.000000115987417
 50
0
 51
180
  0
ARC
  8
_0-0_
  6
CONTINUOUS
 62
    7
 10
813.53370047904355
 20
1131.2079821809996
 40
9.000000115987417
 50
0
 51
180
  0
ARC
  8
_0-0_
  6
CONTINUOUS
 62
    7
 10
960.74802295581719
 20
1139.1555018442177
 40
7.6567174615086744
 50
16.938247680664063
 51
88.102264404296875
  0
ARC
  8
_0-0_
  6
CONTINUOUS
 62
    7
 10
979.16459779481647
 20
1149.2729450320344
 40
13.609998290603226
 50
215.4136962890625
 51
261.15711975097656
  0
ARC
  8
_0-0_
  6
CONTINUOUS
 62
    7
 10
804.36945734797303
 20
1141.4566921947244
 40
5.796433461678995
 50
261.44293212890625
 51
284.491943359375
  0
ARC
  8
_0-0_
  6
CONTINUOUS
 62
    7
 10
804.36945734797303
 20
1141.4566921947244
 40
5.796433461678995
 50
339.11399841308594
 51
0.822692871093734
  0
ARC
  8
_0-0_
  6
CONTINUOUS
 62
    7
 10
817.54160700617615
 20
1148.7137310328787
 40
2.0000000257749817
 50
270
 51
0
  0
ARC
  8
_0-0_
  6
CONTINUOUS
 62
    7
 10
768.04157978779574
 20
1138.7080069249819
 40
3.0000000386624723
 50
180
 51
270
  0
ARC
  8
_0-0_
  6
CONTINUOUS
 62
    7
 10
766.31568702491563
 20
1138.482094366916
 40
1.2907883202707446
 50
204.1658630371094
 51
279.23403930664062
  0
LINE
  8
_0-1_
  6
CONTINUOUS
 62
    7
 10
760.04160288217906
 20
625.549578375073
 11
1066.0416474213471
 21
625.549578375073
  0
LINE
  8
_0-1_
  6
CONTINUOUS
 62
    7
 10
1066.0416474213471
 20
625.549578375073
 11
1066.0416474213471
 21
617.54960146945655
  0
LINE
  8
_0-1_
  6
CONTINUOUS
 62
    7
 10
1059.0415748389992
 20
617.54960146945655
 11
1059.0415748389992
 21
616.54957342627665
  0
LINE
  8
_0-1_
  6
CONTINUOUS
 62
    7
 10
1063.0415632918075
 20
617.54960146945655
 11
1063.0415632918075
 21
616.54957342627665
  0
LINE
  8
_0-1_
  6
CONTINUOUS
 62
    7
 10
1049.0415418470229
 20
617.54960146945655
 11
1049.0415418470229
 21
616.54957342627665
  0
LINE
  8
_0-1_
  6
CONTINUOUS
 62
    7
 10
1046.0415814373946
 20
617.54960146945655
 11
1046.0415814373946
 21
616.54957342627665
  0
LINE
  8
_0-1_
  6
CONTINUOUS
 62
    7
 10
1046.0415814373946
 20
616.54957342627665
 11
1049.0415418470229
 21
616.54957342627665
  0
LINE
  8
_0-1_
  6
CONTINUOUS
 62
    7
 10
1059.0415748389992
 20
616.54957342627665
 11
1063.0415632918075
 21
616.54957342627665
  0
LINE
  8
_0-1_
  6
CONTINUOUS
 62
    7
 10
1049.0415418470229
 20
617.54960146945655
 11
1059.0415748389992
 21
617.54960146945655
  0
LINE
  8
_0-1_
  6
CONTINUOUS
 62
    7
 10
1063.0415632918075
 20
617.54960146945655
 11
1066.0416474213471
 21
617.54960146945655
  0
LINE
  8
_0-1_
  6
CONTINUOUS
 62
    7
 10
1024.077523721231
 20
617.54960146945655
 11
1024.4210320550044
 21
617.54960146945655
  0
LINE
  8
_0-1_
  6
CONTINUOUS
 62
    7
 10
1022.0415888605892
 20
617.54960146945655
 11
1024.077523721231
 21
617.54960146945655
  0
LINE
  8
_0-1_
  6
CONTINUOUS
 62
    7
 10
942.04157236460105
 20
610.54959074706414
 11
1007.0416012325803
 21
610.54959074706414
  0
LINE
  8
_0-1_
  6
CONTINUOUS
 62
    7
 10
850.04159051018803
 20
610.54959074706414
 11
855.04160700617615
 21
598.54956352868373
  0
LINE
  8
_0-1_
  6
CONTINUOUS
 62
    7
 10
860.04162350216438
 20
598.54956352868373
 11
865.04157813819688
 21
610.54959074706414
  0
LINE
  8
_0-1_
  6
CONTINUOUS
 62
    7
 10
927.04158473659209
 20
610.54959074706414
 11
932.04160123258032
 21
598.54956352868373
  0
LINE
  8
_0-1_
  6
CONTINUOUS
 62
    7
 10
937.04161772856855
 20
598.54956352868373
 11
942.04157236460105
 21
610.54959074706414
  0
LINE
  8
_0-1_
  6
CONTINUOUS
 62
    7
 10
1007.0416012325803
 20
610.54959074706414
 11
1012.0416177285686
 21
598.54956352868373
  0
LINE
  8
_0-1_
  6
CONTINUOUS
 62
    7
 10
1022.0415888605892
 20
617.54960146945655
 11
1046.0415814373946
 21
617.54960146945655
  0
LINE
  8
_0-1_
  6
CONTINUOUS
 62
    7
 10
855.04160700617615
 20
598.54956352868373
 11
860.04162350216438
 21
598.54956352868373
  0
LINE
  8
_0-1_
  6
CONTINUOUS
 62
    7
 10
932.04160123258032
 20
598.54956352868373
 11
937.04161772856855
 21
598.54956352868373
  0
LINE
  8
_0-1_
  6
CONTINUOUS
 62
    7
 10
1017.0415723646011
 20
598.54956352868373
 11
1018.5331396154456
 21
604.21742010596415
  0
LINE
  8
_0-1_
  6
CONTINUOUS
 62
    7
 10
1018.5484190244933
 20
604.27550660432769
 11
1022.0415888605892
 21
617.54960146945655
  0
LINE
  8
_0-1_
  6
CONTINUOUS
 62
    7
 10
1012.0416177285686
 20
598.54956352868373
 11
1017.0415723646011
 21
598.54956352868373
  0
LINE
  8
_0-1_
  6
CONTINUOUS
 62
    7
 10
773.68846584010771
 20
610.54959074706414
 11
850.04159051018803
 21
610.54959074706414
  0
LINE
  8
_0-1_
  6
CONTINUOUS
 62
    7
 10
865.04157813819688
 20
610.54959074706414
 11
927.04158473659209
 21
610.54959074706414
  0
LINE
  8
_0-1_
  6
CONTINUOUS
 62
    7
 10
760.04160288217906
 20
625.549578375073
 11
760.04160288217906
 21
605.54957425107602
  0
LINE
  8
_0-1_
  6
CONTINUOUS
 62
    7
 10
765.28936850058074
 20
599.93893813277998
 11
771.15746575432865
 21
609.1602161429679
  0
ARC
  8
_0-1_
  6
CONTINUOUS
 62
    7
 10
773.68846584010771
 20
607.54956847748008
 40
3.0000000386624723
 50
90
 51
147.52879333496094
  0
ARC
  8
_0-1_
  6
CONTINUOUS
 62
    7
 10
762.75836841480157
 20
601.54958579826769
 40
3.0000000386624723
 50
270
 51
327.52879333496094
  0
LINE
  8
_0-1_
  6
CONTINUOUS
 62
    7
 10
1395.7315780930703
 20
1150.2080201217725
 11
1394.9228210327872
 21
1148.2079640354127
  0
LINE
  8
_0-1_
  6
CONTINUOUS
 62
    7
 10
1380.7315286051057
 20
1140.2079871297963
 11
1394.9228210327872
 21
1148.2079640354127
  0
LINE
  8
_0-1_
  6
CONTINUOUS
 62
    7
 10
1395.7315780930703
 20
1158.207997027389
 11
1395.7315780930703
 21
1150.2080201217725
  0
LINE
  8
_0-1_
  6
CONTINUOUS
 62
    7
 10
1361.731614384244
 20
1120.2080448657548
 11
1361.731614384244
 21
1116.2079945529908
  0
LINE
  8
_0-1_
  6
CONTINUOUS
 62
    7
 10
1361.731614384244
 20
1116.2079945529908
 11
1365.7316028370524
 21
1116.2079945529908
  0
LINE
  8
_0-1_
  6
CONTINUOUS
 62
    7
 10
1361.731614384244
 20
1120.2080448657548
 11
1365.7316028370524
 21
1120.2080448657548
  0
LINE
  8
_0-1_
  6
CONTINUOUS
 62
    7
 10
1361.731614384244
 20
1158.207997027389
 11
1395.7315780930703
 21
1158.207997027389
  0
LINE
  8
_0-1_
  6
CONTINUOUS
 62
    7
 10
1376.7315401522974
 20
1158.207997027389
 11
1376.7315401522974
 21
1147.3327693827523
  0
LINE
  8
_0-1_
  6
CONTINUOUS
 62
    7
 10
1361.731614384244
 20
1144.2079755826044
 11
1376.7315401522974
 21
1147.3327693827523
  0
LINE
  8
_0-1_
  6
CONTINUOUS
 62
    7
 10
1361.731614384244
 20
1137.2080267201679
 11
1365.7316028370524
 21
1135.8080122036981
  0
LINE
  8
_0-1_
  6
CONTINUOUS
 62
    7
 10
1361.731614384244
 20
1158.207997027389
 11
1361.731614384244
 21
1137.2080267201679
  0
LINE
  8
_0-1_
  6
CONTINUOUS
 62
    7
 10
1365.7316028370524
 20
1135.8080122036981
 11
1365.7316028370524
 21
1120.2080448657548
  0
POINT
  8
_0-2_
 62
    7
 10
1361.731614384244
 20
1310.3036605657237
  0
POINT
  8
_0-2_
 62
    7
 10
1395.7315780930703
 20
1310.3036605657237
  0
LINE
  8
_0-2_
  6
CONTINUOUS
 62
    7
 10
1361.731614384244
 20
1310.3036605657237
 11
1361.731614384244
 21
1200.2371048252912
  0
LINE
  8
_0-2_
  6
CONTINUOUS
 62
    7
 10
1395.7315780930703
 20
1310.3036605657237
 11
1395.7315780930703
 21
1200.2371048252912
  0
LINE
  8
_0-2_
  6
CONTINUOUS
 62
    7
 10
1361.731614384244
 20
1310.3036605657237
 11
1395.7315780930703
 21
1310.3036605657237
  0
TEXT
  8
_0-2_
 62
    7
 10
1372.4815962386572
 20
1312.8036605657237
 40
12.5
 41
1
 50
0
  1
34
  0
LINE
  8
_0-0_
  6
CONTINUOUS
 62
    7
 10
738.54160865577501
 20
1145.2080036257844
 11
738.54160865577501
 21
828.20802177137125
  0
LINE
  8
_0-0_
  6
CONTINUOUS
 62
    7
 10
742.54159710858312
 20
1145.2080036257844
 11
742.54159710858312
 21
828.20802177137125
  0
LINE
  8
_0-0_
  6
CONTINUOUS
 62
    7
 10
721.04160288217918
 20
1158.207997027389
 11
721.04160288217918
 21
828.20802177137125
  0
LINE
  8
_0-0_
  6
CONTINUOUS
 62
    7
 10
721.04160288217918
 20
828.20802177137125
 11
760.04160288217906
 21
828.20802177137125
  0
LINE
  8
_0-0_
  6
CONTINUOUS
 62
    7
 10
721.04160288217918
 20
1158.207997027389
 11
1021.041622677365
 21
1158.207997027389
  0
LINE
  8
_0-0_
  6
CONTINUOUS
 62
    7
 10
721.04160288217918
 20
1149.2079920785927
 11
765.0416193781673
 21
1149.2079920785927
  0
LINE
  8
_0-0_
  6
CONTINUOUS
 62
    7
 10
721.04160288217918
 20
1145.2080036257844
 11
760.04160288217906
 21
1145.2080036257844
  0
LINE
  8
_0-0_
  6
CONTINUOUS
 62
    7
 10
726.04161937816707
 20
1145.2080036257844
 11
726.04161937816707
 21
828.20802177137125
  0
LINE
  8
_0-0_
  6
CONTINUOUS
 62
    7
 10
721.04160288217918
 20
838.20805476334749
 11
726.04161937816707
 21
838.20805476334749
  0
LINE
  8
_0-1_
  6
CONTINUOUS
 62
    7
 10
721.04160288217918
 20
441.73022089777766
 11
726.04161937816707
 21
441.73022089777766
  0
LINE
  8
_0-1_
  6
CONTINUOUS
 62
    7
 10
726.04161937816707
 20
441.73022089777766
 11
726.04161937816707
 21
438.73022955817146
  0
LINE
  8
_0-1_
  6
CONTINUOUS
 62
    7
 10
721.04160288217918
 20
441.73022089777766
 11
721.04160288217918
 21
431.73021883577917
  0
LINE
  8
_0-1_
  6
CONTINUOUS
 62
    7
 10
760.04160288217906
 20
431.73021883577917
 11
721.04160288217918
 21
431.73021883577917
  0
LINE
  8
_0-1_
  6
CONTINUOUS
 62
    7
 10
721.04160288217918
 20
608.54959652065997
 11
726.04161937816707
 21
608.54959652065997
  0
LINE
  8
_0-1_
  6
CONTINUOUS
 62
    7
 10
726.04161937816707
 20
608.54959652065997
 11
726.04161937816707
 21
605.54957425107602
  0
LINE
  8
_0-1_
  6
CONTINUOUS
 62
    7
 10
721.04160288217918
 20
608.54959652065997
 11
721.04160288217918
 21
598.54956352868373
  0
LINE
  8
_0-1_
  6
CONTINUOUS
 62
    7
 10
762.75836841480157
 20
598.54956352868373
 11
721.04160288217918
 21
598.54956352868373
  0
LINE
  8
_0-1_
  6
CONTINUOUS
 62
    7
 10
738.54160865577501
 20
441.73022089777766
 11
742.54159710858312
 21
441.73022089777766
  0
LINE
  8
_0-1_
  6
CONTINUOUS
 62
    7
 10
738.54160865577501
 20
441.73022089777766
 11
738.54160865577501
 21
438.73022955817146
  0
LINE
  8
_0-1_
  6
CONTINUOUS
 62
    7
 10
742.54159710858312
 20
441.73022089777766
 11
742.54159710858312
 21
438.73022955817146
  0
LINE
  8
_0-1_
  6
CONTINUOUS
 62
    7
 10
742.54159710858312
 20
438.73022955817146
 11
760.04160288217906
 21
438.73022955817146
  0
LINE
  8
_0-1_
  6
CONTINUOUS
 62
    7
 10
738.54160865577501
 20
608.54959652065997
 11
742.54159710858312
 21
608.54959652065997
  0
LINE
  8
_0-1_
  6
CONTINUOUS
 62
    7
 10
738.54160865577501
 20
608.54959652065997
 11
738.54160865577501
 21
605.54957425107602
  0
LINE
  8
_0-1_
  6
CONTINUOUS
 62
    7
 10
742.54159710858312
 20
608.54959652065997
 11
742.54159710858312
 21
605.54957425107602
  0
LINE
  8
_0-1_
  6
CONTINUOUS
 62
    7
 10
742.54159710858312
 20
605.54957425107602
 11
760.04160288217906
 21
605.54957425107602
  0
LINE
  8
_0-1_
  6
CONTINUOUS
 62
    7
 10
726.04161937816707
 20
438.73022955817146
 11
738.54160865577501
 21
438.73022955817146
  0
LINE
  8
_0-1_
  6
CONTINUOUS
 62
    7
 10
726.04161937816707
 20
605.54957425107602
 11
738.54160865577501
 21
605.54957425107602
  0
POINT
  8
_0-2_
 62
    7
 10
721.04160288217918
 20
1310.3036605657237
  0
POINT
  8
_0-2_
 62
    7
 10
760.04160288217906
 20
1310.3036605657237
  0
LINE
  8
_0-2_
  6
CONTINUOUS
 62
    7
 10
721.04160288217918
 20
1310.3036605657237
 11
721.04160288217918
 21
1200.2371048252912
  0
LINE
  8
_0-2_
  6
CONTINUOUS
 62
    7
 10
760.04160288217906
 20
1310.3036605657237
 11
760.04160288217906
 21
1200.2371048252912
  0
LINE
  8
_0-2_
  6
CONTINUOUS
 62
    7
 10
721.04160288217918
 20
1310.3036605657237
 11
760.04160288217906
 21
1310.3036605657237
  0
TEXT
  8
_0-2_
 62
    7
 10
734.29160288217895
 20
1312.8036605657237
 40
12.5
 41
1
 50
0
  1
39
  0
POINT
  8
_0-2_
 62
    7
 10
1066.0416474213471
 20
1310.3036605657237
  0
LINE
  8
_0-2_
  6
CONTINUOUS
 62
    7
 10
1066.0416474213471
 20
1310.3036605657237
 11
1066.0416474213471
 21
1200.2371048252912
  0
LINE
  8
_0-2_
  6
CONTINUOUS
 62
    7
 10
760.04160288217906
 20
1310.3036605657237
 11
1066.0416474213471
 21
1310.3036605657237
  0
TEXT
  8
_0-2_
 62
    7
 10
903.66662515176301
 20
1312.8036605657237
 40
12.5
 41
1
 50
0
  1
306
  0
POINT
  8
_0-2_
 62
    7
 10
721.04160288217918
 20
702.31697171381029
  0
POINT
  8
_0-2_
 62
    7
 10
1066.0416474213471
 20
702.31697171381029
  0
LINE
  8
_0-2_
  6
CONTINUOUS
 62
    7
 10
721.04160288217918
 20
702.31697171381029
 11
721.04160288217918
 21
773.94758735440928
  0
LINE
  8
_0-2_
  6
CONTINUOUS
 62
    7
 10
1066.0416474213471
 20
702.31697171381029
 11
1066.0416474213471
 21
773.94758735440928
  0
LINE
  8
_0-2_
  6
CONTINUOUS
 62
    7
 10
721.04160288217918
 20
702.31697171381029
 11
1066.0416474213471
 21
702.31697171381029
  0
TEXT
  8
_0-2_
 62
    7
 10
884.16662515176313
 20
704.81697171381029
 40
12.5
 41
1
 50
0
  1
345
  0
POINT
  8
_0-2_
 62
    7
 10
721.04160288217918
 20
525.86106489184681
  0
POINT
  8
_0-2_
 62
    7
 10
1066.0416474213471
 20
525.86106489184681
  0
LINE
  8
_0-2_
  6
CONTINUOUS
 62
    7
 10
721.04160288217918
 20
525.86106489184681
 11
721.04160288217918
 21
567.79118136439263
  0
LINE
  8
_0-2_
  6
CONTINUOUS
 62
    7
 10
1066.0416474213471
 20
525.86106489184681
 11
1066.0416474213471
 21
567.79118136439263
  0
LINE
  8
_0-2_
  6
CONTINUOUS
 62
    7
 10
721.04160288217918
 20
525.86106489184681
 11
1066.0416474213471
 21
525.86106489184681
  0
TEXT
  8
_0-2_
 62
    7
 10
884.16662515176313
 20
528.36106489184681
 40
12.5
 41
1
 50
0
  1
345
  0
POINT
  8
_0-2_
 62
    7
 10
721.04160288217918
 20
295.2454242928452
  0
POINT
  8
_0-2_
 62
    7
 10
760.04160288217906
 20
295.2454242928452
  0
LINE
  8
_0-2_
  6
CONTINUOUS
 62
    7
 10
721.04160288217918
 20
295.2454242928452
 11
721.04160288217918
 21
373.86439267886851
  0
LINE
  8
_0-2_
  6
CONTINUOUS
 62
    7
 10
760.04160288217906
 20
295.2454242928452
 11
760.04160288217906
 21
373.86439267886851
  0
LINE
  8
_0-2_
  6
CONTINUOUS
 62
    7
 10
721.04160288217918
 20
295.2454242928452
 11
760.04160288217906
 21
295.2454242928452
  0
TEXT
  8
_0-2_
 62
    7
 10
734.29160288217895
 20
297.7454242928452
 40
12.5
 41
1
 50
0
  1
39
  0
POINT
  8
_0-2_
 62
    7
 10
1066.0416474213471
 20
295.2454242928452
  0
LINE
  8
_0-2_
  6
CONTINUOUS
 62
    7
 10
1066.0416474213471
 20
295.2454242928452
 11
1066.0416474213471
 21
373.86439267886851
  0
LINE
  8
_0-2_
  6
CONTINUOUS
 62
    7
 10
760.04160288217906
 20
295.2454242928452
 11
1066.0416474213471
 21
295.2454242928452
  0
TEXT
  8
_0-2_
 62
    7
 10
903.66662515176301
 20
297.7454242928452
 40
12.5
 41
1
 50
0
  1
306
  0
LINE
  8
_0-0_
  6
CONTINUOUS
 62
    7
 10
760.04160288217906
 20
808.20803991695823
 11
1066.0416474213471
 21
808.20803991695823
  0
LINE
  8
_0-0_
  6
CONTINUOUS
 62
    7
 10
1066.0416474213471
 20
1143.2080712593358
 11
1066.0416474213471
 21
808.20803991695823
  0
LINE
  8
_0-0_
  6
CONTINUOUS
 62
    7
 10
760.04160288217906
 20
1144.4795407879465
 11
760.04160288217906
 21
808.20803991695823
  0
LINE
  8
_0-0_
  6
CONTINUOUS
 62
    7
 10
760.04160288217906
 20
814.20802259617062
 11
1066.0416474213471
 21
814.20802259617062
  0
LINE
  8
_0-1_
  6
CONTINUOUS
 62
    7
 10
1365.7316028370524
 20
815.20805063935063
 11
1367.3498592770864
 21
811.20800032658667
  0
LINE
  8
_0-1_
  6
CONTINUOUS
 62
    7
 10
1367.3498592770864
 20
811.20800032658667
 11
1395.7315780930703
 21
808.20803991695823
  0
LINE
  8
_0-1_
  6
CONTINUOUS
 62
    7
 10
1380.7315286051057
 20
823.20802754496708
 11
1395.7315780930703
 21
816.20801682257479
  0
LINE
  8
_0-1_
  6
CONTINUOUS
 62
    7
 10
1395.7315780930703
 20
816.20801682257479
 11
1395.7315780930703
 21
808.20803991695823
  0
LINE
  8
_0-1_
  6
CONTINUOUS
 62
    7
 10
1380.7315286051057
 20
1140.2079871297963
 11
1380.7315286051057
 21
823.20802754496708
  0
LINE
  8
_0-1_
  6
CONTINUOUS
 62
    7
 10
1365.7316028370524
 20
1116.2079945529908
 11
1365.7316028370524
 21
815.20805063935063
  0
POINT
  8
_0-2_
 62
    7
 10
368.63560732113143
 20
1158.207997027389
  0
POINT
  8
_0-2_
 62
    7
 10
368.63560732113143
 20
808.20803991695823
  0
LINE
  8
_0-2_
  6
CONTINUOUS
 62
    7
 10
368.63560732113143
 20
1158.207997027389
 11
632.44592346089848
 21
1158.207997027389
  0
LINE
  8
_0-2_
  6
CONTINUOUS
 62
    7
 10
368.63560732113143
 20
808.20803991695823
 11
632.44592346089848
 21
808.20803991695823
  0
LINE
  8
_0-2_
  6
CONTINUOUS
 62
    7
 10
368.63560732113143
 20
1158.207997027389
 11
368.63560732113143
 21
808.20803991695823
  0
TEXT
  8
_0-2_
 62
    7
 10
366.13560732113143
 20
973.83301847217365
 40
12.5
 41
1
 50
90
  1
350
  0
POINT
  8
_0-2_
 62
    7
 10
454.24292845257901
 20
1158.207997027389
  0
POINT
  8
_0-2_
 62
    7
 10
454.24292845257901
 20
828.20802177137136
  0
LINE
  8
_0-2_
  6
CONTINUOUS
 62
    7
 10
454.24292845257901
 20
1158.207997027389
 11
632.44592346089848
 21
1158.207997027389
  0
LINE
  8
_0-2_
  6
CONTINUOUS
 62
    7
 10
454.24292845257901
 20
828.20802177137136
 11
632.44592346089848
 21
828.20802177137125
  0
LINE
  8
_0-2_
  6
CONTINUOUS
 62
    7
 10
454.24292845257901
 20
1158.207997027389
 11
454.24292845257901
 21
828.20802177137136
  0
TEXT
  8
_0-2_
 62
    7
 10
451.74292845257901
 20
983.8330093993801
 40
12.5
 41
1
 50
90
  1
330
  0
POINT
  8
_0-2_
 62
    7
 10
454.24292845257901
 20
808.20803991695823
  0
LINE
  8
_0-2_
  6
CONTINUOUS
 62
    7
 10
454.24292845257901
 20
808.20803991695823
 11
632.44592346089848
 21
808.20803991695823
  0
LINE
  8
_0-2_
  6
CONTINUOUS
 62
    7
 10
454.24292845257901
 20
828.20802177137136
 11
454.24292845257901
 21
808.20803991695823
  0
TEXT
  8
_0-2_
 62
    7
 10
451.74292845257901
 20
811.9580308441648
 40
12.5
 41
1
 50
90
  1
20
  0
POINT
  8
_0-2_
 62
    7
 10
454.24292845257901
 20
458.73023368216849
  0
POINT
  8
_0-2_
 62
    7
 10
454.24292845257901
 20
428.73022749617297
  0
LINE
  8
_0-2_
  6
CONTINUOUS
 62
    7
 10
454.24292845257901
 20
458.73023368216849
 11
632.44592346089848
 21
458.73023368216849
  0
LINE
  8
_0-2_
  6
CONTINUOUS
 62
    7
 10
454.24292845257901
 20
428.73022749617297
 11
632.44592346089848
 21
428.73022749617297
  0
LINE
  8
_0-2_
  6
CONTINUOUS
 62
    7
 10
454.24292845257901
 20
458.73023368216849
 11
454.24292845257901
 21
428.73022749617297
  0
TEXT
  8
_0-2_
 62
    7
 10
451.74292845257901
 20
437.48023058917067
 40
12.5
 41
1
 50
90
  1
30
  0
ENDSEC
  0
EOF
