0
SECTION
2
HEADER
  9
$EXTMIN
10
0
20
0
30
0
  9
$EXTMAX
10
1386.487
20
1336.284
30
0
  9
$LTSCALE
40
5.000
  9
$DIMSCALE
40
5.000
  9
$PDMODE
70
0
  9
$PDSIZE
40
40
0
ENDSEC
0
SECTION
2
TABLES
0
TABLE
2
LTYPE
70
9
0
LTYPE
5
1f4
2
CONTINUOUS
70
0
3
実線
72
65
73
0
40
0.0
0
LTYPE
5
1f5
2
DOT
70
0
3
--  --  --  --  --  --  --  --     
72
65
73
2
40
5.000
49
1.000
49
-4.000
0
LTYPE
5
1f6
2
DASHED
70
0
3
----    ----    ----    ----    
72
65
73
2
40
5.000
49
2.000
49
-3.000
0
LTYPE
5
1f7
2
DASHED2
70
0
3
------  ------  ------  ------ 
72
65
73
2
40
10.000
49
4.000
49
-6.000
0
LTYPE
5
1f8
2
CENTER
70
0
3
----- - ----- - ----- - ----- - 
72
65
73
4
40
9.000
49
6.000
49
-1.000
49
1.000
49
-1.000
0
LTYPE
5
1f9
2
CENTER2
70
0
3
----------  --  ----------  -- 
72
65
73
4
40
18.000
49
12.000
49
-2.000
49
2.000
49
-2.000
0
LTYPE
5
1fa
2
PHANTOM
70
0
3
--- - - --- - - --- - - --- - -
72
65
73
6
40
10.000
49
5.000
49
-1.000
49
1.000
49
-1.000
49
1.000
49
-1.000
0
LTYPE
5
1fb
2
PHANTOM2
70
0
3
--------  -  -  --------  -  -
72
65
73
6
40
16.000
49
6.000
49
-2.000
49
2.000
49
-2.000
49
2.000
49
-2.000
0
LTYPE
5
1fc
2
HIDDEN
70
0
3
-   -   -   -   -   -   -   -   
72
65
73
2
40
2.500
49
0.500
49
-2.000
0
ENDTAB
0
TABLE
2
STYLE
70
1
0
STYLE
5
1fd
100
AcDbSymbolTableRecord
100
AcDbTextStyleTableRecord
2
STANDARD
70
0
40
0.0
41
1.0
50
0.0
71
0
42
0.0
3
txt.shx
4
extfont.shx
0
STYLE
5
1fe
100
AcDbSymbolTableRecord
100
AcDbTextStyleTableRecord
2
TATEGAKI
70
4
40
0.0
41
1.0
50
0.0
71
0
42
0.0
3
txt.shx
4
extfont.shx
0
STYLE
5
1ff
100
AcDbSymbolTableRecord
100
AcDbTextStyleTableRecord
2
MT
70
0
40
0.0
41
1.0
50
0.0
71
0
42
0.0
3
MS Mincho
4

0
STYLE
5
200
100
AcDbSymbolTableRecord
100
AcDbTextStyleTableRecord
2
TMT
70
4
40
0.0
41
1.0
50
0.0
71
0
42
0.0
3
@MS Mincho
4

0
ENDTAB
0
TABLE
2
LAYER
5
446d
100
AcDbSymbolTable
70
10
0
LAYER
5
446e
100
AcDbSymbolTableRecord
100
AcDbLayerTableRecord
2
0
70
64
62
  7
  6
CONTINUOUS
0
LAYER
5
446f
100
AcDbSymbolTableRecord
100
AcDbLayerTableRecord
2
0-0
70
64
62
  7
  6
CONTINUOUS
0
LAYER
5
4470
100
AcDbSymbolTableRecord
100
AcDbLayerTableRecord
2
0-1
70
64
62
  7
  6
CONTINUOUS
0
LAYER
5
4471
100
AcDbSymbolTableRecord
100
AcDbLayerTableRecord
2
0-2
70
64
62
  7
  6
CONTINUOUS
0
LAYER
5
4472
100
AcDbSymbolTableRecord
100
AcDbLayerTableRecord
2
ADD_LINE
70
64
62
  -7
  6
CONTINUOUS
0
ENDTAB
0
ENDSEC
0
SECTION
2
ENTITIES
0
LINE
5
4473
8
0-0
6
CONTINUOUS
62
  7
10
685.135
20
1081.203
30
0.0
11
735.135
21
1081.203
31
0.0
0
LINE
5
4474
8
0-0
6
CONTINUOUS
62
  7
10
735.135
20
1081.203
30
0.0
11
735.135
21
824.203
31
0.0
0
LINE
5
4475
8
0-0
6
CONTINUOUS
62
  7
10
685.135
20
824.203
30
0.0
11
735.135
21
824.203
31
0.0
0
LINE
5
4476
8
0-0
6
CONTINUOUS
62
  7
10
685.135
20
1081.203
30
0.0
11
685.135
21
824.203
31
0.0
0
LINE
5
4477
8
0-0
6
CONTINUOUS
62
  7
10
735.135
20
1064.203
30
0.0
11
1020.135
21
1064.203
31
0.0
0
LINE
5
4478
8
0-0
6
CONTINUOUS
62
  7
10
1020.135
20
1064.203
30
0.0
11
1020.135
21
841.203
31
0.0
0
LINE
5
4479
8
0-0
6
CONTINUOUS
62
  7
10
735.135
20
841.203
30
0.0
11
1020.135
21
841.203
31
0.0
0
LINE
5
447a
8
0-0
6
CONTINUOUS
62
  7
10
735.135
20
1062.703
30
0.0
11
1020.135
21
1062.703
31
0.0
0
LINE
5
447b
8
0-0
6
CONTINUOUS
62
  7
10
735.135
20
842.703
30
0.0
11
1020.135
21
842.703
31
0.0
0
LINE
5
447c
8
0-0
6
CONTINUOUS
62
  7
10
998.135
20
1062.703
30
0.0
11
998.135
21
842.703
31
0.0
0
LINE
5
447d
8
0-0
6
CONTINUOUS
62
  7
10
1005.135
20
1062.703
30
0.0
11
1005.135
21
842.703
31
0.0
0
LINE
5
447e
8
0-0
6
CONTINUOUS
62
  7
10
685.135
20
829.203
30
0.0
11
735.135
21
829.203
31
0.0
0
LINE
5
447f
8
0-0
6
CONTINUOUS
62
  7
10
685.135
20
1076.203
30
0.0
11
735.135
21
1076.203
31
0.0
0
LINE
5
4480
8
0-0
6
CONTINUOUS
62
  7
10
685.135
20
454.054
30
0.0
11
1020.135
21
454.054
31
0.0
0
LINE
5
4481
8
0-0
6
CONTINUOUS
62
  7
10
735.135
20
554.054
30
0.0
11
735.135
21
454.054
31
0.0
0
LINE
5
4482
8
0-0
6
CONTINUOUS
62
  7
10
1020.135
20
538.054
30
0.0
11
1020.135
21
454.054
31
0.0
0
LINE
5
4483
8
0-0
6
CONTINUOUS
62
  7
10
735.135
20
484.054
30
0.0
11
1020.135
21
484.054
31
0.0
0
LINE
5
4484
8
0-0
6
CONTINUOUS
62
  7
10
998.135
20
538.054
30
0.0
11
998.135
21
461.054
31
0.0
0
LINE
5
4485
8
0-0
6
CONTINUOUS
62
  7
10
998.135
20
461.054
30
0.0
11
1005.135
21
461.054
31
0.0
0
LINE
5
4486
8
0-0
6
CONTINUOUS
62
  7
10
1005.135
20
538.054
30
0.0
11
1005.135
21
461.054
31
0.0
0
LINE
5
4487
8
0-0
6
CONTINUOUS
62
  7
10
735.135
20
538.054
30
0.0
11
998.135
21
538.054
31
0.0
0
LINE
5
4488
8
0-0
6
CONTINUOUS
62
  7
10
1005.135
20
538.054
30
0.0
11
1020.135
21
538.054
31
0.0
0
LINE
5
4489
8
0-0
6
CONTINUOUS
62
  7
10
1307.838
20
1061.203
30
0.0
11
1337.838
21
1062.703
31
0.0
0
LINE
5
448a
8
0-0
6
CONTINUOUS
62
  7
10
1256.838
20
964.703
30
0.0
11
1307.838
21
1061.203
31
0.0
0
LINE
5
448b
8
0-0
6
CONTINUOUS
62
  7
10
1318.838
20
1045.634
30
0.0
11
1333.838
21
1052.703
31
0.0
0
LINE
5
448c
8
0-0
6
CONTINUOUS
62
  7
10
1337.838
20
1062.703
30
0.0
11
1333.838
21
1052.703
31
0.0
0
LINE
5
448d
8
0-0
6
CONTINUOUS
62
  7
10
1307.838
20
844.203
30
0.0
11
1337.838
21
842.703
31
0.0
0
LINE
5
448e
8
0-0
6
CONTINUOUS
62
  7
10
1256.838
20
940.703
30
0.0
11
1307.838
21
844.203
31
0.0
0
LINE
5
448f
8
0-0
6
CONTINUOUS
62
  7
10
1318.838
20
859.772
30
0.0
11
1333.838
21
852.703
31
0.0
0
LINE
5
4490
8
0-0
6
CONTINUOUS
62
  7
10
1337.838
20
842.703
30
0.0
11
1333.838
21
852.703
31
0.0
0
LINE
5
4491
8
0-0
6
CONTINUOUS
62
  7
10
1269.724
20
952.703
30
0.0
11
1318.838
21
859.772
31
0.0
0
LINE
5
4492
8
0-0
6
CONTINUOUS
62
  7
10
1269.724
20
952.703
30
0.0
11
1318.838
21
1045.634
31
0.0
0
LINE
5
4493
8
0-2
6
CONTINUOUS
62
  7
10
685.135
20
1333.784
30
0.0
11
1020.135
21
1333.784
31
0.0
0
LINE
5
4494
8
0-2
6
CONTINUOUS
62
  7
10
685.135
20
1151.351
30
0.0
11
685.135
21
1333.784
31
0.0
0
LINE
5
4495
8
0-2
6
CONTINUOUS
62
  7
10
1020.135
20
1151.351
30
0.0
11
1020.135
21
1333.784
31
0.0
0
LINE
5
4496
8
0-2
6
CONTINUOUS
62
  7
10
1253.838
20
1333.784
30
0.0
11
1337.838
21
1333.784
31
0.0
0
LINE
5
4497
8
0-2
6
CONTINUOUS
62
  7
10
1253.838
20
1151.351
30
0.0
11
1253.838
21
1333.784
31
0.0
0
LINE
5
4498
8
0-2
6
CONTINUOUS
62
  7
10
1337.838
20
1151.351
30
0.0
11
1337.838
21
1333.784
31
0.0
0
LINE
5
4499
8
0-2
6
CONTINUOUS
62
  7
10
685.135
20
1252.703
30
0.0
11
735.135
21
1252.703
31
0.0
0
LINE
5
449a
8
0-2
6
CONTINUOUS
62
  7
10
685.135
20
1151.351
30
0.0
11
685.135
21
1252.703
31
0.0
0
LINE
5
449b
8
0-2
6
CONTINUOUS
62
  7
10
735.135
20
1151.351
30
0.0
11
735.135
21
1252.703
31
0.0
0
LINE
5
449c
8
0-2
6
CONTINUOUS
62
  7
10
735.135
20
1252.703
30
0.0
11
1020.135
21
1252.703
31
0.0
0
LINE
5
449d
8
0-2
6
CONTINUOUS
62
  7
10
1020.135
20
1151.351
30
0.0
11
1020.135
21
1252.703
31
0.0
0
LINE
5
449e
8
0-2
6
CONTINUOUS
62
  7
10
685.135
20
275.676
30
0.0
11
1020.135
21
275.676
31
0.0
0
LINE
5
449f
8
0-2
6
CONTINUOUS
62
  7
10
685.135
20
405.405
30
0.0
11
685.135
21
275.676
31
0.0
0
LINE
5
44a0
8
0-2
6
CONTINUOUS
62
  7
10
1020.135
20
405.405
30
0.0
11
1020.135
21
275.676
31
0.0
0
LINE
5
44a1
8
0-2
6
CONTINUOUS
62
  7
10
685.135
20
336.487
30
0.0
11
735.135
21
336.487
31
0.0
0
LINE
5
44a2
8
0-2
6
CONTINUOUS
62
  7
10
685.135
20
405.405
30
0.0
11
685.135
21
336.487
31
0.0
0
LINE
5
44a3
8
0-2
6
CONTINUOUS
62
  7
10
735.135
20
405.405
30
0.0
11
735.135
21
336.487
31
0.0
0
LINE
5
44a4
8
0-2
6
CONTINUOUS
62
  7
10
735.135
20
336.487
30
0.0
11
1020.135
21
336.487
31
0.0
0
LINE
5
44a5
8
0-2
6
CONTINUOUS
62
  7
10
1020.135
20
405.405
30
0.0
11
1020.135
21
336.487
31
0.0
0
LINE
5
44a6
8
0-2
6
CONTINUOUS
62
  7
10
393.243
20
1081.203
30
0.0
11
393.243
21
824.203
31
0.0
0
LINE
5
44a7
8
0-2
6
CONTINUOUS
62
  7
10
595.946
20
1081.203
30
0.0
11
393.243
21
1081.203
31
0.0
0
LINE
5
44a8
8
0-2
6
CONTINUOUS
62
  7
10
595.946
20
824.203
30
0.0
11
393.243
21
824.203
31
0.0
0
LINE
5
44a9
8
0-2
6
CONTINUOUS
62
  7
10
393.243
20
454.054
30
0.0
11
393.243
21
569.054
31
0.0
0
LINE
5
44aa
8
0-2
6
CONTINUOUS
62
  7
10
595.946
20
454.054
30
0.0
11
393.243
21
454.054
31
0.0
0
LINE
5
44ab
8
0-2
6
CONTINUOUS
62
  7
10
595.946
20
569.054
30
0.0
11
393.243
21
569.054
31
0.0
0
LINE
5
44ac
8
0-2
6
CONTINUOUS
62
  7
10
1135.135
20
1064.203
30
0.0
11
1135.135
21
841.203
31
0.0
0
LINE
5
44ad
8
0-2
6
CONTINUOUS
62
  7
10
1054.054
20
1064.203
30
0.0
11
1135.135
21
1064.203
31
0.0
0
LINE
5
44ae
8
0-2
6
CONTINUOUS
62
  7
10
1054.054
20
841.203
30
0.0
11
1135.135
21
841.203
31
0.0
0
LINE
5
44af
8
0-2
6
CONTINUOUS
62
  7
10
1135.135
20
538.054
30
0.0
11
1135.135
21
454.054
31
0.0
0
LINE
5
44b0
8
0-2
6
CONTINUOUS
62
  7
10
1054.054
20
538.054
30
0.0
11
1135.135
21
538.054
31
0.0
0
LINE
5
44b1
8
0-2
6
CONTINUOUS
62
  7
10
1054.054
20
454.054
30
0.0
11
1135.135
21
454.054
31
0.0
0
LINE
5
44b2
8
ADD_LINE
6
HIDDEN
62
  3
10
1208.108
20
952.703
30
0.0
11
1386.487
21
952.703
31
0.0
0
LINE
5
44b3
8
0-0
6
CONTINUOUS
62
  7
10
685.135
20
554.054
30
0.0
11
685.135
21
454.054
31
0.0
0
LINE
5
44b4
8
ADD_LINE
6
HIDDEN
62
  3
10
685.135
20
454.054
30
0.0
11
666.931
21
454.054
31
0.0
0
LINE
5
44b5
8
ADD_LINE
6
HIDDEN
62
  3
10
685.135
20
454.054
30
0.0
11
685.135
21
439.004
31
0.0
0
LINE
5
44b6
8
0-1
6
CONTINUOUS
62
  7
10
1096.035
20
454.054
30
0.0
11
1096.035
21
484.054
31
0.0
0
LINE
5
44b7
8
0-1
6
CONTINUOUS
62
  7
10
1054.054
20
454.054
30
0.0
11
1096.035
21
454.054
31
0.0
0
LINE
5
44b8
8
0-1
6
CONTINUOUS
62
  7
10
1054.054
20
484.054
30
0.0
11
1096.035
21
484.054
31
0.0
0
LINE
5
44b9
8
0-1
6
CONTINUOUS
62
  7
10
1096.035
20
484.054
30
0.0
11
1096.035
21
538.054
31
0.0
0
LINE
5
44ba
8
0-1
6
CONTINUOUS
62
  7
10
1054.054
20
538.054
30
0.0
11
1096.035
21
538.054
31
0.0
0
LINE
5
44bb
8
0-0
6
CONTINUOUS
62
  7
10
938.135
20
952.703
30
0.0
11
1020.135
21
952.703
31
0.0
0
LINE
5
44bc
8
0-0
6
CONTINUOUS
62
  7
10
685.135
20
952.703
30
0.0
11
782.135
21
952.703
31
0.0
0
LINE
5
44bd
8
0-0
6
CONTINUOUS
62
  7
10
788.135
20
952.703
30
0.0
11
932.135
21
952.703
31
0.0
0
LINE
5
44be
8
ADD_LINE
6
HIDDEN
62
  3
10
987.135
20
468.811
30
0.0
11
987.135
21
438.523
31
0.0
0
LINE
5
44bf
8
ADD_LINE
6
HIDDEN
62
  3
10
987.135
20
965.761
30
0.0
11
987.135
21
935.434
31
0.0
0
CIRCLE
5
44c0
8
0-0
6
CONTINUOUS
62
  7
10
785.135
20
952.703
30
0.0
40
3.000
0
CIRCLE
5
44c1
8
0-0
6
CONTINUOUS
62
  7
10
935.135
20
952.703
30
0.0
40
3.000
0
ARC
5
44c2
8
0-0
6
CONTINUOUS
62
  7
10
710.135
20
475.721
30
0.0
40
28.333
50
28.072449
51
151.927490
0
ARC
5
44c3
8
0-0
6
CONTINUOUS
62
  7
10
710.135
20
540.721
30
0.0
40
28.333
50
28.072449
51
151.927490
0
ARC
5
44c4
8
0-0
6
CONTINUOUS
62
  7
10
1001.635
20
538.596
30
0.0
40
3.542
50
188.796982
51
351.202881
0
ARC
5
44c5
8
0-0
6
CONTINUOUS
62
  7
10
1279.338
20
952.703
30
0.0
40
25.500
50
151.927933
51
208.072067
0
CIRCLE
5
44c6
8
ADD_LINE
6
HIDDEN
62
  3
10
685.135
20
454.054
30
0.0
40
3.000
0
CIRCLE
5
44c7
8
ADD_LINE
6
HIDDEN
62
  3
10
987.135
20
454.054
30
0.0
40
3.000
0
CIRCLE
5
44c8
8
ADD_LINE
6
HIDDEN
62
  3
10
987.135
20
952.703
30
0.0
40
3.000
0
CIRCLE
5
44c9
8
ADD_LINE
6
HIDDEN
62
  3
10
685.135
20
952.703
30
0.0
40
3.000
0
TEXT
5
44ca
100
AcDbEntity
8
0-2
62
7
100
AcDbText
10
843.260
20
1336.284
30
0.0
40
9.750
41
0.800
50
0.000
1
335
100
AcDbText
0
TEXT
5
44cb
100
AcDbEntity
8
0-2
62
7
100
AcDbText
10
1289.588
20
1336.284
30
0.0
40
9.750
41
0.800
50
0.000
1
84
100
AcDbText
0
TEXT
5
44cc
100
AcDbEntity
8
0-2
62
7
100
AcDbText
10
703.885
20
1255.203
30
0.0
40
9.750
41
0.800
50
0.000
1
50
100
AcDbText
0
TEXT
5
44cd
100
AcDbEntity
8
0-2
62
7
100
AcDbText
10
868.260
20
1255.203
30
0.0
40
9.750
41
0.800
50
0.000
1
285
100
AcDbText
0
TEXT
5
44ce
100
AcDbEntity
8
0-2
62
7
100
AcDbText
10
843.260
20
278.176
30
0.0
40
9.750
41
0.800
50
0.000
1
335
100
AcDbText
0
TEXT
5
44cf
100
AcDbEntity
8
0-2
62
7
100
AcDbText
10
703.885
20
338.987
30
0.0
40
9.750
41
0.800
50
0.000
1
50
100
AcDbText
0
TEXT
5
44d0
100
AcDbEntity
8
0-2
62
7
100
AcDbText
10
868.260
20
338.987
30
0.0
40
9.750
41
0.800
50
0.000
1
285
100
AcDbText
0
TEXT
5
44d1
100
AcDbEntity
8
0-2
62
7
100
AcDbText
10
390.743
20
943.328
30
0.0
40
9.750
41
0.800
50
90.000
1
257
100
AcDbText
0
TEXT
5
44d2
100
AcDbEntity
8
0-2
62
7
100
AcDbText
10
390.743
20
502.179
30
0.0
40
9.750
41
0.800
50
90.000
1
115
100
AcDbText
0
TEXT
5
44d3
100
AcDbEntity
8
0-2
62
7
100
AcDbText
10
1132.635
20
943.328
30
0.0
40
9.750
41
0.800
50
90.000
1
223
100
AcDbText
0
TEXT
5
44d4
100
AcDbEntity
8
0-2
62
7
100
AcDbText
10
1132.635
20
489.804
30
0.0
40
9.750
41
0.800
50
90.000
1
84
100
AcDbText
0
TEXT
5
44d5
100
AcDbEntity
8
0-1
62
7
100
AcDbText
10
1093.535
20
462.804
30
0.0
40
9.750
41
0.800
50
90.000
1
30
100
AcDbText
0
TEXT
5
44d6
100
AcDbEntity
8
0-1
62
7
100
AcDbText
10
1093.535
20
504.804
30
0.0
40
9.750
41
0.800
50
90.000
1
54
100
AcDbText
0
POINT
5
44d7
8
0-2
62
  7
10
685.135
20
1333.784
30
0.0
0
POINT
5
44d8
8
0-2
62
  7
10
1020.135
20
1333.784
30
0.0
0
POINT
5
44d9
8
0-2
62
  7
10
1253.838
20
1333.784
30
0.0
0
POINT
5
44da
8
0-2
62
  7
10
1337.838
20
1333.784
30
0.0
0
POINT
5
44db
8
0-2
62
  7
10
685.135
20
1252.703
30
0.0
0
POINT
5
44dc
8
0-2
62
  7
10
735.135
20
1252.703
30
0.0
0
POINT
5
44dd
8
0-2
62
  7
10
1020.135
20
1252.703
30
0.0
0
POINT
5
44de
8
0-2
62
  7
10
685.135
20
275.676
30
0.0
0
POINT
5
44df
8
0-2
62
  7
10
1020.135
20
275.676
30
0.0
0
POINT
5
44e0
8
0-2
62
  7
10
685.135
20
336.487
30
0.0
0
POINT
5
44e1
8
0-2
62
  7
10
735.135
20
336.487
30
0.0
0
POINT
5
44e2
8
0-2
62
  7
10
1020.135
20
336.487
30
0.0
0
POINT
5
44e3
8
0-2
62
  7
10
393.243
20
1081.203
30
0.0
0
POINT
5
44e4
8
0-2
62
  7
10
393.243
20
824.203
30
0.0
0
POINT
5
44e5
8
0-2
62
  7
10
393.243
20
454.054
30
0.0
0
POINT
5
44e6
8
0-2
62
  7
10
393.243
20
569.054
30
0.0
0
POINT
5
44e7
8
0-2
62
  7
10
1135.135
20
1064.203
30
0.0
0
POINT
5
44e8
8
0-2
62
  7
10
1135.135
20
841.203
30
0.0
0
POINT
5
44e9
8
0-2
62
  7
10
1135.135
20
538.054
30
0.0
0
POINT
5
44ea
8
0-2
62
  7
10
1135.135
20
454.054
30
0.0
0
POINT
5
44eb
8
0-1
62
  7
10
1096.035
20
454.054
30
0.0
0
POINT
5
44ec
8
0-1
62
  7
10
1096.035
20
484.054
30
0.0
0
POINT
5
44ed
8
0-1
62
  7
10
1096.035
20
538.054
30
0.0
0
ENDSEC
0
EOF
