0
SECTION
2
HEADER
  9
$EXTMIN
10
0
20
0
30
0
  9
$EXTMAX
10
1428.811
20
1579.829
30
0
  9
$LTSCALE
40
5.000
  9
$DIMSCALE
40
5.000
  9
$PDMODE
70
0
  9
$PDSIZE
40
40
0
ENDSEC
0
SECTION
2
TABLES
0
TABLE
2
LTYPE
70
9
0
LTYPE
5
1f4
2
CONTINUOUS
70
0
3
実線
72
65
73
0
40
0.0
0
LTYPE
5
1f5
2
DOT
70
0
3
--  --  --  --  --  --  --  --     
72
65
73
2
40
5.000
49
1.000
49
-4.000
0
LTYPE
5
1f6
2
DASHED
70
0
3
----    ----    ----    ----    
72
65
73
2
40
5.000
49
2.000
49
-3.000
0
LTYPE
5
1f7
2
DASHED2
70
0
3
------  ------  ------  ------ 
72
65
73
2
40
10.000
49
4.000
49
-6.000
0
LTYPE
5
1f8
2
CENTER
70
0
3
----- - ----- - ----- - ----- - 
72
65
73
4
40
9.000
49
6.000
49
-1.000
49
1.000
49
-1.000
0
LTYPE
5
1f9
2
CENTER2
70
0
3
----------  --  ----------  -- 
72
65
73
4
40
18.000
49
12.000
49
-2.000
49
2.000
49
-2.000
0
LTYPE
5
1fa
2
PHANTOM
70
0
3
--- - - --- - - --- - - --- - -
72
65
73
6
40
10.000
49
5.000
49
-1.000
49
1.000
49
-1.000
49
1.000
49
-1.000
0
LTYPE
5
1fb
2
PHANTOM2
70
0
3
--------  -  -  --------  -  -
72
65
73
6
40
16.000
49
6.000
49
-2.000
49
2.000
49
-2.000
49
2.000
49
-2.000
0
LTYPE
5
1fc
2
HIDDEN
70
0
3
-   -   -   -   -   -   -   -   
72
65
73
2
40
2.500
49
0.500
49
-2.000
0
ENDTAB
0
TABLE
2
STYLE
70
1
0
STYLE
5
1fd
100
AcDbSymbolTableRecord
100
AcDbTextStyleTableRecord
2
STANDARD
70
0
40
0.0
41
1.0
50
0.0
71
0
42
0.0
3
txt.shx
4
extfont.shx
0
STYLE
5
1fe
100
AcDbSymbolTableRecord
100
AcDbTextStyleTableRecord
2
TATEGAKI
70
4
40
0.0
41
1.0
50
0.0
71
0
42
0.0
3
txt.shx
4
extfont.shx
0
STYLE
5
1ff
100
AcDbSymbolTableRecord
100
AcDbTextStyleTableRecord
2
MT
70
0
40
0.0
41
1.0
50
0.0
71
0
42
0.0
3
MS Mincho
4

0
STYLE
5
200
100
AcDbSymbolTableRecord
100
AcDbTextStyleTableRecord
2
TMT
70
4
40
0.0
41
1.0
50
0.0
71
0
42
0.0
3
@MS Mincho
4

0
ENDTAB
0
TABLE
2
LAYER
5
3e8
100
AcDbSymbolTable
70
10
0
LAYER
5
3e9
100
AcDbSymbolTableRecord
100
AcDbLayerTableRecord
2
0
70
64
62
  7
  6
CONTINUOUS
0
LAYER
5
3ea
100
AcDbSymbolTableRecord
100
AcDbLayerTableRecord
2
0-0
70
64
62
  7
  6
CONTINUOUS
0
LAYER
5
3eb
100
AcDbSymbolTableRecord
100
AcDbLayerTableRecord
2
0-1
70
64
62
  7
  6
CONTINUOUS
0
LAYER
5
3ec
100
AcDbSymbolTableRecord
100
AcDbLayerTableRecord
2
0-2
70
64
62
  7
  6
CONTINUOUS
0
LAYER
5
3ed
100
AcDbSymbolTableRecord
100
AcDbLayerTableRecord
2
ADD_LINE
70
64
62
  -7
  6
CONTINUOUS
0
ENDTAB
0
ENDSEC
0
SECTION
2
ENTITIES
0
LINE
5
3ee
8
0-0
6
CONTINUOUS
62
  7
10
800.257
20
921.824
30
0.0
11
800.257
21
1247.824
31
0.0
0
LINE
5
3ef
8
0-0
6
CONTINUOUS
62
  7
10
1113.257
20
900.824
30
0.0
11
833.257
21
900.824
31
0.0
0
LINE
5
3f0
8
0-0
6
CONTINUOUS
62
  7
10
833.257
20
921.824
30
0.0
11
800.257
21
921.824
31
0.0
0
LINE
5
3f1
8
0-0
6
CONTINUOUS
62
  7
10
849.257
20
1234.824
30
0.0
11
872.257
21
1234.824
31
0.0
0
LINE
5
3f2
8
0-0
6
CONTINUOUS
62
  7
10
849.257
20
1247.824
30
0.0
11
849.257
21
1234.824
31
0.0
0
LINE
5
3f3
8
0-0
6
CONTINUOUS
62
  7
10
872.257
20
1247.824
30
0.0
11
872.257
21
1234.824
31
0.0
0
LINE
5
3f4
8
0-0
6
CONTINUOUS
62
  7
10
809.257
20
1240.824
30
0.0
11
845.257
21
1240.824
31
0.0
0
LINE
5
3f5
8
0-0
6
CONTINUOUS
62
  7
10
860.757
20
1242.824
30
0.0
11
849.257
21
1234.824
31
0.0
0
LINE
5
3f6
8
0-0
6
CONTINUOUS
62
  7
10
860.757
20
1242.824
30
0.0
11
872.257
21
1234.824
31
0.0
0
LINE
5
3f7
8
0-0
6
CONTINUOUS
62
  7
10
860.757
20
1247.824
30
0.0
11
860.757
21
1242.824
31
0.0
0
LINE
5
3f8
8
0-0
6
CONTINUOUS
62
  7
10
875.257
20
1229.824
30
0.0
11
846.257
21
1229.824
31
0.0
0
LINE
5
3f9
8
0-0
6
CONTINUOUS
62
  7
10
878.257
20
1232.824
30
0.0
11
878.257
21
1240.824
31
0.0
0
LINE
5
3fa
8
0-0
6
CONTINUOUS
62
  7
10
845.257
20
1234.324
30
0.0
11
845.257
21
1240.824
31
0.0
0
LINE
5
3fb
8
0-0
6
CONTINUOUS
62
  7
10
873.257
20
1231.324
30
0.0
11
848.257
21
1231.324
31
0.0
0
LINE
5
3fc
8
0-0
6
CONTINUOUS
62
  7
10
1113.257
20
1199.824
30
0.0
11
1113.257
21
900.824
31
0.0
0
LINE
5
3fd
8
0-0
6
CONTINUOUS
62
  7
10
1108.257
20
1199.824
30
0.0
11
1113.257
21
1199.824
31
0.0
0
LINE
5
3fe
8
0-0
6
CONTINUOUS
62
  7
10
1108.257
20
1222.824
30
0.0
11
1108.257
21
1199.824
31
0.0
0
LINE
5
3ff
8
0-0
6
CONTINUOUS
62
  7
10
1075.257
20
1222.824
30
0.0
11
1108.257
21
1222.824
31
0.0
0
LINE
5
400
8
0-0
6
CONTINUOUS
62
  7
10
800.257
20
1247.824
30
0.0
11
1075.257
21
1247.824
31
0.0
0
LINE
5
401
8
0-0
6
CONTINUOUS
62
  7
10
1075.257
20
1247.824
30
0.0
11
1075.257
21
1222.824
31
0.0
0
LINE
5
402
8
0-0
6
CONTINUOUS
62
  7
10
1075.257
20
1247.824
30
0.0
11
1092.257
21
1247.824
31
0.0
0
LINE
5
403
8
0-0
6
CONTINUOUS
62
  7
10
1092.257
20
1247.824
30
0.0
11
1092.257
21
1222.824
31
0.0
0
LINE
5
404
8
0-0
6
CONTINUOUS
62
  7
10
876.257
20
1234.324
30
0.0
11
876.257
21
1242.324
31
0.0
0
LINE
5
405
8
0-0
6
CONTINUOUS
62
  7
10
1097.257
20
1222.824
30
0.0
11
1097.257
21
1219.283
31
0.0
0
LINE
5
406
8
0-0
6
CONTINUOUS
62
  7
10
986.757
20
1234.824
30
0.0
11
1009.757
21
1234.824
31
0.0
0
LINE
5
407
8
0-0
6
CONTINUOUS
62
  7
10
986.757
20
1247.824
30
0.0
11
986.757
21
1234.824
31
0.0
0
LINE
5
408
8
0-0
6
CONTINUOUS
62
  7
10
1009.757
20
1247.824
30
0.0
11
1009.757
21
1234.824
31
0.0
0
LINE
5
409
8
0-0
6
CONTINUOUS
62
  7
10
1009.257
20
1231.824
30
0.0
11
987.257
21
1231.824
31
0.0
0
LINE
5
40a
8
0-0
6
CONTINUOUS
62
  7
10
1011.257
20
1229.824
30
0.0
11
985.257
21
1229.824
31
0.0
0
LINE
5
40b
8
0-0
6
CONTINUOUS
62
  7
10
998.257
20
1242.824
30
0.0
11
986.757
21
1234.824
31
0.0
0
LINE
5
40c
8
0-0
6
CONTINUOUS
62
  7
10
998.257
20
1242.824
30
0.0
11
1009.757
21
1234.824
31
0.0
0
LINE
5
40d
8
0-0
6
CONTINUOUS
62
  7
10
984.257
20
1234.824
30
0.0
11
984.257
21
1242.324
31
0.0
0
LINE
5
40e
8
0-0
6
CONTINUOUS
62
  7
10
1012.257
20
1234.824
30
0.0
11
1012.257
21
1242.324
31
0.0
0
LINE
5
40f
8
0-0
6
CONTINUOUS
62
  7
10
982.257
20
1232.824
30
0.0
11
982.257
21
1240.824
31
0.0
0
LINE
5
410
8
0-0
6
CONTINUOUS
62
  7
10
1014.257
20
1232.824
30
0.0
11
1014.257
21
1240.824
31
0.0
0
LINE
5
411
8
0-0
6
CONTINUOUS
62
  7
10
998.257
20
1247.824
30
0.0
11
998.257
21
1242.824
31
0.0
0
LINE
5
412
8
0-0
6
CONTINUOUS
62
  7
10
1014.257
20
1240.824
30
0.0
11
1027.257
21
1242.324
31
0.0
0
LINE
5
413
8
0-0
6
CONTINUOUS
62
  7
10
1051.257
20
1242.324
30
0.0
11
1071.257
21
1240.824
31
0.0
0
LINE
5
414
8
0-0
6
CONTINUOUS
62
  7
10
1051.257
20
1242.324
30
0.0
11
1072.257
21
1242.324
31
0.0
0
LINE
5
415
8
0-0
6
CONTINUOUS
62
  7
10
1072.257
20
1220.945
30
0.0
11
1072.257
21
1242.324
31
0.0
0
LINE
5
416
8
0-0
6
CONTINUOUS
62
  7
10
1074.374
20
1218.948
30
0.0
11
1097.257
21
1220.284
31
0.0
0
LINE
5
417
8
0-0
6
CONTINUOUS
62
  7
10
1073.373
20
1217.888
30
0.0
11
1097.257
21
1219.283
31
0.0
0
LINE
5
418
8
0-0
6
CONTINUOUS
62
  7
10
1071.257
20
1219.884
30
0.0
11
1071.257
21
1240.824
31
0.0
0
LINE
5
419
8
0-0
6
CONTINUOUS
62
  7
10
970.257
20
1242.324
30
0.0
11
982.257
21
1240.824
31
0.0
0
LINE
5
41a
8
0-0
6
CONTINUOUS
62
  7
10
878.257
20
1240.824
30
0.0
11
885.257
21
1242.324
31
0.0
0
LINE
5
41b
8
0-0
6
CONTINUOUS
62
  7
10
905.257
20
1242.324
30
0.0
11
950.256
21
1242.324
31
0.0
0
LINE
5
41c
8
0-0
6
CONTINUOUS
62
  7
10
970.257
20
1242.324
30
0.0
11
984.257
21
1242.324
31
0.0
0
LINE
5
41d
8
0-0
6
CONTINUOUS
62
  7
10
876.257
20
1242.324
30
0.0
11
885.257
21
1242.324
31
0.0
0
LINE
5
41e
8
0-0
6
CONTINUOUS
62
  7
10
885.257
20
1242.324
30
0.0
11
885.257
21
900.824
31
0.0
0
LINE
5
41f
8
0-0
6
CONTINUOUS
62
  7
10
1012.257
20
1242.324
30
0.0
11
1027.257
21
1242.324
31
0.0
0
LINE
5
420
8
0-0
6
CONTINUOUS
62
  7
10
1027.257
20
1242.324
30
0.0
11
1027.257
21
900.824
31
0.0
0
LINE
5
421
8
0-0
6
CONTINUOUS
62
  7
10
809.257
20
1238.824
30
0.0
11
843.257
21
1238.824
31
0.0
0
LINE
5
422
8
0-0
6
CONTINUOUS
62
  7
10
843.257
20
1232.824
30
0.0
11
843.257
21
1238.824
31
0.0
0
LINE
5
423
8
0-0
6
CONTINUOUS
62
  7
10
833.257
20
900.824
30
0.0
11
833.257
21
1238.824
31
0.0
0
LINE
5
424
8
0-0
6
CONTINUOUS
62
  7
10
809.257
20
961.824
30
0.0
11
809.257
21
1240.824
31
0.0
0
LINE
5
425
8
0-0
6
CONTINUOUS
62
  7
10
809.257
20
961.824
30
0.0
11
824.257
21
921.824
31
0.0
0
LINE
5
426
8
0-0
6
CONTINUOUS
62
  7
10
843.257
20
1206.824
30
0.0
11
836.923
21
1206.491
31
0.0
0
LINE
5
427
8
0-0
6
CONTINUOUS
62
  7
10
836.923
20
1206.491
30
0.0
11
835.590
21
1206.158
31
0.0
0
LINE
5
428
8
0-0
6
CONTINUOUS
62
  7
10
835.590
20
1206.158
30
0.0
11
834.701
21
1205.824
31
0.0
0
LINE
5
429
8
0-0
6
CONTINUOUS
62
  7
10
834.701
20
1205.824
30
0.0
11
834.257
21
1205.491
31
0.0
0
LINE
5
42a
8
0-0
6
CONTINUOUS
62
  7
10
834.257
20
1205.491
30
0.0
11
834.257
21
1205.158
31
0.0
0
LINE
5
42b
8
0-0
6
CONTINUOUS
62
  7
10
834.257
20
1205.158
30
0.0
11
834.701
21
1204.824
31
0.0
0
LINE
5
42c
8
0-0
6
CONTINUOUS
62
  7
10
834.701
20
1204.824
30
0.0
11
835.590
21
1204.491
31
0.0
0
LINE
5
42d
8
0-0
6
CONTINUOUS
62
  7
10
835.590
20
1204.491
30
0.0
11
836.923
21
1204.158
31
0.0
0
LINE
5
42e
8
0-0
6
CONTINUOUS
62
  7
10
836.923
20
1204.158
30
0.0
11
843.257
21
1203.824
31
0.0
0
LINE
5
42f
8
0-0
6
CONTINUOUS
62
  7
10
875.257
20
1206.824
30
0.0
11
881.590
21
1206.491
31
0.0
0
LINE
5
430
8
0-0
6
CONTINUOUS
62
  7
10
881.590
20
1206.491
30
0.0
11
882.923
21
1206.158
31
0.0
0
LINE
5
431
8
0-0
6
CONTINUOUS
62
  7
10
882.923
20
1206.158
30
0.0
11
883.812
21
1205.824
31
0.0
0
LINE
5
432
8
0-0
6
CONTINUOUS
62
  7
10
883.812
20
1205.824
30
0.0
11
884.257
21
1205.491
31
0.0
0
LINE
5
433
8
0-0
6
CONTINUOUS
62
  7
10
884.257
20
1205.491
30
0.0
11
884.257
21
1205.158
31
0.0
0
LINE
5
434
8
0-0
6
CONTINUOUS
62
  7
10
884.257
20
1205.158
30
0.0
11
883.812
21
1204.824
31
0.0
0
LINE
5
435
8
0-0
6
CONTINUOUS
62
  7
10
883.812
20
1204.824
30
0.0
11
882.923
21
1204.491
31
0.0
0
LINE
5
436
8
0-0
6
CONTINUOUS
62
  7
10
882.923
20
1204.491
30
0.0
11
881.590
21
1204.158
31
0.0
0
LINE
5
437
8
0-0
6
CONTINUOUS
62
  7
10
881.590
20
1204.158
30
0.0
11
875.257
21
1203.824
31
0.0
0
LINE
5
438
8
0-0
6
CONTINUOUS
62
  7
10
843.257
20
1206.824
30
0.0
11
875.257
21
1206.824
31
0.0
0
LINE
5
439
8
0-0
6
CONTINUOUS
62
  7
10
843.257
20
1203.824
30
0.0
11
875.257
21
1203.824
31
0.0
0
LINE
5
43a
8
0-0
6
CONTINUOUS
62
  7
10
988.656
20
1206.824
30
0.0
11
982.323
21
1206.491
31
0.0
0
LINE
5
43b
8
0-0
6
CONTINUOUS
62
  7
10
982.323
20
1206.491
30
0.0
11
980.990
21
1206.158
31
0.0
0
LINE
5
43c
8
0-0
6
CONTINUOUS
62
  7
10
980.990
20
1206.158
30
0.0
11
980.101
21
1205.824
31
0.0
0
LINE
5
43d
8
0-0
6
CONTINUOUS
62
  7
10
980.101
20
1205.824
30
0.0
11
979.656
21
1205.491
31
0.0
0
LINE
5
43e
8
0-0
6
CONTINUOUS
62
  7
10
979.656
20
1205.491
30
0.0
11
979.656
21
1205.158
31
0.0
0
LINE
5
43f
8
0-0
6
CONTINUOUS
62
  7
10
979.656
20
1205.158
30
0.0
11
980.101
21
1204.824
31
0.0
0
LINE
5
440
8
0-0
6
CONTINUOUS
62
  7
10
980.101
20
1204.824
30
0.0
11
980.990
21
1204.491
31
0.0
0
LINE
5
441
8
0-0
6
CONTINUOUS
62
  7
10
980.990
20
1204.491
30
0.0
11
982.323
21
1204.158
31
0.0
0
LINE
5
442
8
0-0
6
CONTINUOUS
62
  7
10
982.323
20
1204.158
30
0.0
11
988.656
21
1203.824
31
0.0
0
LINE
5
443
8
0-0
6
CONTINUOUS
62
  7
10
1014.757
20
1206.824
30
0.0
11
1021.090
21
1206.491
31
0.0
0
LINE
5
444
8
0-0
6
CONTINUOUS
62
  7
10
1021.090
20
1206.491
30
0.0
11
1022.424
21
1206.158
31
0.0
0
LINE
5
445
8
0-0
6
CONTINUOUS
62
  7
10
1022.424
20
1206.158
30
0.0
11
1023.312
21
1205.824
31
0.0
0
LINE
5
446
8
0-0
6
CONTINUOUS
62
  7
10
1023.312
20
1205.824
30
0.0
11
1023.757
21
1205.491
31
0.0
0
LINE
5
447
8
0-0
6
CONTINUOUS
62
  7
10
1023.757
20
1205.491
30
0.0
11
1023.757
21
1205.158
31
0.0
0
LINE
5
448
8
0-0
6
CONTINUOUS
62
  7
10
1023.757
20
1205.158
30
0.0
11
1023.312
21
1204.824
31
0.0
0
LINE
5
449
8
0-0
6
CONTINUOUS
62
  7
10
1023.312
20
1204.824
30
0.0
11
1022.424
21
1204.491
31
0.0
0
LINE
5
44a
8
0-0
6
CONTINUOUS
62
  7
10
1022.424
20
1204.491
30
0.0
11
1021.090
21
1204.158
31
0.0
0
LINE
5
44b
8
0-0
6
CONTINUOUS
62
  7
10
1021.090
20
1204.158
30
0.0
11
1014.757
21
1203.824
31
0.0
0
LINE
5
44c
8
0-0
6
CONTINUOUS
62
  7
10
988.656
20
1206.824
30
0.0
11
1014.757
21
1206.824
31
0.0
0
LINE
5
44d
8
0-0
6
CONTINUOUS
62
  7
10
988.656
20
1203.824
30
0.0
11
1014.757
21
1203.824
31
0.0
0
LINE
5
44e
8
0-0
6
CONTINUOUS
62
  7
10
809.257
20
1201.824
30
0.0
11
833.257
21
1177.824
31
0.0
0
LINE
5
44f
8
0-0
6
CONTINUOUS
62
  7
10
809.257
20
1208.896
30
0.0
11
833.257
21
1184.896
31
0.0
0
LINE
5
450
8
0-0
6
CONTINUOUS
62
  7
10
809.257
20
1143.824
30
0.0
11
833.257
21
1119.824
31
0.0
0
LINE
5
451
8
0-0
6
CONTINUOUS
62
  7
10
809.257
20
1150.896
30
0.0
11
833.257
21
1126.895
31
0.0
0
LINE
5
452
8
0-0
6
CONTINUOUS
62
  7
10
809.257
20
1092.896
30
0.0
11
833.257
21
1068.896
31
0.0
0
LINE
5
453
8
0-0
6
CONTINUOUS
62
  7
10
809.257
20
1085.824
30
0.0
11
833.257
21
1061.824
31
0.0
0
LINE
5
454
8
0-0
6
CONTINUOUS
62
  7
10
809.257
20
1034.896
30
0.0
11
833.257
21
1010.895
31
0.0
0
LINE
5
455
8
0-0
6
CONTINUOUS
62
  7
10
809.257
20
1027.824
30
0.0
11
833.257
21
1003.824
31
0.0
0
LINE
5
456
8
0-0
6
CONTINUOUS
62
  7
10
809.257
20
976.895
30
0.0
11
833.257
21
952.895
31
0.0
0
LINE
5
457
8
0-0
6
CONTINUOUS
62
  7
10
809.257
20
969.824
30
0.0
11
833.257
21
945.824
31
0.0
0
LINE
5
458
8
0-0
6
CONTINUOUS
62
  7
10
800.257
20
643.378
30
0.0
11
801.447
21
642.938
31
0.0
0
LINE
5
459
8
0-0
6
CONTINUOUS
62
  7
10
801.447
20
642.938
30
0.0
11
802.708
21
642.483
31
0.0
0
LINE
5
45a
8
0-0
6
CONTINUOUS
62
  7
10
802.708
20
642.483
30
0.0
11
804.028
21
642.019
31
0.0
0
LINE
5
45b
8
0-0
6
CONTINUOUS
62
  7
10
804.028
20
642.019
30
0.0
11
805.396
21
641.549
31
0.0
0
LINE
5
45c
8
0-0
6
CONTINUOUS
62
  7
10
805.396
20
641.549
30
0.0
11
806.802
21
641.079
31
0.0
0
LINE
5
45d
8
0-0
6
CONTINUOUS
62
  7
10
806.802
20
641.079
30
0.0
11
808.238
21
640.613
31
0.0
0
LINE
5
45e
8
0-0
6
CONTINUOUS
62
  7
10
808.238
20
640.613
30
0.0
11
809.695
21
640.156
31
0.0
0
LINE
5
45f
8
0-0
6
CONTINUOUS
62
  7
10
809.695
20
640.156
30
0.0
11
811.167
21
639.709
31
0.0
0
LINE
5
460
8
0-0
6
CONTINUOUS
62
  7
10
811.167
20
639.709
30
0.0
11
812.647
21
639.279
31
0.0
0
LINE
5
461
8
0-0
6
CONTINUOUS
62
  7
10
812.647
20
639.279
30
0.0
11
814.130
21
638.866
31
0.0
0
LINE
5
462
8
0-0
6
CONTINUOUS
62
  7
10
814.130
20
638.866
30
0.0
11
815.612
21
638.475
31
0.0
0
LINE
5
463
8
0-0
6
CONTINUOUS
62
  7
10
815.612
20
638.475
30
0.0
11
817.091
21
638.109
31
0.0
0
LINE
5
464
8
0-0
6
CONTINUOUS
62
  7
10
817.091
20
638.109
30
0.0
11
818.563
21
637.768
31
0.0
0
LINE
5
465
8
0-0
6
CONTINUOUS
62
  7
10
818.563
20
637.768
30
0.0
11
820.027
21
637.456
31
0.0
0
LINE
5
466
8
0-0
6
CONTINUOUS
62
  7
10
820.027
20
637.456
30
0.0
11
821.484
21
637.175
31
0.0
0
LINE
5
467
8
0-0
6
CONTINUOUS
62
  7
10
821.484
20
637.175
30
0.0
11
822.933
21
636.925
31
0.0
0
LINE
5
468
8
0-0
6
CONTINUOUS
62
  7
10
822.933
20
636.925
30
0.0
11
824.376
21
636.709
31
0.0
0
LINE
5
469
8
0-0
6
CONTINUOUS
62
  7
10
824.376
20
636.709
30
0.0
11
825.817
21
636.526
31
0.0
0
LINE
5
46a
8
0-0
6
CONTINUOUS
62
  7
10
825.817
20
636.526
30
0.0
11
827.257
21
636.378
31
0.0
0
LINE
5
46b
8
0-0
6
CONTINUOUS
62
  7
10
827.257
20
636.378
30
0.0
11
827.257
21
634.378
31
0.0
0
LINE
5
46c
8
0-0
6
CONTINUOUS
62
  7
10
827.257
20
634.378
30
0.0
11
827.791
21
634.110
31
0.0
0
LINE
5
46d
8
0-0
6
CONTINUOUS
62
  7
10
827.791
20
634.110
30
0.0
11
828.275
21
633.869
31
0.0
0
LINE
5
46e
8
0-0
6
CONTINUOUS
62
  7
10
828.275
20
633.869
30
0.0
11
828.717
21
633.651
31
0.0
0
LINE
5
46f
8
0-0
6
CONTINUOUS
62
  7
10
828.717
20
633.651
30
0.0
11
829.126
21
633.452
31
0.0
0
LINE
5
470
8
0-0
6
CONTINUOUS
62
  7
10
829.126
20
633.452
30
0.0
11
829.507
21
633.268
31
0.0
0
LINE
5
471
8
0-0
6
CONTINUOUS
62
  7
10
829.507
20
633.268
30
0.0
11
829.867
21
633.096
31
0.0
0
LINE
5
472
8
0-0
6
CONTINUOUS
62
  7
10
829.867
20
633.096
30
0.0
11
830.208
21
632.935
31
0.0
0
LINE
5
473
8
0-0
6
CONTINUOUS
62
  7
10
830.208
20
632.935
30
0.0
11
830.535
21
632.782
31
0.0
0
LINE
5
474
8
0-0
6
CONTINUOUS
62
  7
10
830.535
20
632.782
30
0.0
11
830.851
21
632.638
31
0.0
0
LINE
5
475
8
0-0
6
CONTINUOUS
62
  7
10
830.851
20
632.638
30
0.0
11
831.157
21
632.500
31
0.0
0
LINE
5
476
8
0-0
6
CONTINUOUS
62
  7
10
831.157
20
632.500
30
0.0
11
831.456
21
632.368
31
0.0
0
LINE
5
477
8
0-0
6
CONTINUOUS
62
  7
10
831.456
20
632.368
30
0.0
11
831.749
21
632.242
31
0.0
0
LINE
5
478
8
0-0
6
CONTINUOUS
62
  7
10
831.749
20
632.242
30
0.0
11
832.039
21
632.120
31
0.0
0
LINE
5
479
8
0-0
6
CONTINUOUS
62
  7
10
832.039
20
632.120
30
0.0
11
832.326
21
632.002
31
0.0
0
LINE
5
47a
8
0-0
6
CONTINUOUS
62
  7
10
832.326
20
632.002
30
0.0
11
832.612
21
631.888
31
0.0
0
LINE
5
47b
8
0-0
6
CONTINUOUS
62
  7
10
832.612
20
631.888
30
0.0
11
832.897
21
631.777
31
0.0
0
LINE
5
47c
8
0-0
6
CONTINUOUS
62
  7
10
832.897
20
631.777
30
0.0
11
833.183
21
631.669
31
0.0
0
LINE
5
47d
8
0-0
6
CONTINUOUS
62
  7
10
833.183
20
631.669
30
0.0
11
833.471
21
631.564
31
0.0
0
LINE
5
47e
8
0-0
6
CONTINUOUS
62
  7
10
833.471
20
631.564
30
0.0
11
833.760
21
631.462
31
0.0
0
LINE
5
47f
8
0-0
6
CONTINUOUS
62
  7
10
833.760
20
631.462
30
0.0
11
834.052
21
631.362
31
0.0
0
LINE
5
480
8
0-0
6
CONTINUOUS
62
  7
10
834.052
20
631.362
30
0.0
11
834.348
21
631.263
31
0.0
0
LINE
5
481
8
0-0
6
CONTINUOUS
62
  7
10
834.348
20
631.263
30
0.0
11
834.646
21
631.167
31
0.0
0
LINE
5
482
8
0-0
6
CONTINUOUS
62
  7
10
834.646
20
631.167
30
0.0
11
834.948
21
631.073
31
0.0
0
LINE
5
483
8
0-0
6
CONTINUOUS
62
  7
10
834.948
20
631.073
30
0.0
11
835.254
21
630.981
31
0.0
0
LINE
5
484
8
0-0
6
CONTINUOUS
62
  7
10
835.254
20
630.981
30
0.0
11
835.564
21
630.890
31
0.0
0
LINE
5
485
8
0-0
6
CONTINUOUS
62
  7
10
835.564
20
630.890
30
0.0
11
835.879
21
630.801
31
0.0
0
LINE
5
486
8
0-0
6
CONTINUOUS
62
  7
10
835.879
20
630.801
30
0.0
11
836.197
21
630.714
31
0.0
0
LINE
5
487
8
0-0
6
CONTINUOUS
62
  7
10
836.197
20
630.714
30
0.0
11
836.521
21
630.629
31
0.0
0
LINE
5
488
8
0-0
6
CONTINUOUS
62
  7
10
836.521
20
630.629
30
0.0
11
836.850
21
630.546
31
0.0
0
LINE
5
489
8
0-0
6
CONTINUOUS
62
  7
10
836.850
20
630.546
30
0.0
11
837.184
21
630.465
31
0.0
0
LINE
5
48a
8
0-0
6
CONTINUOUS
62
  7
10
837.184
20
630.465
30
0.0
11
837.525
21
630.386
31
0.0
0
LINE
5
48b
8
0-0
6
CONTINUOUS
62
  7
10
837.525
20
630.386
30
0.0
11
837.873
21
630.309
31
0.0
0
LINE
5
48c
8
0-0
6
CONTINUOUS
62
  7
10
837.873
20
630.309
30
0.0
11
838.230
21
630.235
31
0.0
0
LINE
5
48d
8
0-0
6
CONTINUOUS
62
  7
10
838.230
20
630.235
30
0.0
11
838.596
21
630.162
31
0.0
0
LINE
5
48e
8
0-0
6
CONTINUOUS
62
  7
10
838.596
20
630.162
30
0.0
11
838.974
21
630.092
31
0.0
0
LINE
5
48f
8
0-0
6
CONTINUOUS
62
  7
10
838.974
20
630.092
30
0.0
11
839.366
21
630.024
31
0.0
0
LINE
5
490
8
0-0
6
CONTINUOUS
62
  7
10
839.366
20
630.024
30
0.0
11
839.774
21
629.959
31
0.0
0
LINE
5
491
8
0-0
6
CONTINUOUS
62
  7
10
839.774
20
629.959
30
0.0
11
840.201
21
629.895
31
0.0
0
LINE
5
492
8
0-0
6
CONTINUOUS
62
  7
10
840.201
20
629.895
30
0.0
11
840.651
21
629.834
31
0.0
0
LINE
5
493
8
0-0
6
CONTINUOUS
62
  7
10
840.651
20
629.834
30
0.0
11
841.128
21
629.774
31
0.0
0
LINE
5
494
8
0-0
6
CONTINUOUS
62
  7
10
841.128
20
629.774
30
0.0
11
841.635
21
629.717
31
0.0
0
LINE
5
495
8
0-0
6
CONTINUOUS
62
  7
10
841.635
20
629.717
30
0.0
11
842.178
21
629.661
31
0.0
0
LINE
5
496
8
0-0
6
CONTINUOUS
62
  7
10
842.178
20
629.661
30
0.0
11
842.761
21
629.607
31
0.0
0
LINE
5
497
8
0-0
6
CONTINUOUS
62
  7
10
842.761
20
629.607
30
0.0
11
843.391
21
629.554
31
0.0
0
LINE
5
498
8
0-0
6
CONTINUOUS
62
  7
10
843.391
20
629.554
30
0.0
11
844.072
21
629.502
31
0.0
0
LINE
5
499
8
0-0
6
CONTINUOUS
62
  7
10
844.072
20
629.502
30
0.0
11
844.812
21
629.451
31
0.0
0
LINE
5
49a
8
0-0
6
CONTINUOUS
62
  7
10
844.812
20
629.451
30
0.0
11
845.616
21
629.401
31
0.0
0
LINE
5
49b
8
0-0
6
CONTINUOUS
62
  7
10
845.616
20
629.401
30
0.0
11
846.491
21
629.351
31
0.0
0
LINE
5
49c
8
0-0
6
CONTINUOUS
62
  7
10
846.491
20
629.351
30
0.0
11
847.443
21
629.302
31
0.0
0
LINE
5
49d
8
0-0
6
CONTINUOUS
62
  7
10
847.443
20
629.302
30
0.0
11
848.480
21
629.252
31
0.0
0
LINE
5
49e
8
0-0
6
CONTINUOUS
62
  7
10
848.480
20
629.252
30
0.0
11
849.607
21
629.202
31
0.0
0
LINE
5
49f
8
0-0
6
CONTINUOUS
62
  7
10
849.607
20
629.202
30
0.0
11
850.832
21
629.151
31
0.0
0
LINE
5
4a0
8
0-0
6
CONTINUOUS
62
  7
10
850.832
20
629.151
30
0.0
11
852.160
21
629.100
31
0.0
0
LINE
5
4a1
8
0-0
6
CONTINUOUS
62
  7
10
852.160
20
629.100
30
0.0
11
853.598
21
629.047
31
0.0
0
LINE
5
4a2
8
0-0
6
CONTINUOUS
62
  7
10
853.598
20
629.047
30
0.0
11
855.153
21
628.994
31
0.0
0
LINE
5
4a3
8
0-0
6
CONTINUOUS
62
  7
10
855.153
20
628.994
30
0.0
11
856.832
21
628.938
31
0.0
0
LINE
5
4a4
8
0-0
6
CONTINUOUS
62
  7
10
856.832
20
628.938
30
0.0
11
858.643
21
628.881
31
0.0
0
LINE
5
4a5
8
0-0
6
CONTINUOUS
62
  7
10
858.643
20
628.881
30
0.0
11
860.594
21
628.822
31
0.0
0
LINE
5
4a6
8
0-0
6
CONTINUOUS
62
  7
10
860.594
20
628.822
30
0.0
11
862.698
21
628.760
31
0.0
0
LINE
5
4a7
8
0-0
6
CONTINUOUS
62
  7
10
862.698
20
628.760
30
0.0
11
864.970
21
628.694
31
0.0
0
LINE
5
4a8
8
0-0
6
CONTINUOUS
62
  7
10
864.970
20
628.694
30
0.0
11
867.430
21
628.625
31
0.0
0
LINE
5
4a9
8
0-0
6
CONTINUOUS
62
  7
10
867.430
20
628.625
30
0.0
11
870.104
21
628.550
31
0.0
0
LINE
5
4aa
8
0-0
6
CONTINUOUS
62
  7
10
870.104
20
628.550
30
0.0
11
873.030
21
628.469
31
0.0
0
LINE
5
4ab
8
0-0
6
CONTINUOUS
62
  7
10
873.030
20
628.469
30
0.0
11
876.257
21
628.378
31
0.0
0
LINE
5
4ac
8
0-0
6
CONTINUOUS
62
  7
10
1110.257
20
646.378
30
0.0
11
1113.257
21
646.378
31
0.0
0
LINE
5
4ad
8
0-0
6
CONTINUOUS
62
  7
10
1110.257
20
647.378
30
0.0
11
1110.257
21
646.378
31
0.0
0
LINE
5
4ae
8
0-2
6
CONTINUOUS
62
  7
10
801.257
20
658.321
30
0.0
11
800.257
21
657.378
31
0.0
0
LINE
5
4af
8
0-2
6
CONTINUOUS
62
  7
10
801.257
20
658.321
30
0.0
11
807.257
21
654.378
31
0.0
0
LINE
5
4b0
8
0-0
6
CONTINUOUS
62
  7
10
807.257
20
654.378
30
0.0
11
809.257
21
651.378
31
0.0
0
LINE
5
4b1
8
0-0
6
CONTINUOUS
62
  7
10
800.257
20
657.378
30
0.0
11
800.257
21
643.378
31
0.0
0
LINE
5
4b2
8
0-2
6
CONTINUOUS
62
  7
10
833.097
20
645.993
30
0.0
11
833.605
21
645.737
31
0.0
0
LINE
5
4b3
8
0-2
6
CONTINUOUS
62
  7
10
833.605
20
645.737
30
0.0
11
834.048
21
645.517
31
0.0
0
LINE
5
4b4
8
0-2
6
CONTINUOUS
62
  7
10
834.048
20
645.517
30
0.0
11
834.437
21
645.325
31
0.0
0
LINE
5
4b5
8
0-2
6
CONTINUOUS
62
  7
10
834.437
20
645.325
30
0.0
11
834.804
21
645.146
31
0.0
0
LINE
5
4b6
8
0-2
6
CONTINUOUS
62
  7
10
834.804
20
645.146
30
0.0
11
835.137
21
644.985
31
0.0
0
LINE
5
4b7
8
0-2
6
CONTINUOUS
62
  7
10
835.137
20
644.985
30
0.0
11
835.440
21
644.840
31
0.0
0
LINE
5
4b8
8
0-2
6
CONTINUOUS
62
  7
10
835.440
20
644.840
30
0.0
11
835.728
21
644.704
31
0.0
0
LINE
5
4b9
8
0-2
6
CONTINUOUS
62
  7
10
835.728
20
644.704
30
0.0
11
835.984
21
644.586
31
0.0
0
LINE
5
4ba
8
0-2
6
CONTINUOUS
62
  7
10
835.984
20
644.586
30
0.0
11
836.223
21
644.476
31
0.0
0
LINE
5
4bb
8
0-2
6
CONTINUOUS
62
  7
10
836.223
20
644.476
30
0.0
11
836.446
21
644.375
31
0.0
0
LINE
5
4bc
8
0-2
6
CONTINUOUS
62
  7
10
836.446
20
644.375
30
0.0
11
836.652
21
644.285
31
0.0
0
LINE
5
4bd
8
0-2
6
CONTINUOUS
62
  7
10
836.652
20
644.285
30
0.0
11
836.847
21
644.201
31
0.0
0
LINE
5
4be
8
0-2
6
CONTINUOUS
62
  7
10
836.847
20
644.201
30
0.0
11
837.027
21
644.125
31
0.0
0
LINE
5
4bf
8
0-2
6
CONTINUOUS
62
  7
10
837.027
20
644.125
30
0.0
11
837.204
21
644.052
31
0.0
0
LINE
5
4c0
8
0-2
6
CONTINUOUS
62
  7
10
837.204
20
644.052
30
0.0
11
837.371
21
643.986
31
0.0
0
LINE
5
4c1
8
0-2
6
CONTINUOUS
62
  7
10
837.371
20
643.986
30
0.0
11
837.538
21
643.921
31
0.0
0
LINE
5
4c2
8
0-2
6
CONTINUOUS
62
  7
10
837.538
20
643.921
30
0.0
11
837.704
21
643.858
31
0.0
0
LINE
5
4c3
8
0-2
6
CONTINUOUS
62
  7
10
837.704
20
643.858
30
0.0
11
837.872
21
643.797
31
0.0
0
LINE
5
4c4
8
0-2
6
CONTINUOUS
62
  7
10
837.872
20
643.797
30
0.0
11
838.039
21
643.738
31
0.0
0
LINE
5
4c5
8
0-2
6
CONTINUOUS
62
  7
10
838.039
20
643.738
30
0.0
11
838.216
21
643.677
31
0.0
0
LINE
5
4c6
8
0-2
6
CONTINUOUS
62
  7
10
838.216
20
643.677
30
0.0
11
838.393
21
643.618
31
0.0
0
LINE
5
4c7
8
0-2
6
CONTINUOUS
62
  7
10
838.393
20
643.618
30
0.0
11
838.576
21
643.559
31
0.0
0
LINE
5
4c8
8
0-2
6
CONTINUOUS
62
  7
10
838.576
20
643.559
30
0.0
11
838.766
21
643.500
31
0.0
0
LINE
5
4c9
8
0-2
6
CONTINUOUS
62
  7
10
838.766
20
643.500
30
0.0
11
838.955
21
643.443
31
0.0
0
LINE
5
4ca
8
0-2
6
CONTINUOUS
62
  7
10
838.955
20
643.443
30
0.0
11
839.153
21
643.385
31
0.0
0
LINE
5
4cb
8
0-2
6
CONTINUOUS
62
  7
10
839.153
20
643.385
30
0.0
11
839.356
21
643.328
31
0.0
0
LINE
5
4cc
8
0-2
6
CONTINUOUS
62
  7
10
839.356
20
643.328
30
0.0
11
839.556
21
643.273
31
0.0
0
LINE
5
4cd
8
0-2
6
CONTINUOUS
62
  7
10
839.556
20
643.273
30
0.0
11
839.767
21
643.218
31
0.0
0
LINE
5
4ce
8
0-2
6
CONTINUOUS
62
  7
10
839.767
20
643.218
30
0.0
11
839.970
21
643.166
31
0.0
0
LINE
5
4cf
8
0-2
6
CONTINUOUS
62
  7
10
839.970
20
643.166
30
0.0
11
840.184
21
643.115
31
0.0
0
LINE
5
4d0
8
0-2
6
CONTINUOUS
62
  7
10
840.184
20
643.115
30
0.0
11
840.392
21
643.066
31
0.0
0
LINE
5
4d1
8
0-2
6
CONTINUOUS
62
  7
10
840.392
20
643.066
30
0.0
11
840.606
21
643.019
31
0.0
0
LINE
5
4d2
8
0-2
6
CONTINUOUS
62
  7
10
840.606
20
643.019
30
0.0
11
840.821
21
642.974
31
0.0
0
LINE
5
4d3
8
0-2
6
CONTINUOUS
62
  7
10
840.821
20
642.974
30
0.0
11
841.045
21
642.930
31
0.0
0
LINE
5
4d4
8
0-2
6
CONTINUOUS
62
  7
10
841.045
20
642.930
30
0.0
11
841.269
21
642.888
31
0.0
0
LINE
5
4d5
8
0-2
6
CONTINUOUS
62
  7
10
841.269
20
642.888
30
0.0
11
841.509
21
642.847
31
0.0
0
LINE
5
4d6
8
0-2
6
CONTINUOUS
62
  7
10
841.509
20
642.847
30
0.0
11
841.762
21
642.806
31
0.0
0
LINE
5
4d7
8
0-2
6
CONTINUOUS
62
  7
10
841.762
20
642.806
30
0.0
11
842.035
21
642.765
31
0.0
0
LINE
5
4d8
8
0-2
6
CONTINUOUS
62
  7
10
842.035
20
642.765
30
0.0
11
842.334
21
642.725
31
0.0
0
LINE
5
4d9
8
0-2
6
CONTINUOUS
62
  7
10
842.334
20
642.725
30
0.0
11
842.665
21
642.683
31
0.0
0
LINE
5
4da
8
0-2
6
CONTINUOUS
62
  7
10
842.665
20
642.683
30
0.0
11
843.032
21
642.642
31
0.0
0
LINE
5
4db
8
0-2
6
CONTINUOUS
62
  7
10
843.032
20
642.642
30
0.0
11
843.445
21
642.599
31
0.0
0
LINE
5
4dc
8
0-2
6
CONTINUOUS
62
  7
10
843.445
20
642.599
30
0.0
11
843.904
21
642.557
31
0.0
0
LINE
5
4dd
8
0-2
6
CONTINUOUS
62
  7
10
843.904
20
642.557
30
0.0
11
844.427
21
642.513
31
0.0
0
LINE
5
4de
8
0-2
6
CONTINUOUS
62
  7
10
844.427
20
642.513
30
0.0
11
845.010
21
642.469
31
0.0
0
LINE
5
4df
8
0-2
6
CONTINUOUS
62
  7
10
845.010
20
642.469
30
0.0
11
845.665
21
642.423
31
0.0
0
LINE
5
4e0
8
0-2
6
CONTINUOUS
62
  7
10
845.665
20
642.423
30
0.0
11
846.388
21
642.378
31
0.0
0
LINE
5
4e1
8
0-2
6
CONTINUOUS
62
  7
10
846.388
20
642.378
30
0.0
11
847.198
21
642.332
31
0.0
0
LINE
5
4e2
8
0-2
6
CONTINUOUS
62
  7
10
847.198
20
642.332
30
0.0
11
848.093
21
642.286
31
0.0
0
LINE
5
4e3
8
0-2
6
CONTINUOUS
62
  7
10
848.093
20
642.286
30
0.0
11
849.075
21
642.239
31
0.0
0
LINE
5
4e4
8
0-2
6
CONTINUOUS
62
  7
10
849.075
20
642.239
30
0.0
11
850.166
21
642.190
31
0.0
0
LINE
5
4e5
8
0-2
6
CONTINUOUS
62
  7
10
850.166
20
642.190
30
0.0
11
851.353
21
642.141
31
0.0
0
LINE
5
4e6
8
0-2
6
CONTINUOUS
62
  7
10
851.353
20
642.141
30
0.0
11
852.653
21
642.091
31
0.0
0
LINE
5
4e7
8
0-2
6
CONTINUOUS
62
  7
10
852.653
20
642.091
30
0.0
11
854.058
21
642.039
31
0.0
0
LINE
5
4e8
8
0-2
6
CONTINUOUS
62
  7
10
854.058
20
642.039
30
0.0
11
855.582
21
641.987
31
0.0
0
LINE
5
4e9
8
0-2
6
CONTINUOUS
62
  7
10
855.582
20
641.987
30
0.0
11
857.263
21
641.931
31
0.0
0
LINE
5
4ea
8
0-2
6
CONTINUOUS
62
  7
10
857.263
20
641.931
30
0.0
11
859.035
21
641.875
31
0.0
0
LINE
5
4eb
8
0-2
6
CONTINUOUS
62
  7
10
859.035
20
641.875
30
0.0
11
860.988
21
641.816
31
0.0
0
LINE
5
4ec
8
0-2
6
CONTINUOUS
62
  7
10
860.988
20
641.816
30
0.0
11
863.070
21
641.754
31
0.0
0
LINE
5
4ed
8
0-2
6
CONTINUOUS
62
  7
10
863.070
20
641.754
30
0.0
11
865.371
21
641.688
31
0.0
0
LINE
5
4ee
8
0-2
6
CONTINUOUS
62
  7
10
865.371
20
641.688
30
0.0
11
867.741
21
641.621
31
0.0
0
LINE
5
4ef
8
0-2
6
CONTINUOUS
62
  7
10
867.741
20
641.621
30
0.0
11
870.843
21
641.535
31
0.0
0
LINE
5
4f0
8
0-2
6
CONTINUOUS
62
  7
10
870.843
20
641.535
30
0.0
11
873.493
21
641.461
31
0.0
0
LINE
5
4f1
8
0-2
6
CONTINUOUS
62
  7
10
873.493
20
641.461
30
0.0
11
876.622
21
641.373
31
0.0
0
LINE
5
4f2
8
0-0
6
CONTINUOUS
62
  7
10
1023.257
20
628.378
30
0.0
11
1024.730
21
628.663
31
0.0
0
LINE
5
4f3
8
0-0
6
CONTINUOUS
62
  7
10
1024.730
20
628.663
30
0.0
11
1027.243
21
629.199
31
0.0
0
LINE
5
4f4
8
0-0
6
CONTINUOUS
62
  7
10
1027.243
20
629.199
30
0.0
11
1029.680
21
629.865
31
0.0
0
LINE
5
4f5
8
0-0
6
CONTINUOUS
62
  7
10
1029.680
20
629.865
30
0.0
11
1031.992
21
630.741
31
0.0
0
LINE
5
4f6
8
0-0
6
CONTINUOUS
62
  7
10
1031.992
20
630.741
30
0.0
11
1033.257
21
631.378
31
0.0
0
LINE
5
4f7
8
0-0
6
CONTINUOUS
62
  7
10
1033.257
20
631.378
30
0.0
11
1034.868
21
632.415
31
0.0
0
LINE
5
4f8
8
0-0
6
CONTINUOUS
62
  7
10
1034.868
20
632.415
30
0.0
11
1037.412
21
634.594
31
0.0
0
LINE
5
4f9
8
0-0
6
CONTINUOUS
62
  7
10
1037.412
20
634.594
30
0.0
11
1039.747
21
637.117
31
0.0
0
LINE
5
4fa
8
0-0
6
CONTINUOUS
62
  7
10
1039.747
20
637.117
30
0.0
11
1041.974
21
639.809
31
0.0
0
LINE
5
4fb
8
0-0
6
CONTINUOUS
62
  7
10
1041.974
20
639.809
30
0.0
11
1043.257
21
641.378
31
0.0
0
LINE
5
4fc
8
0-0
6
CONTINUOUS
62
  7
10
1043.257
20
641.378
30
0.0
11
1044.554
21
642.915
31
0.0
0
LINE
5
4fd
8
0-0
6
CONTINUOUS
62
  7
10
1044.554
20
642.915
30
0.0
11
1046.847
21
645.468
31
0.0
0
LINE
5
4fe
8
0-0
6
CONTINUOUS
62
  7
10
1046.847
20
645.468
30
0.0
11
1049.234
21
647.883
31
0.0
0
LINE
5
4ff
8
0-0
6
CONTINUOUS
62
  7
10
1049.234
20
647.883
30
0.0
11
1051.739
21
650.144
31
0.0
0
LINE
5
500
8
0-0
6
CONTINUOUS
62
  7
10
1051.739
20
650.144
30
0.0
11
1053.257
21
651.378
31
0.0
0
LINE
5
501
8
0-0
6
CONTINUOUS
62
  7
10
1053.257
20
651.378
30
0.0
11
1054.534
21
652.340
31
0.0
0
LINE
5
502
8
0-0
6
CONTINUOUS
62
  7
10
1054.534
20
652.340
30
0.0
11
1056.816
21
653.904
31
0.0
0
LINE
5
503
8
0-0
6
CONTINUOUS
62
  7
10
1056.816
20
653.904
30
0.0
11
1059.191
21
655.346
31
0.0
0
LINE
5
504
8
0-0
6
CONTINUOUS
62
  7
10
1059.191
20
655.346
30
0.0
11
1061.651
21
656.668
31
0.0
0
LINE
5
505
8
0-0
6
CONTINUOUS
62
  7
10
1061.651
20
656.668
30
0.0
11
1063.113
21
657.378
31
0.0
0
LINE
5
506
8
0-0
6
CONTINUOUS
62
  7
10
1063.113
20
657.378
30
0.0
11
1064.437
21
657.976
31
0.0
0
LINE
5
507
8
0-0
6
CONTINUOUS
62
  7
10
1064.437
20
657.976
30
0.0
11
1066.760
21
658.903
31
0.0
0
LINE
5
508
8
0-0
6
CONTINUOUS
62
  7
10
1066.760
20
658.903
30
0.0
11
1069.131
21
659.657
31
0.0
0
LINE
5
509
8
0-0
6
CONTINUOUS
62
  7
10
1069.131
20
659.657
30
0.0
11
1071.543
21
660.190
31
0.0
0
LINE
5
50a
8
0-0
6
CONTINUOUS
62
  7
10
1071.543
20
660.190
30
0.0
11
1072.958
21
660.378
31
0.0
0
LINE
5
50b
8
0-0
6
CONTINUOUS
62
  7
10
1072.958
20
660.378
30
0.0
11
1074.391
21
660.470
31
0.0
0
LINE
5
50c
8
0-0
6
CONTINUOUS
62
  7
10
1074.391
20
660.470
30
0.0
11
1076.877
21
660.419
31
0.0
0
LINE
5
50d
8
0-0
6
CONTINUOUS
62
  7
10
1076.877
20
660.419
30
0.0
11
1079.365
21
660.146
31
0.0
0
LINE
5
50e
8
0-0
6
CONTINUOUS
62
  7
10
1079.365
20
660.146
30
0.0
11
1081.837
21
659.698
31
0.0
0
LINE
5
50f
8
0-0
6
CONTINUOUS
62
  7
10
1081.837
20
659.698
30
0.0
11
1083.257
21
659.378
31
0.0
0
LINE
5
510
8
0-0
6
CONTINUOUS
62
  7
10
1083.257
20
659.378
30
0.0
11
1084.675
21
659.022
31
0.0
0
LINE
5
511
8
0-0
6
CONTINUOUS
62
  7
10
1084.675
20
659.022
30
0.0
11
1087.092
21
658.345
31
0.0
0
LINE
5
512
8
0-0
6
CONTINUOUS
62
  7
10
1087.092
20
658.345
30
0.0
11
1089.486
21
657.608
31
0.0
0
LINE
5
513
8
0-0
6
CONTINUOUS
62
  7
10
1089.486
20
657.608
30
0.0
11
1091.871
21
656.834
31
0.0
0
LINE
5
514
8
0-0
6
CONTINUOUS
62
  7
10
1091.871
20
656.834
30
0.0
11
1093.257
21
656.378
31
0.0
0
LINE
5
515
8
0-0
6
CONTINUOUS
62
  7
10
1093.257
20
656.378
30
0.0
11
1094.690
21
655.906
31
0.0
0
LINE
5
516
8
0-0
6
CONTINUOUS
62
  7
10
1094.690
20
655.906
30
0.0
11
1097.154
21
655.062
31
0.0
0
LINE
5
517
8
0-0
6
CONTINUOUS
62
  7
10
1097.154
20
655.062
30
0.0
11
1099.580
21
654.137
31
0.0
0
LINE
5
518
8
0-0
6
CONTINUOUS
62
  7
10
1099.580
20
654.137
30
0.0
11
1101.936
21
653.076
31
0.0
0
LINE
5
519
8
0-0
6
CONTINUOUS
62
  7
10
1101.936
20
653.076
30
0.0
11
1103.257
21
652.378
31
0.0
0
LINE
5
51a
8
0-0
6
CONTINUOUS
62
  7
10
1103.257
20
652.378
30
0.0
11
1104.283
21
651.771
31
0.0
0
LINE
5
51b
8
0-0
6
CONTINUOUS
62
  7
10
1104.283
20
651.771
30
0.0
11
1106.002
21
650.633
31
0.0
0
LINE
5
51c
8
0-0
6
CONTINUOUS
62
  7
10
1106.002
20
650.633
30
0.0
11
1107.672
21
649.408
31
0.0
0
LINE
5
51d
8
0-0
6
CONTINUOUS
62
  7
10
1107.672
20
649.408
30
0.0
11
1109.312
21
648.130
31
0.0
0
LINE
5
51e
8
0-0
6
CONTINUOUS
62
  7
10
1109.312
20
648.130
30
0.0
11
1110.257
21
647.378
31
0.0
0
LINE
5
51f
8
0-0
6
CONTINUOUS
62
  7
10
880.257
20
628.378
30
0.0
11
881.718
21
628.516
31
0.0
0
LINE
5
520
8
0-0
6
CONTINUOUS
62
  7
10
881.718
20
628.516
30
0.0
11
884.213
21
628.801
31
0.0
0
LINE
5
521
8
0-0
6
CONTINUOUS
62
  7
10
884.213
20
628.801
30
0.0
11
886.644
21
629.224
31
0.0
0
LINE
5
522
8
0-0
6
CONTINUOUS
62
  7
10
886.644
20
629.224
30
0.0
11
888.971
21
629.868
31
0.0
0
LINE
5
523
8
0-0
6
CONTINUOUS
62
  7
10
888.971
20
629.868
30
0.0
11
890.257
21
630.378
31
0.0
0
LINE
5
524
8
0-0
6
CONTINUOUS
62
  7
10
890.257
20
630.378
30
0.0
11
891.870
21
631.228
31
0.0
0
LINE
5
525
8
0-0
6
CONTINUOUS
62
  7
10
891.870
20
631.228
30
0.0
11
894.449
21
633.101
31
0.0
0
LINE
5
526
8
0-0
6
CONTINUOUS
62
  7
10
894.449
20
633.101
30
0.0
11
896.817
21
635.365
31
0.0
0
LINE
5
527
8
0-0
6
CONTINUOUS
62
  7
10
896.817
20
635.365
30
0.0
11
899.027
21
637.872
31
0.0
0
LINE
5
528
8
0-0
6
CONTINUOUS
62
  7
10
899.027
20
637.872
30
0.0
11
900.257
21
639.378
31
0.0
0
LINE
5
529
8
0-0
6
CONTINUOUS
62
  7
10
900.257
20
639.378
30
0.0
11
901.582
21
641.041
31
0.0
0
LINE
5
52a
8
0-0
6
CONTINUOUS
62
  7
10
901.582
20
641.041
30
0.0
11
903.852
21
643.864
31
0.0
0
LINE
5
52b
8
0-0
6
CONTINUOUS
62
  7
10
903.852
20
643.864
30
0.0
11
906.188
21
646.550
31
0.0
0
LINE
5
52c
8
0-0
6
CONTINUOUS
62
  7
10
906.188
20
646.550
30
0.0
11
908.690
21
649.008
31
0.0
0
LINE
5
52d
8
0-0
6
CONTINUOUS
62
  7
10
908.690
20
649.008
30
0.0
11
910.257
21
650.292
31
0.0
0
LINE
5
52e
8
0-0
6
CONTINUOUS
62
  7
10
910.257
20
650.292
30
0.0
11
911.513
21
651.185
31
0.0
0
LINE
5
52f
8
0-0
6
CONTINUOUS
62
  7
10
911.513
20
651.185
30
0.0
11
913.808
21
652.567
31
0.0
0
LINE
5
530
8
0-0
6
CONTINUOUS
62
  7
10
913.808
20
652.567
30
0.0
11
916.235
21
653.773
31
0.0
0
LINE
5
531
8
0-0
6
CONTINUOUS
62
  7
10
916.235
20
653.773
30
0.0
11
918.760
21
654.827
31
0.0
0
LINE
5
532
8
0-0
6
CONTINUOUS
62
  7
10
918.760
20
654.827
30
0.0
11
920.257
21
655.378
31
0.0
0
LINE
5
533
8
0-0
6
CONTINUOUS
62
  7
10
920.257
20
655.378
30
0.0
11
921.631
21
655.844
31
0.0
0
LINE
5
534
8
0-0
6
CONTINUOUS
62
  7
10
921.631
20
655.844
30
0.0
11
924.023
21
656.542
31
0.0
0
LINE
5
535
8
0-0
6
CONTINUOUS
62
  7
10
924.023
20
656.542
30
0.0
11
926.434
21
657.060
31
0.0
0
LINE
5
536
8
0-0
6
CONTINUOUS
62
  7
10
926.434
20
657.060
30
0.0
11
928.854
21
657.343
31
0.0
0
LINE
5
537
8
0-0
6
CONTINUOUS
62
  7
10
928.854
20
657.343
30
0.0
11
930.257
21
657.378
31
0.0
0
LINE
5
538
8
0-0
6
CONTINUOUS
62
  7
10
930.257
20
657.378
30
0.0
11
931.657
21
657.310
31
0.0
0
LINE
5
539
8
0-0
6
CONTINUOUS
62
  7
10
931.657
20
657.310
30
0.0
11
934.065
21
656.981
31
0.0
0
LINE
5
53a
8
0-0
6
CONTINUOUS
62
  7
10
934.065
20
656.981
30
0.0
11
936.467
21
656.449
31
0.0
0
LINE
5
53b
8
0-0
6
CONTINUOUS
62
  7
10
936.467
20
656.449
30
0.0
11
938.866
21
655.790
31
0.0
0
LINE
5
53c
8
0-0
6
CONTINUOUS
62
  7
10
938.866
20
655.790
30
0.0
11
940.257
21
655.378
31
0.0
0
LINE
5
53d
8
0-0
6
CONTINUOUS
62
  7
10
940.257
20
655.378
30
0.0
11
941.724
21
654.936
31
0.0
0
LINE
5
53e
8
0-0
6
CONTINUOUS
62
  7
10
941.724
20
654.936
30
0.0
11
944.230
21
654.128
31
0.0
0
LINE
5
53f
8
0-0
6
CONTINUOUS
62
  7
10
944.230
20
654.128
30
0.0
11
946.664
21
653.210
31
0.0
0
LINE
5
540
8
0-0
6
CONTINUOUS
62
  7
10
946.664
20
653.210
30
0.0
11
948.983
21
652.117
31
0.0
0
LINE
5
541
8
0-0
6
CONTINUOUS
62
  7
10
948.983
20
652.117
30
0.0
11
950.257
21
651.378
31
0.0
0
LINE
5
542
8
0-0
6
CONTINUOUS
62
  7
10
950.257
20
651.378
30
0.0
11
951.838
21
650.274
31
0.0
0
LINE
5
543
8
0-0
6
CONTINUOUS
62
  7
10
951.838
20
650.274
30
0.0
11
954.361
21
648.067
31
0.0
0
LINE
5
544
8
0-0
6
CONTINUOUS
62
  7
10
954.361
20
648.067
30
0.0
11
956.703
21
645.579
31
0.0
0
LINE
5
545
8
0-0
6
CONTINUOUS
62
  7
10
956.703
20
645.579
30
0.0
11
958.956
21
642.935
31
0.0
0
LINE
5
546
8
0-0
6
CONTINUOUS
62
  7
10
958.956
20
642.935
30
0.0
11
960.257
21
641.378
31
0.0
0
LINE
5
547
8
0-0
6
CONTINUOUS
62
  7
10
960.257
20
641.378
30
0.0
11
961.510
21
639.909
31
0.0
0
LINE
5
548
8
0-0
6
CONTINUOUS
62
  7
10
961.510
20
639.909
30
0.0
11
963.740
21
637.464
31
0.0
0
LINE
5
549
8
0-0
6
CONTINUOUS
62
  7
10
963.740
20
637.464
30
0.0
11
966.106
21
635.227
31
0.0
0
LINE
5
54a
8
0-0
6
CONTINUOUS
62
  7
10
966.106
20
635.227
30
0.0
11
968.664
21
633.305
31
0.0
0
LINE
5
54b
8
0-0
6
CONTINUOUS
62
  7
10
968.664
20
633.305
30
0.0
11
970.257
21
632.378
31
0.0
0
LINE
5
54c
8
0-0
6
CONTINUOUS
62
  7
10
970.257
20
632.378
30
0.0
11
971.555
21
631.767
31
0.0
0
LINE
5
54d
8
0-0
6
CONTINUOUS
62
  7
10
971.555
20
631.767
30
0.0
11
973.898
21
630.908
31
0.0
0
LINE
5
54e
8
0-0
6
CONTINUOUS
62
  7
10
973.898
20
630.908
30
0.0
11
976.334
21
630.233
31
0.0
0
LINE
5
54f
8
0-0
6
CONTINUOUS
62
  7
10
976.334
20
630.233
30
0.0
11
978.815
21
629.675
31
0.0
0
LINE
5
550
8
0-0
6
CONTINUOUS
62
  7
10
978.815
20
629.675
30
0.0
11
980.257
21
629.378
31
0.0
0
LINE
5
551
8
0-0
6
CONTINUOUS
62
  7
10
980.257
20
629.378
30
0.0
11
980.930
21
629.241
31
0.0
0
LINE
5
552
8
0-0
6
CONTINUOUS
62
  7
10
980.930
20
629.241
30
0.0
11
982.086
21
629.006
31
0.0
0
LINE
5
553
8
0-0
6
CONTINUOUS
62
  7
10
982.086
20
629.006
30
0.0
11
983.237
21
628.771
31
0.0
0
LINE
5
554
8
0-0
6
CONTINUOUS
62
  7
10
983.237
20
628.771
30
0.0
11
984.387
21
628.537
31
0.0
0
LINE
5
555
8
0-0
6
CONTINUOUS
62
  7
10
984.387
20
628.537
30
0.0
11
985.053
21
628.402
31
0.0
0
LINE
5
556
8
0-0
6
CONTINUOUS
62
  7
10
985.053
20
628.402
30
0.0
11
985.069
21
628.399
31
0.0
0
LINE
5
557
8
0-0
6
CONTINUOUS
62
  7
10
985.069
20
628.399
30
0.0
11
985.097
21
628.395
31
0.0
0
LINE
5
558
8
0-0
6
CONTINUOUS
62
  7
10
985.097
20
628.395
30
0.0
11
985.125
21
628.391
31
0.0
0
LINE
5
559
8
0-0
6
CONTINUOUS
62
  7
10
985.125
20
628.391
30
0.0
11
985.152
21
628.388
31
0.0
0
LINE
5
55a
8
0-0
6
CONTINUOUS
62
  7
10
985.152
20
628.388
30
0.0
11
985.169
21
628.386
31
0.0
0
LINE
5
55b
8
0-0
6
CONTINUOUS
62
  7
10
985.169
20
628.386
30
0.0
11
985.183
21
628.385
31
0.0
0
LINE
5
55c
8
0-0
6
CONTINUOUS
62
  7
10
985.183
20
628.385
30
0.0
11
985.209
21
628.383
31
0.0
0
LINE
5
55d
8
0-0
6
CONTINUOUS
62
  7
10
985.209
20
628.383
30
0.0
11
985.235
21
628.381
31
0.0
0
LINE
5
55e
8
0-0
6
CONTINUOUS
62
  7
10
985.235
20
628.381
30
0.0
11
985.261
21
628.379
31
0.0
0
LINE
5
55f
8
0-0
6
CONTINUOUS
62
  7
10
985.261
20
628.379
30
0.0
11
985.276
21
628.378
31
0.0
0
LINE
5
560
8
0-2
6
CONTINUOUS
62
  7
10
985.276
20
628.378
30
0.0
11
1023.257
21
628.378
31
0.0
0
LINE
5
561
8
0-0
6
CONTINUOUS
62
  7
10
1113.257
20
646.378
30
0.0
11
1113.257
21
653.378
31
0.0
0
LINE
5
562
8
0-0
6
CONTINUOUS
62
  7
10
1023.257
20
642.378
30
0.0
11
1024.755
21
643.094
31
0.0
0
LINE
5
563
8
0-0
6
CONTINUOUS
62
  7
10
1024.755
20
643.094
30
0.0
11
1027.302
21
644.370
31
0.0
0
LINE
5
564
8
0-0
6
CONTINUOUS
62
  7
10
1027.302
20
644.370
30
0.0
11
1029.749
21
645.762
31
0.0
0
LINE
5
565
8
0-0
6
CONTINUOUS
62
  7
10
1029.749
20
645.762
30
0.0
11
1032.032
21
647.344
31
0.0
0
LINE
5
566
8
0-0
6
CONTINUOUS
62
  7
10
1032.032
20
647.344
30
0.0
11
1033.257
21
648.378
31
0.0
0
LINE
5
567
8
0-0
6
CONTINUOUS
62
  7
10
1033.257
20
648.378
30
0.0
11
1034.767
21
649.914
31
0.0
0
LINE
5
568
8
0-0
6
CONTINUOUS
62
  7
10
1034.767
20
649.914
30
0.0
11
1037.128
21
652.845
31
0.0
0
LINE
5
569
8
0-0
6
CONTINUOUS
62
  7
10
1037.128
20
652.845
30
0.0
11
1039.376
21
655.909
31
0.0
0
LINE
5
56a
8
0-0
6
CONTINUOUS
62
  7
10
1039.376
20
655.909
30
0.0
11
1041.741
21
658.842
31
0.0
0
LINE
5
56b
8
0-0
6
CONTINUOUS
62
  7
10
1041.741
20
658.842
30
0.0
11
1043.257
21
660.378
31
0.0
0
LINE
5
56c
8
0-0
6
CONTINUOUS
62
  7
10
1043.257
20
660.378
30
0.0
11
1044.485
21
661.414
31
0.0
0
LINE
5
56d
8
0-0
6
CONTINUOUS
62
  7
10
1044.485
20
661.414
30
0.0
11
1046.775
21
662.999
31
0.0
0
LINE
5
56e
8
0-0
6
CONTINUOUS
62
  7
10
1046.775
20
662.999
30
0.0
11
1049.225
21
664.392
31
0.0
0
LINE
5
56f
8
0-0
6
CONTINUOUS
62
  7
10
1049.225
20
664.392
30
0.0
11
1051.767
21
665.666
31
0.0
0
LINE
5
570
8
0-0
6
CONTINUOUS
62
  7
10
1051.767
20
665.666
30
0.0
11
1053.257
21
666.378
31
0.0
0
LINE
5
571
8
0-0
6
CONTINUOUS
62
  7
10
1053.257
20
666.378
30
0.0
11
1054.631
21
667.031
31
0.0
0
LINE
5
572
8
0-0
6
CONTINUOUS
62
  7
10
1054.631
20
667.031
30
0.0
11
1057.002
21
668.122
31
0.0
0
LINE
5
573
8
0-0
6
CONTINUOUS
62
  7
10
1057.002
20
668.122
30
0.0
11
1059.392
21
669.121
31
0.0
0
LINE
5
574
8
0-0
6
CONTINUOUS
62
  7
10
1059.392
20
669.121
30
0.0
11
1061.822
21
669.973
31
0.0
0
LINE
5
575
8
0-0
6
CONTINUOUS
62
  7
10
1061.822
20
669.973
30
0.0
11
1063.257
21
670.378
31
0.0
0
LINE
5
576
8
0-0
6
CONTINUOUS
62
  7
10
1063.257
20
670.378
30
0.0
11
1064.616
21
670.688
31
0.0
0
LINE
5
577
8
0-0
6
CONTINUOUS
62
  7
10
1064.616
20
670.688
30
0.0
11
1066.998
21
671.074
31
0.0
0
LINE
5
578
8
0-0
6
CONTINUOUS
62
  7
10
1066.998
20
671.074
30
0.0
11
1069.414
21
671.297
31
0.0
0
LINE
5
579
8
0-0
6
CONTINUOUS
62
  7
10
1069.414
20
671.297
30
0.0
11
1071.846
21
671.382
31
0.0
0
LINE
5
57a
8
0-0
6
CONTINUOUS
62
  7
10
1071.846
20
671.382
30
0.0
11
1073.257
21
671.378
31
0.0
0
LINE
5
57b
8
0-0
6
CONTINUOUS
62
  7
10
1073.257
20
671.378
30
0.0
11
1074.664
21
671.341
31
0.0
0
LINE
5
57c
8
0-0
6
CONTINUOUS
62
  7
10
1074.664
20
671.341
30
0.0
11
1077.080
21
671.199
31
0.0
0
LINE
5
57d
8
0-0
6
CONTINUOUS
62
  7
10
1077.080
20
671.199
30
0.0
11
1079.483
21
670.959
31
0.0
0
LINE
5
57e
8
0-0
6
CONTINUOUS
62
  7
10
1079.483
20
670.959
30
0.0
11
1081.875
21
670.620
31
0.0
0
LINE
5
57f
8
0-0
6
CONTINUOUS
62
  7
10
1081.875
20
670.620
30
0.0
11
1083.257
21
670.378
31
0.0
0
LINE
5
580
8
0-0
6
CONTINUOUS
62
  7
10
1083.257
20
670.378
30
0.0
11
1084.687
21
670.091
31
0.0
0
LINE
5
581
8
0-0
6
CONTINUOUS
62
  7
10
1084.687
20
670.091
30
0.0
11
1087.136
21
669.504
31
0.0
0
LINE
5
582
8
0-0
6
CONTINUOUS
62
  7
10
1087.136
20
669.504
30
0.0
11
1089.549
21
668.791
31
0.0
0
LINE
5
583
8
0-0
6
CONTINUOUS
62
  7
10
1089.549
20
668.791
30
0.0
11
1091.914
21
667.940
31
0.0
0
LINE
5
584
8
0-0
6
CONTINUOUS
62
  7
10
1091.914
20
667.940
30
0.0
11
1093.257
21
667.378
31
0.0
0
LINE
5
585
8
0-0
6
CONTINUOUS
62
  7
10
1093.257
20
667.378
30
0.0
11
1094.729
21
666.691
31
0.0
0
LINE
5
586
8
0-0
6
CONTINUOUS
62
  7
10
1094.729
20
666.691
30
0.0
11
1097.203
21
665.370
31
0.0
0
LINE
5
587
8
0-0
6
CONTINUOUS
62
  7
10
1097.203
20
665.370
30
0.0
11
1099.600
21
663.906
31
0.0
0
LINE
5
588
8
0-0
6
CONTINUOUS
62
  7
10
1099.600
20
663.906
30
0.0
11
1101.932
21
662.330
31
0.0
0
LINE
5
589
8
0-0
6
CONTINUOUS
62
  7
10
1101.932
20
662.330
30
0.0
11
1103.257
21
661.378
31
0.0
0
LINE
5
58a
8
0-0
6
CONTINUOUS
62
  7
10
1103.257
20
661.378
30
0.0
11
1104.692
21
660.309
31
0.0
0
LINE
5
58b
8
0-0
6
CONTINUOUS
62
  7
10
1104.692
20
660.309
30
0.0
11
1107.125
21
658.419
31
0.0
0
LINE
5
58c
8
0-0
6
CONTINUOUS
62
  7
10
1107.125
20
658.419
30
0.0
11
1109.518
21
656.484
31
0.0
0
LINE
5
58d
8
0-0
6
CONTINUOUS
62
  7
10
1109.518
20
656.484
30
0.0
11
1111.888
21
654.522
31
0.0
0
LINE
5
58e
8
0-0
6
CONTINUOUS
62
  7
10
1111.888
20
654.522
30
0.0
11
1113.257
21
653.378
31
0.0
0
LINE
5
58f
8
0-0
6
CONTINUOUS
62
  7
10
1020.550
20
642.378
30
0.0
11
1023.257
21
642.378
31
0.0
0
LINE
5
590
8
0-0
6
CONTINUOUS
62
  7
10
1023.257
20
642.378
30
0.0
11
986.577
21
642.378
31
0.0
0
LINE
5
591
8
0-0
6
CONTINUOUS
62
  7
10
876.622
20
641.373
30
0.0
11
877.046
21
641.397
31
0.0
0
LINE
5
592
8
0-0
6
CONTINUOUS
62
  7
10
877.046
20
641.397
30
0.0
11
877.779
21
641.442
31
0.0
0
LINE
5
593
8
0-0
6
CONTINUOUS
62
  7
10
877.779
20
641.442
30
0.0
11
878.510
21
641.498
31
0.0
0
LINE
5
594
8
0-0
6
CONTINUOUS
62
  7
10
878.510
20
641.498
30
0.0
11
879.240
21
641.572
31
0.0
0
LINE
5
595
8
0-0
6
CONTINUOUS
62
  7
10
879.240
20
641.572
30
0.0
11
879.662
21
641.626
31
0.0
0
LINE
5
596
8
0-0
6
CONTINUOUS
62
  7
10
879.662
20
641.626
30
0.0
11
880.050
21
641.684
31
0.0
0
LINE
5
597
8
0-0
6
CONTINUOUS
62
  7
10
880.050
20
641.684
30
0.0
11
880.714
21
641.804
31
0.0
0
LINE
5
598
8
0-0
6
CONTINUOUS
62
  7
10
880.714
20
641.804
30
0.0
11
881.372
21
641.954
31
0.0
0
LINE
5
599
8
0-0
6
CONTINUOUS
62
  7
10
881.372
20
641.954
30
0.0
11
882.021
21
642.138
31
0.0
0
LINE
5
59a
8
0-0
6
CONTINUOUS
62
  7
10
882.021
20
642.138
30
0.0
11
882.392
21
642.261
31
0.0
0
LINE
5
59b
8
0-0
6
CONTINUOUS
62
  7
10
882.392
20
642.261
30
0.0
11
882.685
21
642.368
31
0.0
0
LINE
5
59c
8
0-0
6
CONTINUOUS
62
  7
10
882.685
20
642.368
30
0.0
11
883.184
21
642.569
31
0.0
0
LINE
5
59d
8
0-0
6
CONTINUOUS
62
  7
10
883.184
20
642.569
30
0.0
11
883.677
21
642.785
31
0.0
0
LINE
5
59e
8
0-0
6
CONTINUOUS
62
  7
10
883.677
20
642.785
30
0.0
11
884.167
21
643.010
31
0.0
0
LINE
5
59f
8
0-0
6
CONTINUOUS
62
  7
10
884.167
20
643.010
30
0.0
11
884.450
21
643.143
31
0.0
0
LINE
5
5a0
8
0-0
6
CONTINUOUS
62
  7
10
833.097
20
645.993
30
0.0
11
833.086
21
645.999
31
0.0
0
LINE
5
5a1
8
0-0
6
CONTINUOUS
62
  7
10
833.086
20
645.999
30
0.0
11
833.065
21
646.010
31
0.0
0
LINE
5
5a2
8
0-0
6
CONTINUOUS
62
  7
10
833.065
20
646.010
30
0.0
11
833.045
21
646.022
31
0.0
0
LINE
5
5a3
8
0-0
6
CONTINUOUS
62
  7
10
833.045
20
646.022
30
0.0
11
833.025
21
646.034
31
0.0
0
LINE
5
5a4
8
0-0
6
CONTINUOUS
62
  7
10
833.025
20
646.034
30
0.0
11
833.023
21
646.035
31
0.0
0
LINE
5
5a5
8
0-2
6
CONTINUOUS
62
  7
10
832.707
20
646.982
30
0.0
11
833.023
21
646.035
31
0.0
0
LINE
5
5a6
8
ADD_LINE
6
HIDDEN
62
  3
10
833.257
20
646.378
30
0.0
11
832.787
21
646.378
31
0.0
0
LINE
5
5a7
8
ADD_LINE
6
HIDDEN
62
  3
10
833.257
20
646.378
30
0.0
11
833.609
21
646.378
31
0.0
0
LINE
5
5a8
8
0-0
6
CONTINUOUS
62
  7
10
876.257
20
628.378
30
0.0
11
880.257
21
628.378
31
0.0
0
LINE
5
5a9
8
ADD_LINE
6
HIDDEN
62
  3
10
833.609
20
646.378
30
0.0
11
837.082
21
646.378
31
0.0
0
LINE
5
5aa
8
ADD_LINE
6
HIDDEN
62
  3
10
832.787
20
646.378
30
0.0
11
829.293
21
646.378
31
0.0
0
LINE
5
5ab
8
ADD_LINE
6
HIDDEN
62
  3
10
833.257
20
645.333
30
0.0
11
833.257
21
642.320
31
0.0
0
LINE
5
5ac
8
0-0
6
CONTINUOUS
62
  7
10
884.456
20
643.146
30
0.0
11
885.456
21
643.873
31
0.0
0
LINE
5
5ad
8
0-0
6
CONTINUOUS
62
  7
10
885.456
20
643.873
30
0.0
11
886.711
21
645.072
31
0.0
0
LINE
5
5ae
8
0-0
6
CONTINUOUS
62
  7
10
886.711
20
645.072
30
0.0
11
888.349
21
646.931
31
0.0
0
LINE
5
5af
8
0-0
6
CONTINUOUS
62
  7
10
888.349
20
646.931
30
0.0
11
889.361
21
648.169
31
0.0
0
LINE
5
5b0
8
0-0
6
CONTINUOUS
62
  7
10
889.361
20
648.169
30
0.0
11
890.655
21
649.794
31
0.0
0
LINE
5
5b1
8
0-0
6
CONTINUOUS
62
  7
10
890.655
20
649.794
30
0.0
11
893.110
21
652.847
31
0.0
0
LINE
5
5b2
8
0-0
6
CONTINUOUS
62
  7
10
893.110
20
652.847
30
0.0
11
895.984
21
656.152
31
0.0
0
LINE
5
5b3
8
0-0
6
CONTINUOUS
62
  7
10
895.984
20
656.152
30
0.0
11
899.329
21
659.437
31
0.0
0
LINE
5
5b4
8
0-0
6
CONTINUOUS
62
  7
10
899.329
20
659.437
30
0.0
11
901.756
21
661.427
31
0.0
0
LINE
5
5b5
8
0-0
6
CONTINUOUS
62
  7
10
901.756
20
661.427
30
0.0
11
903.837
21
662.904
31
0.0
0
LINE
5
5b6
8
0-0
6
CONTINUOUS
62
  7
10
903.837
20
662.904
30
0.0
11
907.069
21
664.852
31
0.0
0
LINE
5
5b7
8
0-0
6
CONTINUOUS
62
  7
10
907.069
20
664.852
30
0.0
11
910.417
21
666.516
31
0.0
0
LINE
5
5b8
8
0-0
6
CONTINUOUS
62
  7
10
910.417
20
666.516
30
0.0
11
913.642
21
667.861
31
0.0
0
LINE
5
5b9
8
0-0
6
CONTINUOUS
62
  7
10
913.642
20
667.861
30
0.0
11
915.590
21
668.579
31
0.0
0
LINE
5
5ba
8
0-0
6
CONTINUOUS
62
  7
10
915.590
20
668.579
30
0.0
11
917.422
21
669.200
31
0.0
0
LINE
5
5bb
8
0-0
6
CONTINUOUS
62
  7
10
917.422
20
669.200
30
0.0
11
920.588
21
670.123
31
0.0
0
LINE
5
5bc
8
0-0
6
CONTINUOUS
62
  7
10
920.588
20
670.123
30
0.0
11
924.145
21
670.887
31
0.0
0
LINE
5
5bd
8
0-0
6
CONTINUOUS
62
  7
10
924.145
20
670.887
30
0.0
11
927.862
21
671.323
31
0.0
0
LINE
5
5be
8
0-0
6
CONTINUOUS
62
  7
10
927.862
20
671.323
30
0.0
11
930.423
21
671.387
31
0.0
0
LINE
5
5bf
8
0-0
6
CONTINUOUS
62
  7
10
930.423
20
671.387
30
0.0
11
932.949
21
671.263
31
0.0
0
LINE
5
5c0
8
0-0
6
CONTINUOUS
62
  7
10
932.949
20
671.263
30
0.0
11
936.529
21
670.774
31
0.0
0
LINE
5
5c1
8
0-0
6
CONTINUOUS
62
  7
10
936.529
20
670.774
30
0.0
11
939.837
21
670.042
31
0.0
0
LINE
5
5c2
8
0-0
6
CONTINUOUS
62
  7
10
939.837
20
670.042
30
0.0
11
942.707
21
669.253
31
0.0
0
LINE
5
5c3
8
0-0
6
CONTINUOUS
62
  7
10
942.707
20
669.253
30
0.0
11
944.260
21
668.794
31
0.0
0
LINE
5
5c4
8
0-0
6
CONTINUOUS
62
  7
10
944.260
20
668.794
30
0.0
11
945.894
21
668.301
31
0.0
0
LINE
5
5c5
8
0-0
6
CONTINUOUS
62
  7
10
945.894
20
668.301
30
0.0
11
948.850
21
667.348
31
0.0
0
LINE
5
5c6
8
0-0
6
CONTINUOUS
62
  7
10
948.850
20
667.348
30
0.0
11
952.128
21
666.112
31
0.0
0
LINE
5
5c7
8
0-0
6
CONTINUOUS
62
  7
10
952.128
20
666.112
30
0.0
11
955.492
21
664.527
31
0.0
0
LINE
5
5c8
8
0-0
6
CONTINUOUS
62
  7
10
955.492
20
664.527
30
0.0
11
957.789
21
663.194
31
0.0
0
LINE
5
5c9
8
0-0
6
CONTINUOUS
62
  7
10
957.789
20
663.194
30
0.0
11
960.481
21
661.315
31
0.0
0
LINE
5
5ca
8
0-0
6
CONTINUOUS
62
  7
10
960.481
20
661.315
30
0.0
11
964.090
21
658.157
31
0.0
0
LINE
5
5cb
8
0-0
6
CONTINUOUS
62
  7
10
964.090
20
658.157
30
0.0
11
967.134
21
654.924
31
0.0
0
LINE
5
5cc
8
0-0
6
CONTINUOUS
62
  7
10
967.134
20
654.924
30
0.0
11
969.658
21
651.961
31
0.0
0
LINE
5
5cd
8
0-0
6
CONTINUOUS
62
  7
10
969.658
20
651.961
30
0.0
11
970.954
21
650.410
31
0.0
0
LINE
5
5ce
8
0-0
6
CONTINUOUS
62
  7
10
970.954
20
650.410
30
0.0
11
972.010
21
649.171
31
0.0
0
LINE
5
5cf
8
0-0
6
CONTINUOUS
62
  7
10
972.010
20
649.171
30
0.0
11
973.735
21
647.282
31
0.0
0
LINE
5
5d0
8
0-0
6
CONTINUOUS
62
  7
10
973.735
20
647.282
30
0.0
11
975.150
21
645.943
31
0.0
0
LINE
5
5d1
8
0-0
6
CONTINUOUS
62
  7
10
975.150
20
645.943
30
0.0
11
976.415
21
644.992
31
0.0
0
LINE
5
5d2
8
0-0
6
CONTINUOUS
62
  7
10
976.415
20
644.992
30
0.0
11
976.770
21
644.786
31
0.0
0
LINE
5
5d3
8
0-0
6
CONTINUOUS
62
  7
10
976.770
20
644.786
30
0.0
11
976.958
21
644.698
31
0.0
0
LINE
5
5d4
8
0-0
6
CONTINUOUS
62
  7
10
976.958
20
644.698
30
0.0
11
978.184
21
644.248
31
0.0
0
LINE
5
5d5
8
0-0
6
CONTINUOUS
62
  7
10
978.184
20
644.248
30
0.0
11
979.738
21
643.817
31
0.0
0
LINE
5
5d6
8
0-0
6
CONTINUOUS
62
  7
10
979.738
20
643.817
30
0.0
11
981.764
21
643.362
31
0.0
0
LINE
5
5d7
8
0-0
6
CONTINUOUS
62
  7
10
981.764
20
643.362
30
0.0
11
983.062
21
643.095
31
0.0
0
LINE
5
5d8
8
0-0
6
CONTINUOUS
62
  7
10
983.062
20
643.095
30
0.0
11
983.854
21
642.933
31
0.0
0
LINE
5
5d9
8
0-0
6
CONTINUOUS
62
  7
10
983.854
20
642.933
30
0.0
11
984.903
21
642.719
31
0.0
0
LINE
5
5da
8
0-0
6
CONTINUOUS
62
  7
10
984.903
20
642.719
30
0.0
11
985.753
21
642.546
31
0.0
0
LINE
5
5db
8
0-0
6
CONTINUOUS
62
  7
10
985.753
20
642.546
30
0.0
11
986.577
21
642.378
31
0.0
0
LINE
5
5dc
8
ADD_LINE
6
HIDDEN
62
  3
10
977.643
20
900.824
30
0.0
11
977.643
21
1241.401
31
0.0
0
LINE
5
5dd
8
0-0
6
CONTINUOUS
62
  7
10
977.643
20
1241.401
30
0.0
11
977.643
21
900.824
31
0.0
0
LINE
5
5de
8
0-0
6
CONTINUOUS
62
  7
10
1358.162
20
1231.824
30
0.0
11
1362.162
21
1229.824
31
0.0
0
LINE
5
5df
8
0-0
6
CONTINUOUS
62
  7
10
1370.162
20
1239.635
30
0.0
11
1383.162
21
1247.824
31
0.0
0
LINE
5
5e0
8
0-0
6
CONTINUOUS
62
  7
10
1358.162
20
1247.824
30
0.0
11
1358.162
21
1231.824
31
0.0
0
LINE
5
5e1
8
0-0
6
CONTINUOUS
62
  7
10
1370.162
20
1239.635
30
0.0
11
1370.162
21
1234.824
31
0.0
0
LINE
5
5e2
8
0-0
6
CONTINUOUS
62
  7
10
1358.162
20
1234.824
30
0.0
11
1370.162
21
1234.824
31
0.0
0
LINE
5
5e3
8
0-0
6
CONTINUOUS
62
  7
10
1362.162
20
1229.824
30
0.0
11
1362.162
21
925.824
31
0.0
0
LINE
5
5e4
8
0-0
6
CONTINUOUS
62
  7
10
1377.162
20
900.824
30
0.0
11
1386.162
21
900.824
31
0.0
0
LINE
5
5e5
8
0-0
6
CONTINUOUS
62
  7
10
1386.162
20
905.824
30
0.0
11
1386.162
21
900.824
31
0.0
0
LINE
5
5e6
8
0-0
6
CONTINUOUS
62
  7
10
1376.162
20
923.852
30
0.0
11
1376.162
21
1236.039
31
0.0
0
LINE
5
5e7
8
0-0
6
CONTINUOUS
62
  7
10
1377.842
20
918.305
30
0.0
11
1386.162
21
905.824
31
0.0
0
LINE
5
5e8
8
0-2
6
CONTINUOUS
62
  7
10
801.257
20
386.699
30
0.0
11
800.257
21
385.757
31
0.0
0
LINE
5
5e9
8
0-2
6
CONTINUOUS
62
  7
10
833.097
20
374.371
30
0.0
11
833.605
21
374.116
31
0.0
0
LINE
5
5ea
8
0-2
6
CONTINUOUS
62
  7
10
833.605
20
374.116
30
0.0
11
834.048
21
373.895
31
0.0
0
LINE
5
5eb
8
0-2
6
CONTINUOUS
62
  7
10
834.048
20
373.895
30
0.0
11
834.437
21
373.703
31
0.0
0
LINE
5
5ec
8
0-2
6
CONTINUOUS
62
  7
10
834.437
20
373.703
30
0.0
11
834.804
21
373.524
31
0.0
0
LINE
5
5ed
8
0-2
6
CONTINUOUS
62
  7
10
834.804
20
373.524
30
0.0
11
835.137
21
373.364
31
0.0
0
LINE
5
5ee
8
0-2
6
CONTINUOUS
62
  7
10
835.137
20
373.364
30
0.0
11
835.440
21
373.219
31
0.0
0
LINE
5
5ef
8
0-2
6
CONTINUOUS
62
  7
10
835.440
20
373.219
30
0.0
11
835.728
21
373.083
31
0.0
0
LINE
5
5f0
8
0-2
6
CONTINUOUS
62
  7
10
835.728
20
373.083
30
0.0
11
835.984
21
372.964
31
0.0
0
LINE
5
5f1
8
0-2
6
CONTINUOUS
62
  7
10
835.984
20
372.964
30
0.0
11
836.223
21
372.854
31
0.0
0
LINE
5
5f2
8
0-2
6
CONTINUOUS
62
  7
10
836.223
20
372.854
30
0.0
11
836.446
21
372.754
31
0.0
0
LINE
5
5f3
8
0-2
6
CONTINUOUS
62
  7
10
836.446
20
372.754
30
0.0
11
836.652
21
372.663
31
0.0
0
LINE
5
5f4
8
0-2
6
CONTINUOUS
62
  7
10
836.652
20
372.663
30
0.0
11
836.847
21
372.579
31
0.0
0
LINE
5
5f5
8
0-2
6
CONTINUOUS
62
  7
10
836.847
20
372.579
30
0.0
11
837.027
21
372.503
31
0.0
0
LINE
5
5f6
8
0-2
6
CONTINUOUS
62
  7
10
837.027
20
372.503
30
0.0
11
837.204
21
372.430
31
0.0
0
LINE
5
5f7
8
0-2
6
CONTINUOUS
62
  7
10
837.204
20
372.430
30
0.0
11
837.371
21
372.364
31
0.0
0
LINE
5
5f8
8
0-2
6
CONTINUOUS
62
  7
10
837.371
20
372.364
30
0.0
11
837.538
21
372.299
31
0.0
0
LINE
5
5f9
8
0-2
6
CONTINUOUS
62
  7
10
837.538
20
372.299
30
0.0
11
837.704
21
372.237
31
0.0
0
LINE
5
5fa
8
0-2
6
CONTINUOUS
62
  7
10
837.704
20
372.237
30
0.0
11
837.872
21
372.175
31
0.0
0
LINE
5
5fb
8
0-2
6
CONTINUOUS
62
  7
10
837.872
20
372.175
30
0.0
11
838.039
21
372.116
31
0.0
0
LINE
5
5fc
8
0-2
6
CONTINUOUS
62
  7
10
838.039
20
372.116
30
0.0
11
838.216
21
372.056
31
0.0
0
LINE
5
5fd
8
0-2
6
CONTINUOUS
62
  7
10
838.216
20
372.056
30
0.0
11
838.393
21
371.997
31
0.0
0
LINE
5
5fe
8
0-2
6
CONTINUOUS
62
  7
10
838.393
20
371.997
30
0.0
11
838.576
21
371.937
31
0.0
0
LINE
5
5ff
8
0-2
6
CONTINUOUS
62
  7
10
838.576
20
371.937
30
0.0
11
838.766
21
371.878
31
0.0
0
LINE
5
600
8
0-2
6
CONTINUOUS
62
  7
10
838.766
20
371.878
30
0.0
11
838.955
21
371.821
31
0.0
0
LINE
5
601
8
0-2
6
CONTINUOUS
62
  7
10
838.955
20
371.821
30
0.0
11
839.153
21
371.763
31
0.0
0
LINE
5
602
8
0-2
6
CONTINUOUS
62
  7
10
839.153
20
371.763
30
0.0
11
839.356
21
371.706
31
0.0
0
LINE
5
603
8
0-2
6
CONTINUOUS
62
  7
10
839.356
20
371.706
30
0.0
11
839.556
21
371.651
31
0.0
0
LINE
5
604
8
0-2
6
CONTINUOUS
62
  7
10
839.556
20
371.651
30
0.0
11
839.767
21
371.596
31
0.0
0
LINE
5
605
8
0-2
6
CONTINUOUS
62
  7
10
839.767
20
371.596
30
0.0
11
839.970
21
371.545
31
0.0
0
LINE
5
606
8
0-2
6
CONTINUOUS
62
  7
10
839.970
20
371.545
30
0.0
11
840.184
21
371.493
31
0.0
0
LINE
5
607
8
0-2
6
CONTINUOUS
62
  7
10
840.184
20
371.493
30
0.0
11
840.392
21
371.445
31
0.0
0
LINE
5
608
8
0-2
6
CONTINUOUS
62
  7
10
840.392
20
371.445
30
0.0
11
840.606
21
371.398
31
0.0
0
LINE
5
609
8
0-2
6
CONTINUOUS
62
  7
10
840.606
20
371.398
30
0.0
11
840.821
21
371.352
31
0.0
0
LINE
5
60a
8
0-2
6
CONTINUOUS
62
  7
10
840.821
20
371.352
30
0.0
11
841.045
21
371.308
31
0.0
0
LINE
5
60b
8
0-2
6
CONTINUOUS
62
  7
10
841.045
20
371.308
30
0.0
11
841.269
21
371.267
31
0.0
0
LINE
5
60c
8
0-2
6
CONTINUOUS
62
  7
10
841.269
20
371.267
30
0.0
11
841.509
21
371.225
31
0.0
0
LINE
5
60d
8
0-2
6
CONTINUOUS
62
  7
10
841.509
20
371.225
30
0.0
11
841.762
21
371.184
31
0.0
0
LINE
5
60e
8
0-2
6
CONTINUOUS
62
  7
10
841.762
20
371.184
30
0.0
11
842.035
21
371.144
31
0.0
0
LINE
5
60f
8
0-2
6
CONTINUOUS
62
  7
10
842.035
20
371.144
30
0.0
11
842.334
21
371.103
31
0.0
0
LINE
5
610
8
0-2
6
CONTINUOUS
62
  7
10
842.334
20
371.103
30
0.0
11
842.665
21
371.062
31
0.0
0
LINE
5
611
8
0-2
6
CONTINUOUS
62
  7
10
842.665
20
371.062
30
0.0
11
843.032
21
371.020
31
0.0
0
LINE
5
612
8
0-2
6
CONTINUOUS
62
  7
10
843.032
20
371.020
30
0.0
11
843.445
21
370.978
31
0.0
0
LINE
5
613
8
0-2
6
CONTINUOUS
62
  7
10
843.445
20
370.978
30
0.0
11
843.904
21
370.935
31
0.0
0
LINE
5
614
8
0-2
6
CONTINUOUS
62
  7
10
843.904
20
370.935
30
0.0
11
844.427
21
370.891
31
0.0
0
LINE
5
615
8
0-2
6
CONTINUOUS
62
  7
10
844.427
20
370.891
30
0.0
11
845.010
21
370.847
31
0.0
0
LINE
5
616
8
0-2
6
CONTINUOUS
62
  7
10
845.010
20
370.847
30
0.0
11
845.665
21
370.802
31
0.0
0
LINE
5
617
8
0-2
6
CONTINUOUS
62
  7
10
845.665
20
370.802
30
0.0
11
846.388
21
370.757
31
0.0
0
LINE
5
618
8
0-2
6
CONTINUOUS
62
  7
10
846.388
20
370.757
30
0.0
11
847.198
21
370.711
31
0.0
0
LINE
5
619
8
0-2
6
CONTINUOUS
62
  7
10
847.198
20
370.711
30
0.0
11
848.093
21
370.664
31
0.0
0
LINE
5
61a
8
0-2
6
CONTINUOUS
62
  7
10
848.093
20
370.664
30
0.0
11
849.075
21
370.617
31
0.0
0
LINE
5
61b
8
0-2
6
CONTINUOUS
62
  7
10
849.075
20
370.617
30
0.0
11
850.166
21
370.568
31
0.0
0
LINE
5
61c
8
0-2
6
CONTINUOUS
62
  7
10
850.166
20
370.568
30
0.0
11
851.353
21
370.519
31
0.0
0
LINE
5
61d
8
0-2
6
CONTINUOUS
62
  7
10
851.353
20
370.519
30
0.0
11
852.653
21
370.469
31
0.0
0
LINE
5
61e
8
0-2
6
CONTINUOUS
62
  7
10
852.653
20
370.469
30
0.0
11
854.058
21
370.418
31
0.0
0
LINE
5
61f
8
0-2
6
CONTINUOUS
62
  7
10
854.058
20
370.418
30
0.0
11
855.582
21
370.365
31
0.0
0
LINE
5
620
8
0-2
6
CONTINUOUS
62
  7
10
855.582
20
370.365
30
0.0
11
857.263
21
370.309
31
0.0
0
LINE
5
621
8
0-2
6
CONTINUOUS
62
  7
10
857.263
20
370.309
30
0.0
11
859.035
21
370.254
31
0.0
0
LINE
5
622
8
0-2
6
CONTINUOUS
62
  7
10
859.035
20
370.254
30
0.0
11
860.988
21
370.194
31
0.0
0
LINE
5
623
8
0-2
6
CONTINUOUS
62
  7
10
860.988
20
370.194
30
0.0
11
863.070
21
370.133
31
0.0
0
LINE
5
624
8
0-2
6
CONTINUOUS
62
  7
10
863.070
20
370.133
30
0.0
11
865.371
21
370.067
31
0.0
0
LINE
5
625
8
0-2
6
CONTINUOUS
62
  7
10
865.371
20
370.067
30
0.0
11
867.741
21
370.000
31
0.0
0
LINE
5
626
8
0-2
6
CONTINUOUS
62
  7
10
867.741
20
370.000
30
0.0
11
870.843
21
369.913
31
0.0
0
LINE
5
627
8
0-2
6
CONTINUOUS
62
  7
10
870.843
20
369.913
30
0.0
11
873.493
21
369.839
31
0.0
0
LINE
5
628
8
0-2
6
CONTINUOUS
62
  7
10
873.493
20
369.839
30
0.0
11
876.622
21
369.752
31
0.0
0
LINE
5
629
8
0-0
6
CONTINUOUS
62
  7
10
1113.257
20
374.757
30
0.0
11
1113.257
21
381.757
31
0.0
0
LINE
5
62a
8
0-0
6
CONTINUOUS
62
  7
10
1023.257
20
370.757
30
0.0
11
1024.755
21
371.472
31
0.0
0
LINE
5
62b
8
0-0
6
CONTINUOUS
62
  7
10
1024.755
20
371.472
30
0.0
11
1027.302
21
372.748
31
0.0
0
LINE
5
62c
8
0-0
6
CONTINUOUS
62
  7
10
1027.302
20
372.748
30
0.0
11
1029.749
21
374.140
31
0.0
0
LINE
5
62d
8
0-0
6
CONTINUOUS
62
  7
10
1029.749
20
374.140
30
0.0
11
1032.032
21
375.723
31
0.0
0
LINE
5
62e
8
0-0
6
CONTINUOUS
62
  7
10
1032.032
20
375.723
30
0.0
11
1033.257
21
376.757
31
0.0
0
LINE
5
62f
8
0-0
6
CONTINUOUS
62
  7
10
1033.257
20
376.757
30
0.0
11
1034.767
21
378.292
31
0.0
0
LINE
5
630
8
0-0
6
CONTINUOUS
62
  7
10
1034.767
20
378.292
30
0.0
11
1037.128
21
381.223
31
0.0
0
LINE
5
631
8
0-0
6
CONTINUOUS
62
  7
10
1037.128
20
381.223
30
0.0
11
1039.376
21
384.287
31
0.0
0
LINE
5
632
8
0-0
6
CONTINUOUS
62
  7
10
1039.376
20
384.287
30
0.0
11
1041.741
21
387.220
31
0.0
0
LINE
5
633
8
0-0
6
CONTINUOUS
62
  7
10
1041.741
20
387.220
30
0.0
11
1043.257
21
388.757
31
0.0
0
LINE
5
634
8
0-0
6
CONTINUOUS
62
  7
10
1043.257
20
388.757
30
0.0
11
1044.485
21
389.792
31
0.0
0
LINE
5
635
8
0-0
6
CONTINUOUS
62
  7
10
1044.485
20
389.792
30
0.0
11
1046.775
21
391.377
31
0.0
0
LINE
5
636
8
0-0
6
CONTINUOUS
62
  7
10
1046.775
20
391.377
30
0.0
11
1049.225
21
392.770
31
0.0
0
LINE
5
637
8
0-0
6
CONTINUOUS
62
  7
10
1049.225
20
392.770
30
0.0
11
1051.767
21
394.044
31
0.0
0
LINE
5
638
8
0-0
6
CONTINUOUS
62
  7
10
1051.767
20
394.044
30
0.0
11
1053.257
21
394.757
31
0.0
0
LINE
5
639
8
0-0
6
CONTINUOUS
62
  7
10
1053.257
20
394.757
30
0.0
11
1054.631
21
395.410
31
0.0
0
LINE
5
63a
8
0-0
6
CONTINUOUS
62
  7
10
1054.631
20
395.410
30
0.0
11
1057.002
21
396.500
31
0.0
0
LINE
5
63b
8
0-0
6
CONTINUOUS
62
  7
10
1057.002
20
396.500
30
0.0
11
1059.392
21
397.500
31
0.0
0
LINE
5
63c
8
0-0
6
CONTINUOUS
62
  7
10
1059.392
20
397.500
30
0.0
11
1061.822
21
398.352
31
0.0
0
LINE
5
63d
8
0-0
6
CONTINUOUS
62
  7
10
1061.822
20
398.352
30
0.0
11
1063.257
21
398.757
31
0.0
0
LINE
5
63e
8
0-0
6
CONTINUOUS
62
  7
10
1063.257
20
398.757
30
0.0
11
1064.616
21
399.066
31
0.0
0
LINE
5
63f
8
0-0
6
CONTINUOUS
62
  7
10
1064.616
20
399.066
30
0.0
11
1066.998
21
399.453
31
0.0
0
LINE
5
640
8
0-0
6
CONTINUOUS
62
  7
10
1066.998
20
399.453
30
0.0
11
1069.414
21
399.676
31
0.0
0
LINE
5
641
8
0-0
6
CONTINUOUS
62
  7
10
1069.414
20
399.676
30
0.0
11
1071.846
21
399.761
31
0.0
0
LINE
5
642
8
0-0
6
CONTINUOUS
62
  7
10
1071.846
20
399.761
30
0.0
11
1073.257
21
399.757
31
0.0
0
LINE
5
643
8
0-0
6
CONTINUOUS
62
  7
10
1073.257
20
399.757
30
0.0
11
1074.664
21
399.719
31
0.0
0
LINE
5
644
8
0-0
6
CONTINUOUS
62
  7
10
1074.664
20
399.719
30
0.0
11
1077.080
21
399.578
31
0.0
0
LINE
5
645
8
0-0
6
CONTINUOUS
62
  7
10
1077.080
20
399.578
30
0.0
11
1079.483
21
399.338
31
0.0
0
LINE
5
646
8
0-0
6
CONTINUOUS
62
  7
10
1079.483
20
399.338
30
0.0
11
1081.875
21
398.999
31
0.0
0
LINE
5
647
8
0-0
6
CONTINUOUS
62
  7
10
1081.875
20
398.999
30
0.0
11
1083.257
21
398.757
31
0.0
0
LINE
5
648
8
0-0
6
CONTINUOUS
62
  7
10
1083.257
20
398.757
30
0.0
11
1084.687
21
398.469
31
0.0
0
LINE
5
649
8
0-0
6
CONTINUOUS
62
  7
10
1084.687
20
398.469
30
0.0
11
1087.136
21
397.882
31
0.0
0
LINE
5
64a
8
0-0
6
CONTINUOUS
62
  7
10
1087.136
20
397.882
30
0.0
11
1089.549
21
397.169
31
0.0
0
LINE
5
64b
8
0-0
6
CONTINUOUS
62
  7
10
1089.549
20
397.169
30
0.0
11
1091.914
21
396.318
31
0.0
0
LINE
5
64c
8
0-0
6
CONTINUOUS
62
  7
10
1091.914
20
396.318
30
0.0
11
1093.257
21
395.757
31
0.0
0
LINE
5
64d
8
0-0
6
CONTINUOUS
62
  7
10
1093.257
20
395.757
30
0.0
11
1094.729
21
395.069
31
0.0
0
LINE
5
64e
8
0-0
6
CONTINUOUS
62
  7
10
1094.729
20
395.069
30
0.0
11
1097.203
21
393.748
31
0.0
0
LINE
5
64f
8
0-0
6
CONTINUOUS
62
  7
10
1097.203
20
393.748
30
0.0
11
1099.600
21
392.284
31
0.0
0
LINE
5
650
8
0-0
6
CONTINUOUS
62
  7
10
1099.600
20
392.284
30
0.0
11
1101.932
21
390.709
31
0.0
0
LINE
5
651
8
0-0
6
CONTINUOUS
62
  7
10
1101.932
20
390.709
30
0.0
11
1103.257
21
389.757
31
0.0
0
LINE
5
652
8
0-0
6
CONTINUOUS
62
  7
10
1103.257
20
389.757
30
0.0
11
1104.692
21
388.688
31
0.0
0
LINE
5
653
8
0-0
6
CONTINUOUS
62
  7
10
1104.692
20
388.688
30
0.0
11
1107.125
21
386.798
31
0.0
0
LINE
5
654
8
0-0
6
CONTINUOUS
62
  7
10
1107.125
20
386.798
30
0.0
11
1109.518
21
384.863
31
0.0
0
LINE
5
655
8
0-0
6
CONTINUOUS
62
  7
10
1109.518
20
384.863
30
0.0
11
1111.888
21
382.901
31
0.0
0
LINE
5
656
8
0-0
6
CONTINUOUS
62
  7
10
1111.888
20
382.901
30
0.0
11
1113.257
21
381.757
31
0.0
0
LINE
5
657
8
0-0
6
CONTINUOUS
62
  7
10
1020.550
20
370.757
30
0.0
11
1023.257
21
370.757
31
0.0
0
LINE
5
658
8
0-0
6
CONTINUOUS
62
  7
10
1023.257
20
370.757
30
0.0
11
986.577
21
370.757
31
0.0
0
LINE
5
659
8
0-0
6
CONTINUOUS
62
  7
10
876.622
20
369.752
30
0.0
11
877.046
21
369.776
31
0.0
0
LINE
5
65a
8
0-0
6
CONTINUOUS
62
  7
10
877.046
20
369.776
30
0.0
11
877.779
21
369.821
31
0.0
0
LINE
5
65b
8
0-0
6
CONTINUOUS
62
  7
10
877.779
20
369.821
30
0.0
11
878.510
21
369.877
31
0.0
0
LINE
5
65c
8
0-0
6
CONTINUOUS
62
  7
10
878.510
20
369.877
30
0.0
11
879.240
21
369.951
31
0.0
0
LINE
5
65d
8
0-0
6
CONTINUOUS
62
  7
10
879.240
20
369.951
30
0.0
11
879.662
21
370.004
31
0.0
0
LINE
5
65e
8
0-0
6
CONTINUOUS
62
  7
10
879.662
20
370.004
30
0.0
11
880.050
21
370.062
31
0.0
0
LINE
5
65f
8
0-0
6
CONTINUOUS
62
  7
10
880.050
20
370.062
30
0.0
11
880.714
21
370.183
31
0.0
0
LINE
5
660
8
0-0
6
CONTINUOUS
62
  7
10
880.714
20
370.183
30
0.0
11
881.372
21
370.333
31
0.0
0
LINE
5
661
8
0-0
6
CONTINUOUS
62
  7
10
881.372
20
370.333
30
0.0
11
882.021
21
370.516
31
0.0
0
LINE
5
662
8
0-0
6
CONTINUOUS
62
  7
10
882.021
20
370.516
30
0.0
11
882.392
21
370.639
31
0.0
0
LINE
5
663
8
0-0
6
CONTINUOUS
62
  7
10
882.392
20
370.639
30
0.0
11
882.685
21
370.746
31
0.0
0
LINE
5
664
8
0-0
6
CONTINUOUS
62
  7
10
882.685
20
370.746
30
0.0
11
883.184
21
370.947
31
0.0
0
LINE
5
665
8
0-0
6
CONTINUOUS
62
  7
10
883.184
20
370.947
30
0.0
11
883.677
21
371.163
31
0.0
0
LINE
5
666
8
0-0
6
CONTINUOUS
62
  7
10
883.677
20
371.163
30
0.0
11
884.167
21
371.389
31
0.0
0
LINE
5
667
8
0-0
6
CONTINUOUS
62
  7
10
884.167
20
371.389
30
0.0
11
884.450
21
371.522
31
0.0
0
LINE
5
668
8
0-0
6
CONTINUOUS
62
  7
10
833.097
20
374.371
30
0.0
11
833.086
21
374.377
31
0.0
0
LINE
5
669
8
0-0
6
CONTINUOUS
62
  7
10
833.086
20
374.377
30
0.0
11
833.065
21
374.389
31
0.0
0
LINE
5
66a
8
0-0
6
CONTINUOUS
62
  7
10
833.065
20
374.389
30
0.0
11
833.045
21
374.400
31
0.0
0
LINE
5
66b
8
0-0
6
CONTINUOUS
62
  7
10
833.045
20
374.400
30
0.0
11
833.025
21
374.412
31
0.0
0
LINE
5
66c
8
0-0
6
CONTINUOUS
62
  7
10
833.025
20
374.412
30
0.0
11
833.023
21
374.413
31
0.0
0
LINE
5
66d
8
0-2
6
CONTINUOUS
62
  7
10
832.707
20
375.360
30
0.0
11
833.023
21
374.414
31
0.0
0
LINE
5
66e
8
ADD_LINE
6
HIDDEN
62
  3
10
833.257
20
374.757
30
0.0
11
832.787
21
374.757
31
0.0
0
LINE
5
66f
8
ADD_LINE
6
HIDDEN
62
  3
10
833.257
20
374.757
30
0.0
11
833.609
21
374.757
31
0.0
0
LINE
5
670
8
ADD_LINE
6
HIDDEN
62
  3
10
833.609
20
374.757
30
0.0
11
837.082
21
374.757
31
0.0
0
LINE
5
671
8
ADD_LINE
6
HIDDEN
62
  3
10
832.787
20
374.757
30
0.0
11
829.293
21
374.757
31
0.0
0
LINE
5
672
8
0-0
6
CONTINUOUS
62
  7
10
884.456
20
371.524
30
0.0
11
885.456
21
372.251
31
0.0
0
LINE
5
673
8
0-0
6
CONTINUOUS
62
  7
10
885.456
20
372.251
30
0.0
11
886.711
21
373.451
31
0.0
0
LINE
5
674
8
0-0
6
CONTINUOUS
62
  7
10
886.711
20
373.451
30
0.0
11
888.349
21
375.309
31
0.0
0
LINE
5
675
8
0-0
6
CONTINUOUS
62
  7
10
888.349
20
375.309
30
0.0
11
889.361
21
376.548
31
0.0
0
LINE
5
676
8
0-0
6
CONTINUOUS
62
  7
10
889.361
20
376.548
30
0.0
11
890.655
21
378.172
31
0.0
0
LINE
5
677
8
0-0
6
CONTINUOUS
62
  7
10
890.655
20
378.172
30
0.0
11
893.110
21
381.225
31
0.0
0
LINE
5
678
8
0-0
6
CONTINUOUS
62
  7
10
893.110
20
381.225
30
0.0
11
895.984
21
384.531
31
0.0
0
LINE
5
679
8
0-0
6
CONTINUOUS
62
  7
10
895.984
20
384.531
30
0.0
11
899.329
21
387.816
31
0.0
0
LINE
5
67a
8
0-0
6
CONTINUOUS
62
  7
10
899.329
20
387.816
30
0.0
11
901.756
21
389.805
31
0.0
0
LINE
5
67b
8
0-0
6
CONTINUOUS
62
  7
10
901.756
20
389.805
30
0.0
11
903.837
21
391.283
31
0.0
0
LINE
5
67c
8
0-0
6
CONTINUOUS
62
  7
10
903.837
20
391.283
30
0.0
11
907.069
21
393.230
31
0.0
0
LINE
5
67d
8
0-0
6
CONTINUOUS
62
  7
10
907.069
20
393.230
30
0.0
11
910.417
21
394.894
31
0.0
0
LINE
5
67e
8
0-0
6
CONTINUOUS
62
  7
10
910.417
20
394.894
30
0.0
11
913.642
21
396.240
31
0.0
0
LINE
5
67f
8
0-0
6
CONTINUOUS
62
  7
10
913.642
20
396.240
30
0.0
11
915.590
21
396.957
31
0.0
0
LINE
5
680
8
0-0
6
CONTINUOUS
62
  7
10
915.590
20
396.957
30
0.0
11
917.422
21
397.578
31
0.0
0
LINE
5
681
8
0-0
6
CONTINUOUS
62
  7
10
917.422
20
397.578
30
0.0
11
920.588
21
398.502
31
0.0
0
LINE
5
682
8
0-0
6
CONTINUOUS
62
  7
10
920.588
20
398.502
30
0.0
11
924.145
21
399.266
31
0.0
0
LINE
5
683
8
0-0
6
CONTINUOUS
62
  7
10
924.145
20
399.266
30
0.0
11
927.862
21
399.701
31
0.0
0
LINE
5
684
8
0-0
6
CONTINUOUS
62
  7
10
927.862
20
399.701
30
0.0
11
930.423
21
399.765
31
0.0
0
LINE
5
685
8
0-0
6
CONTINUOUS
62
  7
10
930.423
20
399.765
30
0.0
11
932.949
21
399.642
31
0.0
0
LINE
5
686
8
0-0
6
CONTINUOUS
62
  7
10
932.949
20
399.642
30
0.0
11
936.529
21
399.153
31
0.0
0
LINE
5
687
8
0-0
6
CONTINUOUS
62
  7
10
936.529
20
399.153
30
0.0
11
939.837
21
398.421
31
0.0
0
LINE
5
688
8
0-0
6
CONTINUOUS
62
  7
10
939.837
20
398.421
30
0.0
11
942.707
21
397.632
31
0.0
0
LINE
5
689
8
0-0
6
CONTINUOUS
62
  7
10
942.707
20
397.632
30
0.0
11
944.260
21
397.172
31
0.0
0
LINE
5
68a
8
0-0
6
CONTINUOUS
62
  7
10
944.260
20
397.172
30
0.0
11
945.894
21
396.680
31
0.0
0
LINE
5
68b
8
0-0
6
CONTINUOUS
62
  7
10
945.894
20
396.680
30
0.0
11
948.850
21
395.727
31
0.0
0
LINE
5
68c
8
0-0
6
CONTINUOUS
62
  7
10
948.850
20
395.727
30
0.0
11
952.128
21
394.490
31
0.0
0
LINE
5
68d
8
0-0
6
CONTINUOUS
62
  7
10
952.128
20
394.490
30
0.0
11
955.492
21
392.905
31
0.0
0
LINE
5
68e
8
0-0
6
CONTINUOUS
62
  7
10
955.492
20
392.905
30
0.0
11
957.789
21
391.573
31
0.0
0
LINE
5
68f
8
0-0
6
CONTINUOUS
62
  7
10
957.789
20
391.573
30
0.0
11
960.481
21
389.694
31
0.0
0
LINE
5
690
8
0-0
6
CONTINUOUS
62
  7
10
960.481
20
389.694
30
0.0
11
964.090
21
386.535
31
0.0
0
LINE
5
691
8
0-0
6
CONTINUOUS
62
  7
10
964.090
20
386.535
30
0.0
11
967.134
21
383.302
31
0.0
0
LINE
5
692
8
0-0
6
CONTINUOUS
62
  7
10
967.134
20
383.302
30
0.0
11
969.658
21
380.340
31
0.0
0
LINE
5
693
8
0-0
6
CONTINUOUS
62
  7
10
969.658
20
380.340
30
0.0
11
970.954
21
378.788
31
0.0
0
LINE
5
694
8
0-0
6
CONTINUOUS
62
  7
10
970.954
20
378.788
30
0.0
11
972.010
21
377.550
31
0.0
0
LINE
5
695
8
0-0
6
CONTINUOUS
62
  7
10
972.010
20
377.550
30
0.0
11
973.735
21
375.660
31
0.0
0
LINE
5
696
8
0-0
6
CONTINUOUS
62
  7
10
973.735
20
375.660
30
0.0
11
975.150
21
374.321
31
0.0
0
LINE
5
697
8
0-0
6
CONTINUOUS
62
  7
10
975.150
20
374.321
30
0.0
11
976.415
21
373.371
31
0.0
0
LINE
5
698
8
0-0
6
CONTINUOUS
62
  7
10
976.415
20
373.371
30
0.0
11
976.770
21
373.164
31
0.0
0
LINE
5
699
8
0-0
6
CONTINUOUS
62
  7
10
976.770
20
373.164
30
0.0
11
976.958
21
373.076
31
0.0
0
LINE
5
69a
8
0-0
6
CONTINUOUS
62
  7
10
976.958
20
373.076
30
0.0
11
978.184
21
372.626
31
0.0
0
LINE
5
69b
8
0-0
6
CONTINUOUS
62
  7
10
978.184
20
372.626
30
0.0
11
979.738
21
372.196
31
0.0
0
LINE
5
69c
8
0-0
6
CONTINUOUS
62
  7
10
979.738
20
372.196
30
0.0
11
981.764
21
371.741
31
0.0
0
LINE
5
69d
8
0-0
6
CONTINUOUS
62
  7
10
981.764
20
371.741
30
0.0
11
983.062
21
371.473
31
0.0
0
LINE
5
69e
8
0-0
6
CONTINUOUS
62
  7
10
983.062
20
371.473
30
0.0
11
983.854
21
371.311
31
0.0
0
LINE
5
69f
8
0-0
6
CONTINUOUS
62
  7
10
983.854
20
371.311
30
0.0
11
984.903
21
371.097
31
0.0
0
LINE
5
6a0
8
0-0
6
CONTINUOUS
62
  7
10
984.903
20
371.097
30
0.0
11
985.753
21
370.925
31
0.0
0
LINE
5
6a1
8
0-0
6
CONTINUOUS
62
  7
10
985.753
20
370.925
30
0.0
11
986.577
21
370.757
31
0.0
0
LINE
5
6a2
8
0-2
6
CONTINUOUS
62
  7
10
833.097
20
359.371
30
0.0
11
833.605
21
359.116
31
0.0
0
LINE
5
6a3
8
0-2
6
CONTINUOUS
62
  7
10
833.605
20
359.116
30
0.0
11
834.048
21
358.895
31
0.0
0
LINE
5
6a4
8
0-2
6
CONTINUOUS
62
  7
10
834.048
20
358.895
30
0.0
11
834.437
21
358.703
31
0.0
0
LINE
5
6a5
8
0-2
6
CONTINUOUS
62
  7
10
834.437
20
358.703
30
0.0
11
834.804
21
358.524
31
0.0
0
LINE
5
6a6
8
0-2
6
CONTINUOUS
62
  7
10
834.804
20
358.524
30
0.0
11
835.137
21
358.364
31
0.0
0
LINE
5
6a7
8
0-2
6
CONTINUOUS
62
  7
10
835.137
20
358.364
30
0.0
11
835.440
21
358.219
31
0.0
0
LINE
5
6a8
8
0-2
6
CONTINUOUS
62
  7
10
835.440
20
358.219
30
0.0
11
835.728
21
358.083
31
0.0
0
LINE
5
6a9
8
0-2
6
CONTINUOUS
62
  7
10
835.728
20
358.083
30
0.0
11
835.984
21
357.964
31
0.0
0
LINE
5
6aa
8
0-2
6
CONTINUOUS
62
  7
10
835.984
20
357.964
30
0.0
11
836.223
21
357.854
31
0.0
0
LINE
5
6ab
8
0-2
6
CONTINUOUS
62
  7
10
836.223
20
357.854
30
0.0
11
836.446
21
357.754
31
0.0
0
LINE
5
6ac
8
0-2
6
CONTINUOUS
62
  7
10
836.446
20
357.754
30
0.0
11
836.652
21
357.663
31
0.0
0
LINE
5
6ad
8
0-2
6
CONTINUOUS
62
  7
10
836.652
20
357.663
30
0.0
11
836.847
21
357.579
31
0.0
0
LINE
5
6ae
8
0-2
6
CONTINUOUS
62
  7
10
836.847
20
357.579
30
0.0
11
837.027
21
357.503
31
0.0
0
LINE
5
6af
8
0-2
6
CONTINUOUS
62
  7
10
837.027
20
357.503
30
0.0
11
837.204
21
357.430
31
0.0
0
LINE
5
6b0
8
0-2
6
CONTINUOUS
62
  7
10
837.204
20
357.430
30
0.0
11
837.371
21
357.364
31
0.0
0
LINE
5
6b1
8
0-2
6
CONTINUOUS
62
  7
10
837.371
20
357.364
30
0.0
11
837.538
21
357.299
31
0.0
0
LINE
5
6b2
8
0-2
6
CONTINUOUS
62
  7
10
837.538
20
357.299
30
0.0
11
837.704
21
357.237
31
0.0
0
LINE
5
6b3
8
0-2
6
CONTINUOUS
62
  7
10
837.704
20
357.237
30
0.0
11
837.872
21
357.175
31
0.0
0
LINE
5
6b4
8
0-2
6
CONTINUOUS
62
  7
10
837.872
20
357.175
30
0.0
11
838.039
21
357.116
31
0.0
0
LINE
5
6b5
8
0-2
6
CONTINUOUS
62
  7
10
838.039
20
357.116
30
0.0
11
838.216
21
357.056
31
0.0
0
LINE
5
6b6
8
0-2
6
CONTINUOUS
62
  7
10
838.216
20
357.056
30
0.0
11
838.393
21
356.997
31
0.0
0
LINE
5
6b7
8
0-2
6
CONTINUOUS
62
  7
10
838.393
20
356.997
30
0.0
11
838.576
21
356.937
31
0.0
0
LINE
5
6b8
8
0-2
6
CONTINUOUS
62
  7
10
838.576
20
356.937
30
0.0
11
838.766
21
356.878
31
0.0
0
LINE
5
6b9
8
0-2
6
CONTINUOUS
62
  7
10
838.766
20
356.878
30
0.0
11
838.955
21
356.821
31
0.0
0
LINE
5
6ba
8
0-2
6
CONTINUOUS
62
  7
10
838.955
20
356.821
30
0.0
11
839.153
21
356.763
31
0.0
0
LINE
5
6bb
8
0-2
6
CONTINUOUS
62
  7
10
839.153
20
356.763
30
0.0
11
839.356
21
356.706
31
0.0
0
LINE
5
6bc
8
0-2
6
CONTINUOUS
62
  7
10
839.356
20
356.706
30
0.0
11
839.556
21
356.651
31
0.0
0
LINE
5
6bd
8
0-2
6
CONTINUOUS
62
  7
10
839.556
20
356.651
30
0.0
11
839.767
21
356.596
31
0.0
0
LINE
5
6be
8
0-2
6
CONTINUOUS
62
  7
10
839.767
20
356.596
30
0.0
11
839.970
21
356.545
31
0.0
0
LINE
5
6bf
8
0-2
6
CONTINUOUS
62
  7
10
839.970
20
356.545
30
0.0
11
840.184
21
356.493
31
0.0
0
LINE
5
6c0
8
0-2
6
CONTINUOUS
62
  7
10
840.184
20
356.493
30
0.0
11
840.392
21
356.445
31
0.0
0
LINE
5
6c1
8
0-2
6
CONTINUOUS
62
  7
10
840.392
20
356.445
30
0.0
11
840.606
21
356.398
31
0.0
0
LINE
5
6c2
8
0-2
6
CONTINUOUS
62
  7
10
840.606
20
356.398
30
0.0
11
840.821
21
356.352
31
0.0
0
LINE
5
6c3
8
0-2
6
CONTINUOUS
62
  7
10
840.821
20
356.352
30
0.0
11
841.045
21
356.308
31
0.0
0
LINE
5
6c4
8
0-2
6
CONTINUOUS
62
  7
10
841.045
20
356.308
30
0.0
11
841.269
21
356.267
31
0.0
0
LINE
5
6c5
8
0-2
6
CONTINUOUS
62
  7
10
841.269
20
356.267
30
0.0
11
841.509
21
356.225
31
0.0
0
LINE
5
6c6
8
0-2
6
CONTINUOUS
62
  7
10
841.509
20
356.225
30
0.0
11
841.762
21
356.184
31
0.0
0
LINE
5
6c7
8
0-2
6
CONTINUOUS
62
  7
10
841.762
20
356.184
30
0.0
11
842.035
21
356.144
31
0.0
0
LINE
5
6c8
8
0-2
6
CONTINUOUS
62
  7
10
842.035
20
356.144
30
0.0
11
842.334
21
356.103
31
0.0
0
LINE
5
6c9
8
0-2
6
CONTINUOUS
62
  7
10
842.334
20
356.103
30
0.0
11
842.665
21
356.062
31
0.0
0
LINE
5
6ca
8
0-2
6
CONTINUOUS
62
  7
10
842.665
20
356.062
30
0.0
11
843.032
21
356.020
31
0.0
0
LINE
5
6cb
8
0-2
6
CONTINUOUS
62
  7
10
843.032
20
356.020
30
0.0
11
843.445
21
355.978
31
0.0
0
LINE
5
6cc
8
0-2
6
CONTINUOUS
62
  7
10
843.445
20
355.978
30
0.0
11
843.904
21
355.935
31
0.0
0
LINE
5
6cd
8
0-2
6
CONTINUOUS
62
  7
10
843.904
20
355.935
30
0.0
11
844.427
21
355.891
31
0.0
0
LINE
5
6ce
8
0-2
6
CONTINUOUS
62
  7
10
844.427
20
355.891
30
0.0
11
845.010
21
355.847
31
0.0
0
LINE
5
6cf
8
0-2
6
CONTINUOUS
62
  7
10
845.010
20
355.847
30
0.0
11
845.665
21
355.802
31
0.0
0
LINE
5
6d0
8
0-2
6
CONTINUOUS
62
  7
10
845.665
20
355.802
30
0.0
11
846.388
21
355.757
31
0.0
0
LINE
5
6d1
8
0-2
6
CONTINUOUS
62
  7
10
846.388
20
355.757
30
0.0
11
847.198
21
355.711
31
0.0
0
LINE
5
6d2
8
0-2
6
CONTINUOUS
62
  7
10
847.198
20
355.711
30
0.0
11
848.093
21
355.664
31
0.0
0
LINE
5
6d3
8
0-2
6
CONTINUOUS
62
  7
10
848.093
20
355.664
30
0.0
11
849.075
21
355.617
31
0.0
0
LINE
5
6d4
8
0-2
6
CONTINUOUS
62
  7
10
849.075
20
355.617
30
0.0
11
850.166
21
355.568
31
0.0
0
LINE
5
6d5
8
0-2
6
CONTINUOUS
62
  7
10
850.166
20
355.568
30
0.0
11
851.353
21
355.519
31
0.0
0
LINE
5
6d6
8
0-2
6
CONTINUOUS
62
  7
10
851.353
20
355.519
30
0.0
11
852.653
21
355.469
31
0.0
0
LINE
5
6d7
8
0-2
6
CONTINUOUS
62
  7
10
852.653
20
355.469
30
0.0
11
854.058
21
355.418
31
0.0
0
LINE
5
6d8
8
0-2
6
CONTINUOUS
62
  7
10
854.058
20
355.418
30
0.0
11
855.582
21
355.365
31
0.0
0
LINE
5
6d9
8
0-2
6
CONTINUOUS
62
  7
10
855.582
20
355.365
30
0.0
11
857.263
21
355.309
31
0.0
0
LINE
5
6da
8
0-2
6
CONTINUOUS
62
  7
10
857.263
20
355.309
30
0.0
11
859.035
21
355.254
31
0.0
0
LINE
5
6db
8
0-2
6
CONTINUOUS
62
  7
10
859.035
20
355.254
30
0.0
11
860.988
21
355.194
31
0.0
0
LINE
5
6dc
8
0-2
6
CONTINUOUS
62
  7
10
860.988
20
355.194
30
0.0
11
863.070
21
355.133
31
0.0
0
LINE
5
6dd
8
0-2
6
CONTINUOUS
62
  7
10
863.070
20
355.133
30
0.0
11
865.371
21
355.067
31
0.0
0
LINE
5
6de
8
0-2
6
CONTINUOUS
62
  7
10
865.371
20
355.067
30
0.0
11
867.741
21
355.000
31
0.0
0
LINE
5
6df
8
0-2
6
CONTINUOUS
62
  7
10
867.741
20
355.000
30
0.0
11
870.843
21
354.913
31
0.0
0
LINE
5
6e0
8
0-2
6
CONTINUOUS
62
  7
10
870.843
20
354.913
30
0.0
11
873.493
21
354.839
31
0.0
0
LINE
5
6e1
8
0-2
6
CONTINUOUS
62
  7
10
873.493
20
354.839
30
0.0
11
876.622
21
354.752
31
0.0
0
LINE
5
6e2
8
0-0
6
CONTINUOUS
62
  7
10
1020.550
20
355.757
30
0.0
11
1023.257
21
355.757
31
0.0
0
LINE
5
6e3
8
0-0
6
CONTINUOUS
62
  7
10
1023.257
20
355.757
30
0.0
11
986.577
21
355.757
31
0.0
0
LINE
5
6e4
8
0-0
6
CONTINUOUS
62
  7
10
876.622
20
354.752
30
0.0
11
877.046
21
354.776
31
0.0
0
LINE
5
6e5
8
0-0
6
CONTINUOUS
62
  7
10
877.046
20
354.776
30
0.0
11
877.779
21
354.821
31
0.0
0
LINE
5
6e6
8
0-0
6
CONTINUOUS
62
  7
10
877.779
20
354.821
30
0.0
11
878.510
21
354.877
31
0.0
0
LINE
5
6e7
8
0-0
6
CONTINUOUS
62
  7
10
878.510
20
354.877
30
0.0
11
879.240
21
354.951
31
0.0
0
LINE
5
6e8
8
0-0
6
CONTINUOUS
62
  7
10
879.240
20
354.951
30
0.0
11
879.662
21
355.004
31
0.0
0
LINE
5
6e9
8
0-0
6
CONTINUOUS
62
  7
10
879.662
20
355.004
30
0.0
11
880.050
21
355.062
31
0.0
0
LINE
5
6ea
8
0-0
6
CONTINUOUS
62
  7
10
880.050
20
355.062
30
0.0
11
880.714
21
355.183
31
0.0
0
LINE
5
6eb
8
0-0
6
CONTINUOUS
62
  7
10
880.714
20
355.183
30
0.0
11
881.372
21
355.333
31
0.0
0
LINE
5
6ec
8
0-0
6
CONTINUOUS
62
  7
10
881.372
20
355.333
30
0.0
11
882.021
21
355.516
31
0.0
0
LINE
5
6ed
8
0-0
6
CONTINUOUS
62
  7
10
882.021
20
355.516
30
0.0
11
882.392
21
355.639
31
0.0
0
LINE
5
6ee
8
0-0
6
CONTINUOUS
62
  7
10
882.392
20
355.639
30
0.0
11
882.685
21
355.746
31
0.0
0
LINE
5
6ef
8
0-0
6
CONTINUOUS
62
  7
10
882.685
20
355.746
30
0.0
11
883.184
21
355.947
31
0.0
0
LINE
5
6f0
8
0-0
6
CONTINUOUS
62
  7
10
883.184
20
355.947
30
0.0
11
883.677
21
356.163
31
0.0
0
LINE
5
6f1
8
0-0
6
CONTINUOUS
62
  7
10
883.677
20
356.163
30
0.0
11
884.167
21
356.389
31
0.0
0
LINE
5
6f2
8
0-0
6
CONTINUOUS
62
  7
10
884.167
20
356.389
30
0.0
11
884.450
21
356.522
31
0.0
0
LINE
5
6f3
8
0-0
6
CONTINUOUS
62
  7
10
833.097
20
359.371
30
0.0
11
833.086
21
359.377
31
0.0
0
LINE
5
6f4
8
0-0
6
CONTINUOUS
62
  7
10
833.086
20
359.377
30
0.0
11
833.065
21
359.389
31
0.0
0
LINE
5
6f5
8
0-0
6
CONTINUOUS
62
  7
10
833.065
20
359.389
30
0.0
11
833.045
21
359.400
31
0.0
0
LINE
5
6f6
8
0-0
6
CONTINUOUS
62
  7
10
833.045
20
359.400
30
0.0
11
833.025
21
359.412
31
0.0
0
LINE
5
6f7
8
0-0
6
CONTINUOUS
62
  7
10
833.025
20
359.412
30
0.0
11
833.023
21
359.413
31
0.0
0
LINE
5
6f8
8
0-0
6
CONTINUOUS
62
  7
10
884.456
20
356.525
30
0.0
11
885.456
21
357.251
31
0.0
0
LINE
5
6f9
8
0-0
6
CONTINUOUS
62
  7
10
885.456
20
357.251
30
0.0
11
886.711
21
358.451
31
0.0
0
LINE
5
6fa
8
0-0
6
CONTINUOUS
62
  7
10
886.711
20
358.451
30
0.0
11
888.349
21
360.309
31
0.0
0
LINE
5
6fb
8
0-0
6
CONTINUOUS
62
  7
10
888.349
20
360.309
30
0.0
11
889.361
21
361.548
31
0.0
0
LINE
5
6fc
8
0-0
6
CONTINUOUS
62
  7
10
889.361
20
361.548
30
0.0
11
890.655
21
363.172
31
0.0
0
LINE
5
6fd
8
0-0
6
CONTINUOUS
62
  7
10
890.655
20
363.172
30
0.0
11
893.110
21
366.225
31
0.0
0
LINE
5
6fe
8
0-0
6
CONTINUOUS
62
  7
10
893.110
20
366.225
30
0.0
11
895.984
21
369.531
31
0.0
0
LINE
5
6ff
8
0-0
6
CONTINUOUS
62
  7
10
895.984
20
369.531
30
0.0
11
899.329
21
372.816
31
0.0
0
LINE
5
700
8
0-0
6
CONTINUOUS
62
  7
10
899.329
20
372.816
30
0.0
11
901.756
21
374.805
31
0.0
0
LINE
5
701
8
0-0
6
CONTINUOUS
62
  7
10
901.756
20
374.805
30
0.0
11
903.837
21
376.283
31
0.0
0
LINE
5
702
8
0-0
6
CONTINUOUS
62
  7
10
903.837
20
376.283
30
0.0
11
907.069
21
378.230
31
0.0
0
LINE
5
703
8
0-0
6
CONTINUOUS
62
  7
10
907.069
20
378.230
30
0.0
11
910.417
21
379.894
31
0.0
0
LINE
5
704
8
0-0
6
CONTINUOUS
62
  7
10
910.417
20
379.894
30
0.0
11
913.642
21
381.240
31
0.0
0
LINE
5
705
8
0-0
6
CONTINUOUS
62
  7
10
913.642
20
381.240
30
0.0
11
915.590
21
381.957
31
0.0
0
LINE
5
706
8
0-0
6
CONTINUOUS
62
  7
10
915.590
20
381.957
30
0.0
11
917.422
21
382.578
31
0.0
0
LINE
5
707
8
0-0
6
CONTINUOUS
62
  7
10
917.422
20
382.578
30
0.0
11
920.588
21
383.502
31
0.0
0
LINE
5
708
8
0-0
6
CONTINUOUS
62
  7
10
920.588
20
383.502
30
0.0
11
924.145
21
384.266
31
0.0
0
LINE
5
709
8
0-0
6
CONTINUOUS
62
  7
10
924.145
20
384.266
30
0.0
11
927.862
21
384.701
31
0.0
0
LINE
5
70a
8
0-0
6
CONTINUOUS
62
  7
10
927.862
20
384.701
30
0.0
11
930.423
21
384.765
31
0.0
0
LINE
5
70b
8
0-0
6
CONTINUOUS
62
  7
10
930.423
20
384.765
30
0.0
11
932.949
21
384.642
31
0.0
0
LINE
5
70c
8
0-0
6
CONTINUOUS
62
  7
10
932.949
20
384.642
30
0.0
11
936.529
21
384.153
31
0.0
0
LINE
5
70d
8
0-0
6
CONTINUOUS
62
  7
10
936.529
20
384.153
30
0.0
11
939.837
21
383.421
31
0.0
0
LINE
5
70e
8
0-0
6
CONTINUOUS
62
  7
10
939.837
20
383.421
30
0.0
11
942.707
21
382.632
31
0.0
0
LINE
5
70f
8
0-0
6
CONTINUOUS
62
  7
10
942.707
20
382.632
30
0.0
11
944.260
21
382.172
31
0.0
0
LINE
5
710
8
0-0
6
CONTINUOUS
62
  7
10
944.260
20
382.172
30
0.0
11
945.894
21
381.680
31
0.0
0
LINE
5
711
8
0-0
6
CONTINUOUS
62
  7
10
945.894
20
381.680
30
0.0
11
948.850
21
380.727
31
0.0
0
LINE
5
712
8
0-0
6
CONTINUOUS
62
  7
10
948.850
20
380.727
30
0.0
11
952.128
21
379.491
31
0.0
0
LINE
5
713
8
0-0
6
CONTINUOUS
62
  7
10
952.128
20
379.491
30
0.0
11
955.492
21
377.905
31
0.0
0
LINE
5
714
8
0-0
6
CONTINUOUS
62
  7
10
955.492
20
377.905
30
0.0
11
957.789
21
376.573
31
0.0
0
LINE
5
715
8
0-0
6
CONTINUOUS
62
  7
10
957.789
20
376.573
30
0.0
11
960.481
21
374.694
31
0.0
0
LINE
5
716
8
0-0
6
CONTINUOUS
62
  7
10
960.481
20
374.694
30
0.0
11
964.090
21
371.535
31
0.0
0
LINE
5
717
8
0-0
6
CONTINUOUS
62
  7
10
964.090
20
371.535
30
0.0
11
967.134
21
368.302
31
0.0
0
LINE
5
718
8
0-0
6
CONTINUOUS
62
  7
10
967.134
20
368.302
30
0.0
11
969.658
21
365.340
31
0.0
0
LINE
5
719
8
0-0
6
CONTINUOUS
62
  7
10
969.658
20
365.340
30
0.0
11
970.954
21
363.788
31
0.0
0
LINE
5
71a
8
0-0
6
CONTINUOUS
62
  7
10
970.954
20
363.788
30
0.0
11
972.010
21
362.550
31
0.0
0
LINE
5
71b
8
0-0
6
CONTINUOUS
62
  7
10
972.010
20
362.550
30
0.0
11
973.735
21
360.660
31
0.0
0
LINE
5
71c
8
0-0
6
CONTINUOUS
62
  7
10
973.735
20
360.660
30
0.0
11
975.150
21
359.321
31
0.0
0
LINE
5
71d
8
0-0
6
CONTINUOUS
62
  7
10
975.150
20
359.321
30
0.0
11
976.415
21
358.371
31
0.0
0
LINE
5
71e
8
0-0
6
CONTINUOUS
62
  7
10
976.415
20
358.371
30
0.0
11
976.770
21
358.164
31
0.0
0
LINE
5
71f
8
0-0
6
CONTINUOUS
62
  7
10
976.770
20
358.164
30
0.0
11
976.958
21
358.076
31
0.0
0
LINE
5
720
8
0-0
6
CONTINUOUS
62
  7
10
976.958
20
358.076
30
0.0
11
978.184
21
357.626
31
0.0
0
LINE
5
721
8
0-0
6
CONTINUOUS
62
  7
10
978.184
20
357.626
30
0.0
11
979.738
21
357.196
31
0.0
0
LINE
5
722
8
0-0
6
CONTINUOUS
62
  7
10
979.738
20
357.196
30
0.0
11
981.764
21
356.741
31
0.0
0
LINE
5
723
8
0-0
6
CONTINUOUS
62
  7
10
981.764
20
356.741
30
0.0
11
983.062
21
356.473
31
0.0
0
LINE
5
724
8
0-0
6
CONTINUOUS
62
  7
10
983.062
20
356.473
30
0.0
11
983.854
21
356.311
31
0.0
0
LINE
5
725
8
0-0
6
CONTINUOUS
62
  7
10
983.854
20
356.311
30
0.0
11
984.903
21
356.097
31
0.0
0
LINE
5
726
8
0-0
6
CONTINUOUS
62
  7
10
984.903
20
356.097
30
0.0
11
985.753
21
355.925
31
0.0
0
LINE
5
727
8
0-0
6
CONTINUOUS
62
  7
10
985.753
20
355.925
30
0.0
11
986.577
21
355.757
31
0.0
0
LINE
5
728
8
0-0
6
CONTINUOUS
62
  7
10
877.127
20
345.766
30
0.0
11
877.579
21
345.791
31
0.0
0
LINE
5
729
8
0-0
6
CONTINUOUS
62
  7
10
877.579
20
345.791
30
0.0
11
878.398
21
345.842
31
0.0
0
LINE
5
72a
8
0-0
6
CONTINUOUS
62
  7
10
878.398
20
345.842
30
0.0
11
879.307
21
345.911
31
0.0
0
LINE
5
72b
8
0-0
6
CONTINUOUS
62
  7
10
879.307
20
345.911
30
0.0
11
880.260
21
346.008
31
0.0
0
LINE
5
72c
8
0-0
6
CONTINUOUS
62
  7
10
880.260
20
346.008
30
0.0
11
880.893
21
346.088
31
0.0
0
LINE
5
72d
8
0-0
6
CONTINUOUS
62
  7
10
880.893
20
346.088
30
0.0
11
881.517
21
346.181
31
0.0
0
LINE
5
72e
8
0-0
6
CONTINUOUS
62
  7
10
881.517
20
346.181
30
0.0
11
882.521
21
346.363
31
0.0
0
LINE
5
72f
8
0-0
6
CONTINUOUS
62
  7
10
882.521
20
346.363
30
0.0
11
883.599
21
346.610
31
0.0
0
LINE
5
730
8
0-0
6
CONTINUOUS
62
  7
10
883.599
20
346.610
30
0.0
11
884.662
21
346.910
31
0.0
0
LINE
5
731
8
0-0
6
CONTINUOUS
62
  7
10
884.662
20
346.910
30
0.0
11
885.354
21
347.139
31
0.0
0
LINE
5
732
8
0-0
6
CONTINUOUS
62
  7
10
885.354
20
347.139
30
0.0
11
885.912
21
347.344
31
0.0
0
LINE
5
733
8
0-0
6
CONTINUOUS
62
  7
10
885.912
20
347.344
30
0.0
11
886.671
21
347.649
31
0.0
0
LINE
5
734
8
0-0
6
CONTINUOUS
62
  7
10
886.671
20
347.649
30
0.0
11
887.365
21
347.953
31
0.0
0
LINE
5
735
8
0-0
6
CONTINUOUS
62
  7
10
887.365
20
347.953
30
0.0
11
887.956
21
348.225
31
0.0
0
LINE
5
736
8
0-0
6
CONTINUOUS
62
  7
10
887.956
20
348.225
30
0.0
11
888.268
21
348.371
31
0.0
0
LINE
5
737
8
0-0
6
CONTINUOUS
62
  7
10
889.745
20
349.243
30
0.0
11
891.237
21
350.327
31
0.0
0
LINE
5
738
8
0-0
6
CONTINUOUS
62
  7
10
891.237
20
350.327
30
0.0
11
893.208
21
352.211
31
0.0
0
LINE
5
739
8
0-0
6
CONTINUOUS
62
  7
10
893.208
20
352.211
30
0.0
11
895.213
21
354.485
31
0.0
0
LINE
5
73a
8
0-0
6
CONTINUOUS
62
  7
10
895.213
20
354.485
30
0.0
11
896.366
21
355.898
31
0.0
0
LINE
5
73b
8
0-0
6
CONTINUOUS
62
  7
10
896.366
20
355.898
30
0.0
11
897.685
21
357.553
31
0.0
0
LINE
5
73c
8
0-0
6
CONTINUOUS
62
  7
10
897.685
20
357.553
30
0.0
11
900.015
21
360.450
31
0.0
0
LINE
5
73d
8
0-0
6
CONTINUOUS
62
  7
10
900.015
20
360.450
30
0.0
11
902.544
21
363.358
31
0.0
0
LINE
5
73e
8
0-0
6
CONTINUOUS
62
  7
10
902.544
20
363.358
30
0.0
11
905.347
21
366.111
31
0.0
0
LINE
5
73f
8
0-0
6
CONTINUOUS
62
  7
10
905.347
20
366.111
30
0.0
11
907.221
21
367.647
31
0.0
0
LINE
5
740
8
0-0
6
CONTINUOUS
62
  7
10
907.221
20
367.647
30
0.0
11
908.772
21
368.749
31
0.0
0
LINE
5
741
8
0-0
6
CONTINUOUS
62
  7
10
908.772
20
368.749
30
0.0
11
911.401
21
370.333
31
0.0
0
LINE
5
742
8
0-0
6
CONTINUOUS
62
  7
10
911.401
20
370.333
30
0.0
11
914.157
21
371.702
31
0.0
0
LINE
5
743
8
0-0
6
CONTINUOUS
62
  7
10
914.157
20
371.702
30
0.0
11
916.932
21
372.860
31
0.0
0
LINE
5
744
8
0-0
6
CONTINUOUS
62
  7
10
916.932
20
372.860
30
0.0
11
918.591
21
373.471
31
0.0
0
LINE
5
745
8
0-0
6
CONTINUOUS
62
  7
10
918.591
20
373.471
30
0.0
11
920.127
21
373.992
31
0.0
0
LINE
5
746
8
0-0
6
CONTINUOUS
62
  7
10
920.127
20
373.992
30
0.0
11
922.796
21
374.771
31
0.0
0
LINE
5
747
8
0-0
6
CONTINUOUS
62
  7
10
922.796
20
374.771
30
0.0
11
925.617
21
375.377
31
0.0
0
LINE
5
748
8
0-0
6
CONTINUOUS
62
  7
10
925.617
20
375.377
30
0.0
11
928.500
21
375.714
31
0.0
0
LINE
5
749
8
0-0
6
CONTINUOUS
62
  7
10
928.500
20
375.714
30
0.0
11
930.316
21
375.760
31
0.0
0
LINE
5
74a
8
0-0
6
CONTINUOUS
62
  7
10
930.316
20
375.760
30
0.0
11
932.118
21
375.672
31
0.0
0
LINE
5
74b
8
0-0
6
CONTINUOUS
62
  7
10
932.118
20
375.672
30
0.0
11
934.945
21
375.285
31
0.0
0
LINE
5
74c
8
0-0
6
CONTINUOUS
62
  7
10
934.945
20
375.285
30
0.0
11
937.670
21
374.682
31
0.0
0
LINE
5
74d
8
0-0
6
CONTINUOUS
62
  7
10
937.670
20
374.682
30
0.0
11
940.238
21
373.976
31
0.0
0
LINE
5
74e
8
0-0
6
CONTINUOUS
62
  7
10
940.238
20
373.976
30
0.0
11
941.681
21
373.550
31
0.0
0
LINE
5
74f
8
0-0
6
CONTINUOUS
62
  7
10
941.681
20
373.550
30
0.0
11
943.215
21
373.087
31
0.0
0
LINE
5
750
8
0-0
6
CONTINUOUS
62
  7
10
943.215
20
373.087
30
0.0
11
945.880
21
372.228
31
0.0
0
LINE
5
751
8
0-0
6
CONTINUOUS
62
  7
10
945.880
20
372.228
30
0.0
11
948.615
21
371.196
31
0.0
0
LINE
5
752
8
0-0
6
CONTINUOUS
62
  7
10
948.615
20
371.196
30
0.0
11
951.307
21
369.928
31
0.0
0
LINE
5
753
8
0-0
6
CONTINUOUS
62
  7
10
951.307
20
369.928
30
0.0
11
952.947
21
368.977
31
0.0
0
LINE
5
754
8
0-0
6
CONTINUOUS
62
  7
10
952.947
20
368.977
30
0.0
11
954.925
21
367.596
31
0.0
0
LINE
5
755
8
0-0
6
CONTINUOUS
62
  7
10
954.925
20
367.596
30
0.0
11
957.835
21
365.049
31
0.0
0
LINE
5
756
8
0-0
6
CONTINUOUS
62
  7
10
957.835
20
365.049
30
0.0
11
960.429
21
362.295
31
0.0
0
LINE
5
757
8
0-0
6
CONTINUOUS
62
  7
10
960.429
20
362.295
30
0.0
11
962.778
21
359.537
31
0.0
0
LINE
5
758
8
0-0
6
CONTINUOUS
62
  7
10
962.778
20
359.537
30
0.0
11
964.076
21
357.984
31
0.0
0
LINE
5
759
8
0-0
6
CONTINUOUS
62
  7
10
964.076
20
357.984
30
0.0
11
965.260
21
356.595
31
0.0
0
LINE
5
75a
8
0-0
6
CONTINUOUS
62
  7
10
965.260
20
356.595
30
0.0
11
967.309
21
354.349
31
0.0
0
LINE
5
75b
8
0-0
6
CONTINUOUS
62
  7
10
967.309
20
354.349
30
0.0
11
969.336
21
352.432
31
0.0
0
LINE
5
75c
8
0-0
6
CONTINUOUS
62
  7
10
969.336
20
352.432
30
0.0
11
971.431
21
350.858
31
0.0
0
LINE
5
75d
8
0-0
6
CONTINUOUS
62
  7
10
971.431
20
350.858
30
0.0
11
972.583
21
350.188
31
0.0
0
LINE
5
75e
8
0-0
6
CONTINUOUS
62
  7
10
972.583
20
350.188
30
0.0
11
973.484
21
349.764
31
0.0
0
LINE
5
75f
8
0-0
6
CONTINUOUS
62
  7
10
973.484
20
349.764
30
0.0
11
975.429
21
349.050
31
0.0
0
LINE
5
760
8
0-0
6
CONTINUOUS
62
  7
10
975.429
20
349.050
30
0.0
11
977.550
21
348.463
31
0.0
0
LINE
5
761
8
0-0
6
CONTINUOUS
62
  7
10
977.550
20
348.463
30
0.0
11
979.868
21
347.942
31
0.0
0
LINE
5
762
8
0-0
6
CONTINUOUS
62
  7
10
979.868
20
347.942
30
0.0
11
981.249
21
347.657
31
0.0
0
LINE
5
763
8
0-0
6
CONTINUOUS
62
  7
10
981.249
20
347.657
30
0.0
11
982.066
21
347.491
31
0.0
0
LINE
5
764
8
0-0
6
CONTINUOUS
62
  7
10
982.066
20
347.491
30
0.0
11
983.120
21
347.276
31
0.0
0
LINE
5
765
8
0-0
6
CONTINUOUS
62
  7
10
983.120
20
347.276
30
0.0
11
984.029
21
347.091
31
0.0
0
LINE
5
766
8
0-0
6
CONTINUOUS
62
  7
10
984.029
20
347.091
30
0.0
11
984.784
21
346.937
31
0.0
0
LINE
5
767
8
0-0
6
CONTINUOUS
62
  7
10
889.745
20
349.243
30
0.0
11
891.237
21
350.327
31
0.0
0
LINE
5
768
8
0-0
6
CONTINUOUS
62
  7
10
891.237
20
350.327
30
0.0
11
893.208
21
352.211
31
0.0
0
LINE
5
769
8
0-0
6
CONTINUOUS
62
  7
10
893.208
20
352.211
30
0.0
11
895.213
21
354.485
31
0.0
0
LINE
5
76a
8
0-0
6
CONTINUOUS
62
  7
10
895.213
20
354.485
30
0.0
11
896.366
21
355.898
31
0.0
0
LINE
5
76b
8
0-0
6
CONTINUOUS
62
  7
10
896.366
20
355.898
30
0.0
11
897.685
21
357.553
31
0.0
0
LINE
5
76c
8
0-0
6
CONTINUOUS
62
  7
10
897.685
20
357.553
30
0.0
11
900.015
21
360.450
31
0.0
0
LINE
5
76d
8
0-0
6
CONTINUOUS
62
  7
10
900.015
20
360.450
30
0.0
11
902.544
21
363.358
31
0.0
0
LINE
5
76e
8
0-0
6
CONTINUOUS
62
  7
10
902.544
20
363.358
30
0.0
11
905.347
21
366.111
31
0.0
0
LINE
5
76f
8
0-0
6
CONTINUOUS
62
  7
10
905.347
20
366.111
30
0.0
11
907.221
21
367.647
31
0.0
0
LINE
5
770
8
0-0
6
CONTINUOUS
62
  7
10
907.221
20
367.647
30
0.0
11
908.772
21
368.749
31
0.0
0
LINE
5
771
8
0-0
6
CONTINUOUS
62
  7
10
908.772
20
368.749
30
0.0
11
911.401
21
370.333
31
0.0
0
LINE
5
772
8
0-0
6
CONTINUOUS
62
  7
10
911.401
20
370.333
30
0.0
11
914.157
21
371.702
31
0.0
0
LINE
5
773
8
0-0
6
CONTINUOUS
62
  7
10
914.157
20
371.702
30
0.0
11
916.932
21
372.860
31
0.0
0
LINE
5
774
8
0-0
6
CONTINUOUS
62
  7
10
916.932
20
372.860
30
0.0
11
918.591
21
373.471
31
0.0
0
LINE
5
775
8
0-0
6
CONTINUOUS
62
  7
10
918.591
20
373.471
30
0.0
11
920.127
21
373.992
31
0.0
0
LINE
5
776
8
0-0
6
CONTINUOUS
62
  7
10
920.127
20
373.992
30
0.0
11
922.796
21
374.771
31
0.0
0
LINE
5
777
8
0-0
6
CONTINUOUS
62
  7
10
922.796
20
374.771
30
0.0
11
925.617
21
375.377
31
0.0
0
LINE
5
778
8
0-0
6
CONTINUOUS
62
  7
10
925.617
20
375.377
30
0.0
11
928.500
21
375.714
31
0.0
0
LINE
5
779
8
0-0
6
CONTINUOUS
62
  7
10
928.500
20
375.714
30
0.0
11
930.316
21
375.760
31
0.0
0
LINE
5
77a
8
0-0
6
CONTINUOUS
62
  7
10
930.316
20
375.760
30
0.0
11
932.118
21
375.672
31
0.0
0
LINE
5
77b
8
0-0
6
CONTINUOUS
62
  7
10
932.118
20
375.672
30
0.0
11
934.945
21
375.285
31
0.0
0
LINE
5
77c
8
0-0
6
CONTINUOUS
62
  7
10
934.945
20
375.285
30
0.0
11
937.670
21
374.682
31
0.0
0
LINE
5
77d
8
0-0
6
CONTINUOUS
62
  7
10
937.670
20
374.682
30
0.0
11
940.238
21
373.976
31
0.0
0
LINE
5
77e
8
0-0
6
CONTINUOUS
62
  7
10
940.238
20
373.976
30
0.0
11
941.681
21
373.550
31
0.0
0
LINE
5
77f
8
0-0
6
CONTINUOUS
62
  7
10
941.681
20
373.550
30
0.0
11
943.215
21
373.087
31
0.0
0
LINE
5
780
8
0-0
6
CONTINUOUS
62
  7
10
943.215
20
373.087
30
0.0
11
945.880
21
372.228
31
0.0
0
LINE
5
781
8
0-0
6
CONTINUOUS
62
  7
10
945.880
20
372.228
30
0.0
11
948.615
21
371.196
31
0.0
0
LINE
5
782
8
0-0
6
CONTINUOUS
62
  7
10
948.615
20
371.196
30
0.0
11
951.307
21
369.928
31
0.0
0
LINE
5
783
8
0-0
6
CONTINUOUS
62
  7
10
951.307
20
369.928
30
0.0
11
952.947
21
368.977
31
0.0
0
LINE
5
784
8
0-0
6
CONTINUOUS
62
  7
10
952.947
20
368.977
30
0.0
11
954.925
21
367.596
31
0.0
0
LINE
5
785
8
0-0
6
CONTINUOUS
62
  7
10
954.925
20
367.596
30
0.0
11
957.835
21
365.049
31
0.0
0
LINE
5
786
8
0-0
6
CONTINUOUS
62
  7
10
957.835
20
365.049
30
0.0
11
960.429
21
362.295
31
0.0
0
LINE
5
787
8
0-0
6
CONTINUOUS
62
  7
10
960.429
20
362.295
30
0.0
11
962.778
21
359.537
31
0.0
0
LINE
5
788
8
0-0
6
CONTINUOUS
62
  7
10
962.778
20
359.537
30
0.0
11
964.076
21
357.984
31
0.0
0
LINE
5
789
8
0-0
6
CONTINUOUS
62
  7
10
964.076
20
357.984
30
0.0
11
965.260
21
356.595
31
0.0
0
LINE
5
78a
8
0-0
6
CONTINUOUS
62
  7
10
965.260
20
356.595
30
0.0
11
967.309
21
354.349
31
0.0
0
LINE
5
78b
8
0-0
6
CONTINUOUS
62
  7
10
967.309
20
354.349
30
0.0
11
969.336
21
352.432
31
0.0
0
LINE
5
78c
8
0-0
6
CONTINUOUS
62
  7
10
969.336
20
352.432
30
0.0
11
971.431
21
350.858
31
0.0
0
LINE
5
78d
8
0-0
6
CONTINUOUS
62
  7
10
971.431
20
350.858
30
0.0
11
972.583
21
350.188
31
0.0
0
LINE
5
78e
8
0-0
6
CONTINUOUS
62
  7
10
972.583
20
350.188
30
0.0
11
973.484
21
349.764
31
0.0
0
LINE
5
78f
8
0-0
6
CONTINUOUS
62
  7
10
973.484
20
349.764
30
0.0
11
975.429
21
349.050
31
0.0
0
LINE
5
790
8
0-0
6
CONTINUOUS
62
  7
10
975.429
20
349.050
30
0.0
11
977.550
21
348.463
31
0.0
0
LINE
5
791
8
0-0
6
CONTINUOUS
62
  7
10
977.550
20
348.463
30
0.0
11
979.868
21
347.942
31
0.0
0
LINE
5
792
8
0-0
6
CONTINUOUS
62
  7
10
979.868
20
347.942
30
0.0
11
981.249
21
347.657
31
0.0
0
LINE
5
793
8
0-0
6
CONTINUOUS
62
  7
10
981.249
20
347.657
30
0.0
11
982.066
21
347.491
31
0.0
0
LINE
5
794
8
0-0
6
CONTINUOUS
62
  7
10
982.066
20
347.491
30
0.0
11
983.120
21
347.276
31
0.0
0
LINE
5
795
8
0-0
6
CONTINUOUS
62
  7
10
983.120
20
347.276
30
0.0
11
984.029
21
347.091
31
0.0
0
LINE
5
796
8
0-0
6
CONTINUOUS
62
  7
10
984.029
20
347.091
30
0.0
11
984.784
21
346.937
31
0.0
0
LINE
5
797
8
0-0
6
CONTINUOUS
62
  7
10
833.023
20
349.427
30
0.0
11
833.055
21
349.413
31
0.0
0
LINE
5
798
8
0-0
6
CONTINUOUS
62
  7
10
833.055
20
349.413
30
0.0
11
833.318
21
349.300
31
0.0
0
LINE
5
799
8
0-0
6
CONTINUOUS
62
  7
10
833.318
20
349.300
30
0.0
11
833.572
21
349.193
31
0.0
0
LINE
5
79a
8
0-0
6
CONTINUOUS
62
  7
10
833.572
20
349.193
30
0.0
11
833.831
21
349.087
31
0.0
0
LINE
5
79b
8
0-0
6
CONTINUOUS
62
  7
10
833.831
20
349.087
30
0.0
11
834.075
21
348.989
31
0.0
0
LINE
5
79c
8
0-0
6
CONTINUOUS
62
  7
10
834.075
20
348.989
30
0.0
11
834.326
21
348.892
31
0.0
0
LINE
5
79d
8
0-0
6
CONTINUOUS
62
  7
10
834.326
20
348.892
30
0.0
11
834.574
21
348.798
31
0.0
0
LINE
5
79e
8
0-0
6
CONTINUOUS
62
  7
10
834.574
20
348.798
30
0.0
11
834.824
21
348.707
31
0.0
0
LINE
5
79f
8
0-0
6
CONTINUOUS
62
  7
10
834.824
20
348.707
30
0.0
11
835.076
21
348.618
31
0.0
0
LINE
5
7a0
8
0-0
6
CONTINUOUS
62
  7
10
835.076
20
348.618
30
0.0
11
835.334
21
348.529
31
0.0
0
LINE
5
7a1
8
0-0
6
CONTINUOUS
62
  7
10
835.334
20
348.529
30
0.0
11
835.592
21
348.444
31
0.0
0
LINE
5
7a2
8
0-0
6
CONTINUOUS
62
  7
10
835.592
20
348.444
30
0.0
11
835.854
21
348.359
31
0.0
0
LINE
5
7a3
8
0-0
6
CONTINUOUS
62
  7
10
835.854
20
348.359
30
0.0
11
836.127
21
348.274
31
0.0
0
LINE
5
7a4
8
0-0
6
CONTINUOUS
62
  7
10
836.127
20
348.274
30
0.0
11
836.391
21
348.194
31
0.0
0
LINE
5
7a5
8
0-0
6
CONTINUOUS
62
  7
10
836.391
20
348.194
30
0.0
11
836.667
21
348.114
31
0.0
0
LINE
5
7a6
8
0-0
6
CONTINUOUS
62
  7
10
836.667
20
348.114
30
0.0
11
836.951
21
348.033
31
0.0
0
LINE
5
7a7
8
0-0
6
CONTINUOUS
62
  7
10
836.951
20
348.033
30
0.0
11
837.229
21
347.958
31
0.0
0
LINE
5
7a8
8
0-0
6
CONTINUOUS
62
  7
10
837.229
20
347.958
30
0.0
11
837.521
21
347.881
31
0.0
0
LINE
5
7a9
8
0-0
6
CONTINUOUS
62
  7
10
837.521
20
347.881
30
0.0
11
837.810
21
347.808
31
0.0
0
LINE
5
7aa
8
0-0
6
CONTINUOUS
62
  7
10
837.810
20
347.808
30
0.0
11
838.108
21
347.735
31
0.0
0
LINE
5
7ab
8
0-0
6
CONTINUOUS
62
  7
10
838.108
20
347.735
30
0.0
11
838.403
21
347.667
31
0.0
0
LINE
5
7ac
8
0-0
6
CONTINUOUS
62
  7
10
838.403
20
347.667
30
0.0
11
838.715
21
347.598
31
0.0
0
LINE
5
7ad
8
0-0
6
CONTINUOUS
62
  7
10
838.715
20
347.598
30
0.0
11
839.028
21
347.533
31
0.0
0
LINE
5
7ae
8
0-0
6
CONTINUOUS
62
  7
10
839.028
20
347.533
30
0.0
11
839.351
21
347.469
31
0.0
0
LINE
5
7af
8
0-0
6
CONTINUOUS
62
  7
10
839.351
20
347.469
30
0.0
11
839.680
21
347.408
31
0.0
0
LINE
5
7b0
8
0-0
6
CONTINUOUS
62
  7
10
839.680
20
347.408
30
0.0
11
840.026
21
347.348
31
0.0
0
LINE
5
7b1
8
0-0
6
CONTINUOUS
62
  7
10
840.026
20
347.348
30
0.0
11
840.384
21
347.290
31
0.0
0
LINE
5
7b2
8
0-0
6
CONTINUOUS
62
  7
10
840.384
20
347.290
30
0.0
11
840.766
21
347.234
31
0.0
0
LINE
5
7b3
8
0-0
6
CONTINUOUS
62
  7
10
840.766
20
347.234
30
0.0
11
841.172
21
347.178
31
0.0
0
LINE
5
7b4
8
0-0
6
CONTINUOUS
62
  7
10
841.172
20
347.178
30
0.0
11
841.601
21
347.125
31
0.0
0
LINE
5
7b5
8
0-0
6
CONTINUOUS
62
  7
10
841.601
20
347.125
30
0.0
11
842.064
21
347.072
31
0.0
0
LINE
5
7b6
8
0-0
6
CONTINUOUS
62
  7
10
842.064
20
347.072
30
0.0
11
842.568
21
347.020
31
0.0
0
LINE
5
7b7
8
0-0
6
CONTINUOUS
62
  7
10
842.568
20
347.020
30
0.0
11
843.110
21
346.970
31
0.0
0
LINE
5
7b8
8
0-0
6
CONTINUOUS
62
  7
10
843.110
20
346.970
30
0.0
11
843.713
21
346.919
31
0.0
0
LINE
5
7b9
8
0-0
6
CONTINUOUS
62
  7
10
843.713
20
346.919
30
0.0
11
844.360
21
346.870
31
0.0
0
LINE
5
7ba
8
0-0
6
CONTINUOUS
62
  7
10
844.360
20
346.870
30
0.0
11
845.075
21
346.821
31
0.0
0
LINE
5
7bb
8
0-0
6
CONTINUOUS
62
  7
10
845.075
20
346.821
30
0.0
11
845.852
21
346.773
31
0.0
0
LINE
5
7bc
8
0-0
6
CONTINUOUS
62
  7
10
845.852
20
346.773
30
0.0
11
846.709
21
346.724
31
0.0
0
LINE
5
7bd
8
0-0
6
CONTINUOUS
62
  7
10
846.709
20
346.724
30
0.0
11
847.645
21
346.675
31
0.0
0
LINE
5
7be
8
0-0
6
CONTINUOUS
62
  7
10
847.645
20
346.675
30
0.0
11
848.662
21
346.626
31
0.0
0
LINE
5
7bf
8
0-0
6
CONTINUOUS
62
  7
10
848.662
20
346.626
30
0.0
11
849.782
21
346.577
31
0.0
0
LINE
5
7c0
8
0-0
6
CONTINUOUS
62
  7
10
849.782
20
346.577
30
0.0
11
850.984
21
346.527
31
0.0
0
LINE
5
7c1
8
0-0
6
CONTINUOUS
62
  7
10
850.984
20
346.527
30
0.0
11
852.316
21
346.475
31
0.0
0
LINE
5
7c2
8
0-0
6
CONTINUOUS
62
  7
10
852.316
20
346.475
30
0.0
11
853.736
21
346.423
31
0.0
0
LINE
5
7c3
8
0-0
6
CONTINUOUS
62
  7
10
853.736
20
346.423
30
0.0
11
855.289
21
346.370
31
0.0
0
LINE
5
7c4
8
0-0
6
CONTINUOUS
62
  7
10
855.289
20
346.370
30
0.0
11
856.958
21
346.315
31
0.0
0
LINE
5
7c5
8
0-0
6
CONTINUOUS
62
  7
10
856.958
20
346.315
30
0.0
11
858.767
21
346.258
31
0.0
0
LINE
5
7c6
8
0-0
6
CONTINUOUS
62
  7
10
858.767
20
346.258
30
0.0
11
860.718
21
346.198
31
0.0
0
LINE
5
7c7
8
0-0
6
CONTINUOUS
62
  7
10
860.718
20
346.198
30
0.0
11
862.827
21
346.136
31
0.0
0
LINE
5
7c8
8
0-0
6
CONTINUOUS
62
  7
10
862.827
20
346.136
30
0.0
11
865.076
21
346.071
31
0.0
0
LINE
5
7c9
8
0-0
6
CONTINUOUS
62
  7
10
865.076
20
346.071
30
0.0
11
867.530
21
346.002
31
0.0
0
LINE
5
7ca
8
0-0
6
CONTINUOUS
62
  7
10
867.530
20
346.002
30
0.0
11
870.397
21
345.922
31
0.0
0
LINE
5
7cb
8
0-0
6
CONTINUOUS
62
  7
10
870.397
20
345.922
30
0.0
11
873.297
21
345.841
31
0.0
0
LINE
5
7cc
8
0-0
6
CONTINUOUS
62
  7
10
873.297
20
345.841
30
0.0
11
876.369
21
345.755
31
0.0
0
LINE
5
7cd
8
0-0
6
CONTINUOUS
62
  7
10
833.023
20
374.414
30
0.0
11
833.023
21
349.427
31
0.0
0
LINE
5
7ce
8
0-0
6
CONTINUOUS
62
  7
10
1104.257
20
366.937
30
0.0
11
1113.257
21
366.937
31
0.0
0
LINE
5
7cf
8
0-0
6
CONTINUOUS
62
  7
10
1113.257
20
374.757
30
0.0
11
1113.257
21
366.937
31
0.0
0
LINE
5
7d0
8
0-0
6
CONTINUOUS
62
  7
10
984.784
20
346.937
30
0.0
11
1022.383
21
346.937
31
0.0
0
LINE
5
7d1
8
0-0
6
CONTINUOUS
62
  7
10
877.127
20
345.766
30
0.0
11
877.579
21
345.791
31
0.0
0
LINE
5
7d2
8
0-0
6
CONTINUOUS
62
  7
10
877.579
20
345.791
30
0.0
11
878.398
21
345.842
31
0.0
0
LINE
5
7d3
8
0-0
6
CONTINUOUS
62
  7
10
878.398
20
345.842
30
0.0
11
879.307
21
345.911
31
0.0
0
LINE
5
7d4
8
0-0
6
CONTINUOUS
62
  7
10
879.307
20
345.911
30
0.0
11
880.260
21
346.008
31
0.0
0
LINE
5
7d5
8
0-0
6
CONTINUOUS
62
  7
10
880.260
20
346.008
30
0.0
11
880.893
21
346.088
31
0.0
0
LINE
5
7d6
8
0-0
6
CONTINUOUS
62
  7
10
880.893
20
346.088
30
0.0
11
881.517
21
346.181
31
0.0
0
LINE
5
7d7
8
0-0
6
CONTINUOUS
62
  7
10
881.517
20
346.181
30
0.0
11
882.521
21
346.363
31
0.0
0
LINE
5
7d8
8
0-0
6
CONTINUOUS
62
  7
10
882.521
20
346.363
30
0.0
11
883.599
21
346.610
31
0.0
0
LINE
5
7d9
8
0-0
6
CONTINUOUS
62
  7
10
883.599
20
346.610
30
0.0
11
884.662
21
346.910
31
0.0
0
LINE
5
7da
8
0-0
6
CONTINUOUS
62
  7
10
884.662
20
346.910
30
0.0
11
885.354
21
347.139
31
0.0
0
LINE
5
7db
8
0-0
6
CONTINUOUS
62
  7
10
885.354
20
347.139
30
0.0
11
885.912
21
347.344
31
0.0
0
LINE
5
7dc
8
0-0
6
CONTINUOUS
62
  7
10
885.912
20
347.344
30
0.0
11
886.671
21
347.649
31
0.0
0
LINE
5
7dd
8
0-0
6
CONTINUOUS
62
  7
10
886.671
20
347.649
30
0.0
11
887.365
21
347.953
31
0.0
0
LINE
5
7de
8
0-0
6
CONTINUOUS
62
  7
10
887.365
20
347.953
30
0.0
11
887.956
21
348.225
31
0.0
0
LINE
5
7df
8
0-0
6
CONTINUOUS
62
  7
10
887.956
20
348.225
30
0.0
11
888.268
21
348.371
31
0.0
0
LINE
5
7e0
8
0-0
6
CONTINUOUS
62
  7
10
876.369
20
345.755
30
0.0
11
877.127
21
345.766
31
0.0
0
LINE
5
7e1
8
0-0
6
CONTINUOUS
62
  7
10
888.268
20
348.371
30
0.0
11
888.423
21
348.444
31
0.0
0
LINE
5
7e2
8
0-0
6
CONTINUOUS
62
  7
10
888.423
20
348.444
30
0.0
11
888.689
21
348.573
31
0.0
0
LINE
5
7e3
8
0-0
6
CONTINUOUS
62
  7
10
888.689
20
348.573
30
0.0
11
888.951
21
348.709
31
0.0
0
LINE
5
7e4
8
0-0
6
CONTINUOUS
62
  7
10
888.951
20
348.709
30
0.0
11
889.205
21
348.857
31
0.0
0
LINE
5
7e5
8
0-0
6
CONTINUOUS
62
  7
10
889.205
20
348.857
30
0.0
11
889.348
21
348.949
31
0.0
0
LINE
5
7e6
8
0-0
6
CONTINUOUS
62
  7
10
889.348
20
348.949
30
0.0
11
889.405
21
348.988
31
0.0
0
LINE
5
7e7
8
0-0
6
CONTINUOUS
62
  7
10
889.405
20
348.988
30
0.0
11
889.501
21
349.058
31
0.0
0
LINE
5
7e8
8
0-0
6
CONTINUOUS
62
  7
10
889.501
20
349.058
30
0.0
11
889.596
21
349.129
31
0.0
0
LINE
5
7e9
8
0-0
6
CONTINUOUS
62
  7
10
889.596
20
349.129
30
0.0
11
889.691
21
349.201
31
0.0
0
LINE
5
7ea
8
0-0
6
CONTINUOUS
62
  7
10
889.691
20
349.201
30
0.0
11
889.745
21
349.243
31
0.0
0
LINE
5
7eb
8
0-0
6
CONTINUOUS
62
  7
10
800.257
20
381.699
30
0.0
11
833.023
21
361.684
31
0.0
0
LINE
5
7ec
8
0-0
6
CONTINUOUS
62
  7
10
800.257
20
385.757
30
0.0
11
800.257
21
381.699
31
0.0
0
LINE
5
7ed
8
0-0
6
CONTINUOUS
62
  7
10
801.257
20
386.699
30
0.0
11
824.257
21
377.261
31
0.0
0
LINE
5
7ee
8
0-0
6
CONTINUOUS
62
  7
10
824.257
20
377.261
30
0.0
11
824.257
21
376.058
31
0.0
0
LINE
5
7ef
8
ADD_LINE
6
HIDDEN
62
  3
10
833.257
20
373.711
30
0.0
11
833.257
21
370.699
31
0.0
0
LINE
5
7f0
8
ADD_LINE
6
HIDDEN
62
  3
10
833.257
20
373.711
30
0.0
11
833.257
21
381.453
31
0.0
0
LINE
5
7f1
8
0-2
6
CONTINUOUS
62
  7
10
800.257
20
1406.757
30
0.0
11
1113.257
21
1406.757
31
0.0
0
LINE
5
7f2
8
0-2
6
CONTINUOUS
62
  7
10
800.257
20
1293.243
30
0.0
11
800.257
21
1406.757
31
0.0
0
LINE
5
7f3
8
0-2
6
CONTINUOUS
62
  7
10
1113.257
20
1293.243
30
0.0
11
1113.257
21
1406.757
31
0.0
0
LINE
5
7f4
8
0-2
6
CONTINUOUS
62
  7
10
800.257
20
1350.000
30
0.0
11
833.257
21
1350.000
31
0.0
0
LINE
5
7f5
8
0-2
6
CONTINUOUS
62
  7
10
800.257
20
1293.243
30
0.0
11
800.257
21
1350.000
31
0.0
0
LINE
5
7f6
8
0-2
6
CONTINUOUS
62
  7
10
833.257
20
1293.243
30
0.0
11
833.257
21
1350.000
31
0.0
0
LINE
5
7f7
8
0-2
6
CONTINUOUS
62
  7
10
833.257
20
1350.000
30
0.0
11
1108.257
21
1350.000
31
0.0
0
LINE
5
7f8
8
0-2
6
CONTINUOUS
62
  7
10
1108.257
20
1293.243
30
0.0
11
1108.257
21
1350.000
31
0.0
0
LINE
5
7f9
8
0-2
6
CONTINUOUS
62
  7
10
1113.257
20
1350.000
30
0.0
11
1108.257
21
1350.000
31
0.0
0
LINE
5
7fa
8
0-2
6
CONTINUOUS
62
  7
10
1113.257
20
1293.243
30
0.0
11
1113.257
21
1350.000
31
0.0
0
LINE
5
7fb
8
0-0
6
CONTINUOUS
62
  7
10
1358.162
20
1247.824
30
0.0
11
1390.162
21
1247.824
31
0.0
0
LINE
5
7fc
8
0-0
6
CONTINUOUS
62
  7
10
1390.162
20
1238.828
30
0.0
11
1376.162
21
1236.039
31
0.0
0
LINE
5
7fd
8
0-0
6
CONTINUOUS
62
  7
10
1390.162
20
1247.824
30
0.0
11
1390.162
21
1238.828
31
0.0
0
LINE
5
7fe
8
0-0
6
CONTINUOUS
62
  7
10
1358.162
20
1406.757
30
0.0
11
1390.162
21
1406.757
31
0.0
0
LINE
5
7ff
8
0-0
6
CONTINUOUS
62
  7
10
1358.162
20
1293.243
30
0.0
11
1358.162
21
1406.757
31
0.0
0
LINE
5
800
8
0-0
6
CONTINUOUS
62
  7
10
1390.162
20
1293.243
30
0.0
11
1390.162
21
1406.757
31
0.0
0
LINE
5
801
8
0-0
6
CONTINUOUS
62
  7
10
800.257
20
790.541
30
0.0
11
833.257
21
790.541
31
0.0
0
LINE
5
802
8
0-0
6
CONTINUOUS
62
  7
10
800.257
20
851.351
30
0.0
11
800.257
21
790.541
31
0.0
0
LINE
5
803
8
0-0
6
CONTINUOUS
62
  7
10
833.257
20
851.351
30
0.0
11
833.257
21
790.541
31
0.0
0
LINE
5
804
8
0-0
6
CONTINUOUS
62
  7
10
833.257
20
790.541
30
0.0
11
1113.257
21
790.541
31
0.0
0
LINE
5
805
8
0-0
6
CONTINUOUS
62
  7
10
1113.257
20
851.351
30
0.0
11
1113.257
21
790.541
31
0.0
0
LINE
5
806
8
0-0
6
CONTINUOUS
62
  7
10
1362.162
20
790.541
30
0.0
11
1386.162
21
790.541
31
0.0
0
LINE
5
807
8
0-0
6
CONTINUOUS
62
  7
10
1362.162
20
851.351
30
0.0
11
1362.162
21
790.541
31
0.0
0
LINE
5
808
8
0-0
6
CONTINUOUS
62
  7
10
1386.162
20
851.351
30
0.0
11
1386.162
21
790.541
31
0.0
0
LINE
5
809
8
0-0
6
CONTINUOUS
62
  7
10
800.257
20
529.700
30
0.0
11
833.257
21
529.700
31
0.0
0
LINE
5
80a
8
0-0
6
CONTINUOUS
62
  7
10
800.257
20
597.007
30
0.0
11
800.257
21
529.700
31
0.0
0
LINE
5
80b
8
0-0
6
CONTINUOUS
62
  7
10
833.257
20
597.007
30
0.0
11
833.257
21
529.700
31
0.0
0
LINE
5
80c
8
0-0
6
CONTINUOUS
62
  7
10
1113.257
20
529.700
30
0.0
11
833.257
21
529.700
31
0.0
0
LINE
5
80d
8
0-0
6
CONTINUOUS
62
  7
10
1113.257
20
597.007
30
0.0
11
1113.257
21
529.700
31
0.0
0
LINE
5
80e
8
0-0
6
CONTINUOUS
62
  7
10
510.811
20
1247.824
30
0.0
11
510.811
21
900.824
31
0.0
0
LINE
5
80f
8
0-0
6
CONTINUOUS
62
  7
10
721.622
20
1247.824
30
0.0
11
510.811
21
1247.824
31
0.0
0
LINE
5
810
8
0-0
6
CONTINUOUS
62
  7
10
721.622
20
900.824
30
0.0
11
510.811
21
900.824
31
0.0
0
LINE
5
811
8
0-0
6
CONTINUOUS
62
  7
10
510.811
20
671.387
30
0.0
11
510.811
21
628.378
31
0.0
0
LINE
5
812
8
0-0
6
CONTINUOUS
62
  7
10
721.622
20
671.387
30
0.0
11
510.811
21
671.387
31
0.0
0
LINE
5
813
8
0-0
6
CONTINUOUS
62
  7
10
721.622
20
628.378
30
0.0
11
510.811
21
628.378
31
0.0
0
LINE
5
814
8
0-0
6
CONTINUOUS
62
  7
10
591.892
20
1247.824
30
0.0
11
591.892
21
921.824
31
0.0
0
LINE
5
815
8
0-0
6
CONTINUOUS
62
  7
10
721.622
20
1247.824
30
0.0
11
591.892
21
1247.824
31
0.0
0
LINE
5
816
8
0-0
6
CONTINUOUS
62
  7
10
721.622
20
921.824
30
0.0
11
591.892
21
921.824
31
0.0
0
LINE
5
817
8
0-0
6
CONTINUOUS
62
  7
10
591.892
20
900.824
30
0.0
11
591.892
21
921.824
31
0.0
0
LINE
5
818
8
0-0
6
CONTINUOUS
62
  7
10
721.622
20
900.824
30
0.0
11
591.892
21
900.824
31
0.0
0
LINE
5
819
8
0-0
6
CONTINUOUS
62
  7
10
1228.378
20
1247.824
30
0.0
11
1228.378
21
1199.824
31
0.0
0
LINE
5
81a
8
0-0
6
CONTINUOUS
62
  7
10
1171.622
20
1247.824
30
0.0
11
1228.378
21
1247.824
31
0.0
0
LINE
5
81b
8
0-0
6
CONTINUOUS
62
  7
10
1171.622
20
1199.824
30
0.0
11
1228.378
21
1199.824
31
0.0
0
LINE
5
81c
8
0-0
6
CONTINUOUS
62
  7
10
1228.378
20
1199.824
30
0.0
11
1228.378
21
900.824
31
0.0
0
LINE
5
81d
8
0-0
6
CONTINUOUS
62
  7
10
1171.622
20
900.824
30
0.0
11
1228.378
21
900.824
31
0.0
0
LINE
5
81e
8
0-0
6
CONTINUOUS
62
  7
10
1362.162
20
1094.595
30
0.0
11
1376.162
21
1094.595
31
0.0
0
LINE
5
81f
8
0-0
6
CONTINUOUS
62
  7
10
1362.162
20
1050.000
30
0.0
11
1362.162
21
1094.595
31
0.0
0
LINE
5
820
8
0-0
6
CONTINUOUS
62
  7
10
1376.162
20
1050.000
30
0.0
11
1376.162
21
1094.595
31
0.0
0
LINE
5
821
8
ADD_LINE
6
HIDDEN
62
  3
10
833.257
20
645.333
30
0.0
11
833.257
21
650.971
31
0.0
0
ARC
5
822
8
0-0
6
CONTINUOUS
62
  7
10
846.257
20
1232.824
30
0.0
40
3.000
50
180.000000
51
270.000000
0
ARC
5
823
8
0-0
6
CONTINUOUS
62
  7
10
875.257
20
1232.824
30
0.0
40
3.000
50
270.000000
51
0.000000
0
ARC
5
824
8
0-0
6
CONTINUOUS
62
  7
10
848.257
20
1234.324
30
0.0
40
3.000
50
180.000000
51
270.000000
0
ARC
5
825
8
0-0
6
CONTINUOUS
62
  7
10
873.257
20
1234.324
30
0.0
40
3.000
50
270.000000
51
0.000000
0
ARC
5
826
8
0-0
6
CONTINUOUS
62
  7
10
985.257
20
1232.824
30
0.0
40
3.000
50
180.000000
51
270.000000
0
ARC
5
827
8
0-0
6
CONTINUOUS
62
  7
10
987.257
20
1234.824
30
0.0
40
3.000
50
180.000000
51
270.000000
0
ARC
5
828
8
0-0
6
CONTINUOUS
62
  7
10
1009.257
20
1234.824
30
0.0
40
3.000
50
270.000000
51
0.000000
0
ARC
5
829
8
0-0
6
CONTINUOUS
62
  7
10
1011.257
20
1232.824
30
0.0
40
3.000
50
270.000000
51
0.000000
0
ARC
5
82a
8
0-0
6
CONTINUOUS
62
  7
10
1074.257
20
1220.945
30
0.0
40
2.000
50
180.000000
51
273.340637
0
ARC
5
82b
8
0-0
6
CONTINUOUS
62
  7
10
1073.257
20
1219.884
30
0.0
40
2.000
50
180.000000
51
273.340637
0
ARC
5
82c
8
0-0
6
CONTINUOUS
62
  7
10
927.757
20
1410.327
30
0.0
40
169.502
50
262.371948
51
277.628052
0
CIRCLE
5
82d
8
0-0
6
CONTINUOUS
62
  7
10
927.757
20
1227.824
30
0.0
40
3.000
0
CIRCLE
5
82e
8
ADD_LINE
6
HIDDEN
62
  7
10
927.757
20
985.824
30
0.0
40
3.000
0
ARC
5
82f
8
0-2
6
CONTINUOUS
62
  7
10
834.658
20
722.124
30
0.0
40
75.167
50
250.249344
51
268.512939
0
CIRCLE
5
830
8
ADD_LINE
6
HIDDEN
62
  3
10
833.257
20
646.378
30
0.0
40
3.000
0
ARC
5
831
8
0-0
6
CONTINUOUS
62
  7
10
1395.421
20
928.780
30
0.0
40
33.390
50
185.077637
51
236.849945
0
ARC
5
832
8
0-0
6
CONTINUOUS
62
  7
10
1386.162
20
923.852
30
0.0
40
10.000
50
180.000000
51
213.689865
0
CIRCLE
5
833
8
ADD_LINE
6
HIDDEN
62
  3
10
833.257
20
374.757
30
0.0
40
3.000
0
ARC
5
834
8
0-0
6
CONTINUOUS
62
  7
10
1078.043
20
318.901
30
0.0
40
66.029
50
57.770813
51
146.070557
0
ARC
5
835
8
0-0
6
CONTINUOUS
62
  7
10
1022.317
20
350.299
30
0.0
40
3.362
50
268.884583
51
317.383423
0
ARC
5
836
8
0-0
6
CONTINUOUS
62
  7
10
1078.067
20
300.584
30
0.0
40
71.335
50
68.460312
51
138.317230
0
ARC
5
837
8
0-2
6
CONTINUOUS
62
  7
10
834.658
20
450.502
30
0.0
40
75.167
50
262.046356
51
268.512939
0
TEXT
5
838
100
AcDbEntity
8
0-2
62
7
100
AcDbText
10
947.382
20
1409.257
30
0.0
40
9.750
41
0.800
50
0.000
1
313
100
AcDbText
0
TEXT
5
839
100
AcDbEntity
8
0-2
62
7
100
AcDbText
10
810.507
20
1352.500
30
0.0
40
9.750
41
0.800
50
0.000
1
33
100
AcDbText
0
TEXT
5
83a
100
AcDbEntity
8
0-2
62
7
100
AcDbText
10
961.382
20
1352.500
30
0.0
40
9.750
41
0.800
50
0.000
1
275
100
AcDbText
0
TEXT
5
83b
100
AcDbEntity
8
0-2
62
7
100
AcDbText
10
1107.632
20
1352.500
30
0.0
40
9.750
41
0.800
50
0.000
1
5
100
AcDbText
0
TEXT
5
83c
100
AcDbEntity
8
0-0
62
7
100
AcDbText
10
1367.912
20
1409.257
30
0.0
40
9.750
41
0.800
50
0.000
1
32
100
AcDbText
0
TEXT
5
83d
100
AcDbEntity
8
0-0
62
7
100
AcDbText
10
810.507
20
793.041
30
0.0
40
9.750
41
0.800
50
0.000
1
33
100
AcDbText
0
TEXT
5
83e
100
AcDbEntity
8
0-0
62
7
100
AcDbText
10
963.882
20
793.041
30
0.0
40
9.750
41
0.800
50
0.000
1
280
100
AcDbText
0
TEXT
5
83f
100
AcDbEntity
8
0-0
62
7
100
AcDbText
10
1367.912
20
793.041
30
0.0
40
9.750
41
0.800
50
0.000
1
24
100
AcDbText
0
TEXT
5
840
100
AcDbEntity
8
0-0
62
7
100
AcDbText
10
810.507
20
532.200
30
0.0
40
9.750
41
0.800
50
0.000
1
33
100
AcDbText
0
TEXT
5
841
100
AcDbEntity
8
0-0
62
7
100
AcDbText
10
963.882
20
532.200
30
0.0
40
9.750
41
0.800
50
0.000
1
280
100
AcDbText
0
TEXT
5
842
100
AcDbEntity
8
0-0
62
7
100
AcDbText
10
508.311
20
1064.949
30
0.0
40
9.750
41
0.800
50
90.000
1
347
100
AcDbText
0
TEXT
5
843
100
AcDbEntity
8
0-0
62
7
100
AcDbText
10
508.311
20
643.633
30
0.0
40
9.750
41
0.800
50
90.000
1
43
100
AcDbText
0
TEXT
5
844
100
AcDbEntity
8
0-0
62
7
100
AcDbText
10
589.392
20
1075.449
30
0.0
40
9.750
41
0.800
50
90.000
1
326
100
AcDbText
0
TEXT
5
845
100
AcDbEntity
8
0-0
62
7
100
AcDbText
10
589.392
20
905.074
30
0.0
40
9.750
41
0.800
50
90.000
1
21
100
AcDbText
0
TEXT
5
846
100
AcDbEntity
8
0-0
62
7
100
AcDbText
10
1225.878
20
1217.574
30
0.0
40
9.750
41
0.800
50
90.000
1
48
100
AcDbText
0
TEXT
5
847
100
AcDbEntity
8
0-0
62
7
100
AcDbText
10
1225.878
20
1040.949
30
0.0
40
9.750
41
0.800
50
90.000
1
299
100
AcDbText
0
TEXT
5
848
100
AcDbEntity
8
0-0
62
7
100
AcDbText
10
1362.912
20
1097.095
30
0.0
40
9.750
41
0.800
50
0.000
1
14
100
AcDbText
0
POINT
5
849
8
0-2
62
  7
10
800.257
20
1406.757
30
0.0
0
POINT
5
84a
8
0-2
62
  7
10
1113.257
20
1406.757
30
0.0
0
POINT
5
84b
8
0-2
62
  7
10
800.257
20
1350.000
30
0.0
0
POINT
5
84c
8
0-2
62
  7
10
833.257
20
1350.000
30
0.0
0
POINT
5
84d
8
0-2
62
  7
10
1108.257
20
1350.000
30
0.0
0
POINT
5
84e
8
0-2
62
  7
10
1113.257
20
1350.000
30
0.0
0
POINT
5
84f
8
0-0
62
  7
10
1358.162
20
1406.757
30
0.0
0
POINT
5
850
8
0-0
62
  7
10
1390.162
20
1406.757
30
0.0
0
POINT
5
851
8
0-0
62
  7
10
800.257
20
790.541
30
0.0
0
POINT
5
852
8
0-0
62
  7
10
833.257
20
790.541
30
0.0
0
POINT
5
853
8
0-0
62
  7
10
1113.257
20
790.541
30
0.0
0
POINT
5
854
8
0-0
62
  7
10
1362.162
20
790.541
30
0.0
0
POINT
5
855
8
0-0
62
  7
10
1386.162
20
790.541
30
0.0
0
POINT
5
856
8
0-0
62
  7
10
800.257
20
529.700
30
0.0
0
POINT
5
857
8
0-0
62
  7
10
833.257
20
529.700
30
0.0
0
POINT
5
858
8
0-0
62
  7
10
1113.257
20
529.700
30
0.0
0
POINT
5
859
8
0-0
62
  7
10
510.811
20
1247.824
30
0.0
0
POINT
5
85a
8
0-0
62
  7
10
510.811
20
900.824
30
0.0
0
POINT
5
85b
8
0-0
62
  7
10
510.811
20
671.387
30
0.0
0
POINT
5
85c
8
0-0
62
  7
10
510.811
20
628.378
30
0.0
0
POINT
5
85d
8
0-0
62
  7
10
591.892
20
1247.824
30
0.0
0
POINT
5
85e
8
0-0
62
  7
10
591.892
20
921.824
30
0.0
0
POINT
5
85f
8
0-0
62
  7
10
591.892
20
900.824
30
0.0
0
POINT
5
860
8
0-0
62
  7
10
1228.378
20
1247.824
30
0.0
0
POINT
5
861
8
0-0
62
  7
10
1228.378
20
1199.824
30
0.0
0
POINT
5
862
8
0-0
62
  7
10
1228.378
20
900.824
30
0.0
0
POINT
5
863
8
0-0
62
  7
10
1362.162
20
1094.595
30
0.0
0
POINT
5
864
8
0-0
62
  7
10
1376.162
20
1094.595
30
0.0
0
ENDSEC
0
EOF
