0
SECTION
2
HEADER
  9
$EXTMIN
10
0
20
0
30
0
  9
$EXTMAX
10
5178.333
20
2395.888
30
0
  9
$LTSCALE
40
5.000
  9
$DIMSCALE
40
5.000
  9
$PDMODE
70
0
  9
$PDSIZE
40
40
0
ENDSEC
0
SECTION
2
TABLES
0
TABLE
2
LTYPE
70
9
0
LTYPE
5
1f4
2
CONTINUOUS
70
0
3
実線
72
65
73
0
40
0.0
0
LTYPE
5
1f5
2
DOT
70
0
3
--  --  --  --  --  --  --  --     
72
65
73
2
40
5.000
49
1.000
49
-4.000
0
LTYPE
5
1f6
2
DASHED
70
0
3
----    ----    ----    ----    
72
65
73
2
40
5.000
49
2.000
49
-3.000
0
LTYPE
5
1f7
2
DASHED2
70
0
3
------  ------  ------  ------ 
72
65
73
2
40
10.000
49
4.000
49
-6.000
0
LTYPE
5
1f8
2
CENTER
70
0
3
----- - ----- - ----- - ----- - 
72
65
73
4
40
9.000
49
6.000
49
-1.000
49
1.000
49
-1.000
0
LTYPE
5
1f9
2
CENTER2
70
0
3
----------  --  ----------  -- 
72
65
73
4
40
18.000
49
12.000
49
-2.000
49
2.000
49
-2.000
0
LTYPE
5
1fa
2
PHANTOM
70
0
3
--- - - --- - - --- - - --- - -
72
65
73
6
40
10.000
49
5.000
49
-1.000
49
1.000
49
-1.000
49
1.000
49
-1.000
0
LTYPE
5
1fb
2
PHANTOM2
70
0
3
--------  -  -  --------  -  -
72
65
73
6
40
16.000
49
6.000
49
-2.000
49
2.000
49
-2.000
49
2.000
49
-2.000
0
LTYPE
5
1fc
2
HIDDEN
70
0
3
-   -   -   -   -   -   -   -   
72
65
73
2
40
2.500
49
0.500
49
-2.000
0
ENDTAB
0
TABLE
2
STYLE
70
1
0
STYLE
5
1fd
100
AcDbSymbolTableRecord
100
AcDbTextStyleTableRecord
2
STANDARD
70
0
40
0.0
41
1.0
50
0.0
71
0
42
0.0
3
txt.shx
4
extfont.shx
0
STYLE
5
1fe
100
AcDbSymbolTableRecord
100
AcDbTextStyleTableRecord
2
TATEGAKI
70
4
40
0.0
41
1.0
50
0.0
71
0
42
0.0
3
txt.shx
4
extfont.shx
0
STYLE
5
1ff
100
AcDbSymbolTableRecord
100
AcDbTextStyleTableRecord
2
MT
70
0
40
0.0
41
1.0
50
0.0
71
0
42
0.0
3
MS Mincho
4

0
STYLE
5
200
100
AcDbSymbolTableRecord
100
AcDbTextStyleTableRecord
2
TMT
70
4
40
0.0
41
1.0
50
0.0
71
0
42
0.0
3
@MS Mincho
4

0
ENDTAB
0
TABLE
2
LAYER
5
26fc0
100
AcDbSymbolTable
70
10
0
LAYER
5
26fc1
100
AcDbSymbolTableRecord
100
AcDbLayerTableRecord
2
0
70
64
62
  7
  6
CONTINUOUS
0
LAYER
5
26fc2
100
AcDbSymbolTableRecord
100
AcDbLayerTableRecord
2
0-0
70
64
62
  7
  6
CONTINUOUS
0
LAYER
5
26fc3
100
AcDbSymbolTableRecord
100
AcDbLayerTableRecord
2
0-1
70
64
62
  7
  6
CONTINUOUS
0
LAYER
5
26fc4
100
AcDbSymbolTableRecord
100
AcDbLayerTableRecord
2
0-2
70
64
62
  7
  6
CONTINUOUS
0
LAYER
5
26fc5
100
AcDbSymbolTableRecord
100
AcDbLayerTableRecord
2
ADD_LINE
70
64
62
  -7
  6
CONTINUOUS
0
ENDTAB
0
ENDSEC
0
SECTION
2
ENTITIES
0
LINE
5
26fc6
8
0-0
6
CONTINUOUS
62
  7
10
1386.487
20
1098.649
30
0.0
11
1386.487
21
878.649
31
0.0
0
LINE
5
26fc7
8
0-0
6
CONTINUOUS
62
  7
10
1706.487
20
1098.649
30
0.0
11
1544.487
21
878.649
31
0.0
0
LINE
5
26fc8
8
0-0
6
CONTINUOUS
62
  7
10
1722.591
20
1086.790
30
0.0
11
1560.591
21
866.790
31
0.0
0
LINE
5
26fc9
8
0-0
6
CONTINUOUS
62
  7
10
1706.487
20
1098.649
30
0.0
11
1722.591
21
1086.790
31
0.0
0
LINE
5
26fca
8
0-0
6
CONTINUOUS
62
  7
10
1544.487
20
878.649
30
0.0
11
1560.591
21
866.790
31
0.0
0
LINE
5
26fcb
8
0-0
6
CONTINUOUS
62
  7
10
1386.487
20
878.649
30
0.0
11
1544.487
21
878.649
31
0.0
0
LINE
5
26fcc
8
0-0
6
CONTINUOUS
62
  7
10
1386.487
20
1098.649
30
0.0
11
1706.487
21
1098.649
31
0.0
0
LINE
5
26fcd
8
0-0
6
CONTINUOUS
62
  7
10
1397.486
20
1095.649
30
0.0
11
1402.487
21
1095.649
31
0.0
0
LINE
5
26fce
8
0-0
6
CONTINUOUS
62
  7
10
1397.486
20
1095.649
30
0.0
11
1397.486
21
881.649
31
0.0
0
LINE
5
26fcf
8
0-0
6
CONTINUOUS
62
  7
10
1397.486
20
881.649
30
0.0
11
1402.487
21
881.649
31
0.0
0
LINE
5
26fd0
8
0-0
6
CONTINUOUS
62
  7
10
1402.487
20
1095.649
30
0.0
11
1402.487
21
881.649
31
0.0
0
LINE
5
26fd1
8
ADD_LINE
6
HIDDEN
62
  3
10
137.838
20
988.649
30
0.0
11
1868.919
21
988.649
31
0.0
0
LINE
5
26fd2
8
0-0
6
CONTINUOUS
62
  7
10
948.649
20
1098.649
30
0.0
11
953.649
21
1078.853
31
0.0
0
LINE
5
26fd3
8
0-0
6
CONTINUOUS
62
  7
10
953.649
20
898.445
30
0.0
11
948.649
21
878.649
31
0.0
0
LINE
5
26fd4
8
0-0
6
CONTINUOUS
62
  7
10
583.784
20
1098.649
30
0.0
11
583.784
21
878.649
31
0.0
0
LINE
5
26fd5
8
0-0
6
CONTINUOUS
62
  7
10
263.784
20
1098.649
30
0.0
11
425.784
21
878.649
31
0.0
0
LINE
5
26fd6
8
0-0
6
CONTINUOUS
62
  7
10
247.679
20
1086.790
30
0.0
11
409.679
21
866.790
31
0.0
0
LINE
5
26fd7
8
0-0
6
CONTINUOUS
62
  7
10
263.784
20
1098.649
30
0.0
11
247.679
21
1086.790
31
0.0
0
LINE
5
26fd8
8
0-0
6
CONTINUOUS
62
  7
10
425.784
20
878.649
30
0.0
11
409.679
21
866.790
31
0.0
0
LINE
5
26fd9
8
0-0
6
CONTINUOUS
62
  7
10
583.784
20
878.649
30
0.0
11
425.784
21
878.649
31
0.0
0
LINE
5
26fda
8
0-0
6
CONTINUOUS
62
  7
10
583.784
20
1098.649
30
0.0
11
263.784
21
1098.649
31
0.0
0
LINE
5
26fdb
8
0-0
6
CONTINUOUS
62
  7
10
572.784
20
1095.649
30
0.0
11
567.784
21
1095.649
31
0.0
0
LINE
5
26fdc
8
0-0
6
CONTINUOUS
62
  7
10
572.784
20
1095.649
30
0.0
11
572.784
21
881.649
31
0.0
0
LINE
5
26fdd
8
0-0
6
CONTINUOUS
62
  7
10
572.784
20
881.649
30
0.0
11
567.784
21
881.649
31
0.0
0
LINE
5
26fde
8
0-0
6
CONTINUOUS
62
  7
10
567.784
20
1095.649
30
0.0
11
567.784
21
881.649
31
0.0
0
LINE
5
26fdf
8
0-0
6
CONTINUOUS
62
  7
10
583.784
20
583.784
30
0.0
11
583.784
21
493.784
31
0.0
0
LINE
5
26fe0
8
0-0
6
CONTINUOUS
62
  7
10
583.784
20
493.784
30
0.0
11
429.805
21
493.784
31
0.0
0
LINE
5
26fe1
8
0-0
6
CONTINUOUS
62
  7
10
572.784
20
583.784
30
0.0
11
572.784
21
506.284
31
0.0
0
LINE
5
26fe2
8
0-0
6
CONTINUOUS
62
  7
10
567.784
20
583.784
30
0.0
11
567.784
21
506.284
31
0.0
0
LINE
5
26fe3
8
0-0
6
CONTINUOUS
62
  7
10
583.784
20
583.784
30
0.0
11
572.784
21
583.784
31
0.0
0
LINE
5
26fe4
8
0-0
6
CONTINUOUS
62
  7
10
567.784
20
583.784
30
0.0
11
323.784
21
583.784
31
0.0
0
LINE
5
26fe5
8
ADD_LINE
6
HIDDEN
62
  3
10
583.784
20
493.784
30
0.0
11
595.367
21
493.784
31
0.0
0
LINE
5
26fe6
8
ADD_LINE
6
HIDDEN
62
  3
10
583.784
20
493.784
30
0.0
11
583.784
21
484.025
31
0.0
0
LINE
5
26fe7
8
0-2
6
CONTINUOUS
62
  7
10
263.784
20
1313.514
30
0.0
11
583.784
21
1313.514
31
0.0
0
LINE
5
26fe8
8
0-2
6
CONTINUOUS
62
  7
10
263.784
20
1155.406
30
0.0
11
263.784
21
1313.514
31
0.0
0
LINE
5
26fe9
8
0-2
6
CONTINUOUS
62
  7
10
583.784
20
1155.406
30
0.0
11
583.784
21
1313.514
31
0.0
0
LINE
5
26fea
8
0-2
6
CONTINUOUS
62
  7
10
948.649
20
1313.514
30
0.0
11
1038.649
21
1313.514
31
0.0
0
LINE
5
26feb
8
0-2
6
CONTINUOUS
62
  7
10
948.649
20
1155.406
30
0.0
11
948.649
21
1313.514
31
0.0
0
LINE
5
26fec
8
0-2
6
CONTINUOUS
62
  7
10
1038.649
20
1155.406
30
0.0
11
1038.649
21
1313.514
31
0.0
0
LINE
5
26fed
8
0-2
6
CONTINUOUS
62
  7
10
1386.487
20
1313.514
30
0.0
11
1706.487
21
1313.514
31
0.0
0
LINE
5
26fee
8
0-2
6
CONTINUOUS
62
  7
10
1386.487
20
1155.406
30
0.0
11
1386.487
21
1313.514
31
0.0
0
LINE
5
26fef
8
0-2
6
CONTINUOUS
62
  7
10
1706.487
20
1155.406
30
0.0
11
1706.487
21
1313.514
31
0.0
0
LINE
5
26ff0
8
0-2
6
CONTINUOUS
62
  7
10
425.784
20
721.622
30
0.0
11
583.784
21
721.622
31
0.0
0
LINE
5
26ff1
8
0-2
6
CONTINUOUS
62
  7
10
425.784
20
827.027
30
0.0
11
425.784
21
721.622
31
0.0
0
LINE
5
26ff2
8
0-2
6
CONTINUOUS
62
  7
10
583.784
20
827.027
30
0.0
11
583.784
21
721.622
31
0.0
0
LINE
5
26ff3
8
0-2
6
CONTINUOUS
62
  7
10
1386.487
20
721.622
30
0.0
11
1544.487
21
721.622
31
0.0
0
LINE
5
26ff4
8
0-2
6
CONTINUOUS
62
  7
10
1386.487
20
827.027
30
0.0
11
1386.487
21
721.622
31
0.0
0
LINE
5
26ff5
8
0-2
6
CONTINUOUS
62
  7
10
1544.487
20
827.027
30
0.0
11
1544.487
21
721.622
31
0.0
0
LINE
5
26ff6
8
0-2
6
CONTINUOUS
62
  7
10
754.054
20
1098.649
30
0.0
11
754.054
21
878.649
31
0.0
0
LINE
5
26ff7
8
0-2
6
CONTINUOUS
62
  7
10
644.595
20
1098.649
30
0.0
11
754.054
21
1098.649
31
0.0
0
LINE
5
26ff8
8
0-2
6
CONTINUOUS
62
  7
10
644.595
20
878.649
30
0.0
11
754.054
21
878.649
31
0.0
0
LINE
5
26ff9
8
0-2
6
CONTINUOUS
62
  7
10
754.054
20
583.784
30
0.0
11
754.054
21
493.784
31
0.0
0
LINE
5
26ffa
8
0-2
6
CONTINUOUS
62
  7
10
644.595
20
583.784
30
0.0
11
754.054
21
583.784
31
0.0
0
LINE
5
26ffb
8
0-2
6
CONTINUOUS
62
  7
10
644.595
20
493.784
30
0.0
11
754.054
21
493.784
31
0.0
0
LINE
5
26ffc
8
0-2
6
CONTINUOUS
62
  7
10
1232.432
20
1098.649
30
0.0
11
1232.432
21
878.649
31
0.0
0
LINE
5
26ffd
8
0-2
6
CONTINUOUS
62
  7
10
1337.838
20
1098.649
30
0.0
11
1232.432
21
1098.649
31
0.0
0
LINE
5
26ffe
8
0-2
6
CONTINUOUS
62
  7
10
1337.838
20
878.649
30
0.0
11
1232.432
21
878.649
31
0.0
0
LINE
5
26fff
8
0-2
6
CONTINUOUS
62
  7
10
1232.432
20
583.784
30
0.0
11
1232.432
21
493.784
31
0.0
0
LINE
5
27000
8
0-2
6
CONTINUOUS
62
  7
10
1337.838
20
583.784
30
0.0
11
1232.432
21
583.784
31
0.0
0
LINE
5
27001
8
0-2
6
CONTINUOUS
62
  7
10
1337.838
20
493.784
30
0.0
11
1232.432
21
493.784
31
0.0
0
LINE
5
27002
8
0-2
6
CONTINUOUS
62
  7
10
875.519
20
1098.649
30
0.0
11
875.519
21
878.649
31
0.0
0
LINE
5
27003
8
0-2
6
CONTINUOUS
62
  7
10
931.869
20
1098.649
30
0.0
11
875.519
21
1098.649
31
0.0
0
LINE
5
27004
8
0-2
6
CONTINUOUS
62
  7
10
931.869
20
878.649
30
0.0
11
875.519
21
878.649
31
0.0
0
LINE
5
27005
8
0-2
6
CONTINUOUS
62
  7
10
1808.108
20
583.784
30
0.0
11
1808.108
21
364.080
31
0.0
0
LINE
5
27006
8
0-2
6
CONTINUOUS
62
  7
10
1751.351
20
583.784
30
0.0
11
1808.108
21
583.784
31
0.0
0
LINE
5
27007
8
0-2
6
CONTINUOUS
62
  7
10
1751.351
20
364.080
30
0.0
11
1808.108
21
364.080
31
0.0
0
LINE
5
27008
8
0-0
6
CONTINUOUS
62
  7
10
323.784
20
583.784
30
0.0
11
321.107
21
583.531
31
0.0
0
LINE
5
27009
8
0-0
6
CONTINUOUS
62
  7
10
321.107
20
583.531
30
0.0
11
318.526
21
583.151
31
0.0
0
LINE
5
2700a
8
0-0
6
CONTINUOUS
62
  7
10
318.526
20
583.151
30
0.0
11
316.011
21
582.646
31
0.0
0
LINE
5
2700b
8
0-0
6
CONTINUOUS
62
  7
10
316.011
20
582.646
30
0.0
11
313.543
21
582.016
31
0.0
0
LINE
5
2700c
8
0-0
6
CONTINUOUS
62
  7
10
313.543
20
582.016
30
0.0
11
311.105
21
581.265
31
0.0
0
LINE
5
2700d
8
0-0
6
CONTINUOUS
62
  7
10
311.105
20
581.265
30
0.0
11
308.686
21
580.396
31
0.0
0
LINE
5
2700e
8
0-0
6
CONTINUOUS
62
  7
10
308.686
20
580.396
30
0.0
11
306.279
21
579.412
31
0.0
0
LINE
5
2700f
8
0-0
6
CONTINUOUS
62
  7
10
306.279
20
579.412
30
0.0
11
303.878
21
578.317
31
0.0
0
LINE
5
27010
8
0-0
6
CONTINUOUS
62
  7
10
303.878
20
578.317
30
0.0
11
301.480
21
577.113
31
0.0
0
LINE
5
27011
8
0-0
6
CONTINUOUS
62
  7
10
301.480
20
577.113
30
0.0
11
299.083
21
575.804
31
0.0
0
LINE
5
27012
8
0-0
6
CONTINUOUS
62
  7
10
299.083
20
575.804
30
0.0
11
296.688
21
574.393
31
0.0
0
LINE
5
27013
8
0-0
6
CONTINUOUS
62
  7
10
296.688
20
574.393
30
0.0
11
294.294
21
572.883
31
0.0
0
LINE
5
27014
8
0-0
6
CONTINUOUS
62
  7
10
294.294
20
572.883
30
0.0
11
291.903
21
571.278
31
0.0
0
LINE
5
27015
8
0-0
6
CONTINUOUS
62
  7
10
291.903
20
571.278
30
0.0
11
289.518
21
569.580
31
0.0
0
LINE
5
27016
8
0-0
6
CONTINUOUS
62
  7
10
289.518
20
569.580
30
0.0
11
287.142
21
567.794
31
0.0
0
LINE
5
27017
8
0-0
6
CONTINUOUS
62
  7
10
287.142
20
567.794
30
0.0
11
284.779
21
565.924
31
0.0
0
LINE
5
27018
8
0-0
6
CONTINUOUS
62
  7
10
284.779
20
565.924
30
0.0
11
282.433
21
563.975
31
0.0
0
LINE
5
27019
8
0-0
6
CONTINUOUS
62
  7
10
282.433
20
563.975
30
0.0
11
280.111
21
561.950
31
0.0
0
LINE
5
2701a
8
0-0
6
CONTINUOUS
62
  7
10
280.111
20
561.950
30
0.0
11
277.818
21
559.857
31
0.0
0
LINE
5
2701b
8
0-0
6
CONTINUOUS
62
  7
10
277.818
20
559.857
30
0.0
11
275.561
21
557.701
31
0.0
0
LINE
5
2701c
8
0-0
6
CONTINUOUS
62
  7
10
275.561
20
557.701
30
0.0
11
273.347
21
555.489
31
0.0
0
LINE
5
2701d
8
0-0
6
CONTINUOUS
62
  7
10
273.347
20
555.489
30
0.0
11
271.185
21
553.227
31
0.0
0
LINE
5
2701e
8
0-0
6
CONTINUOUS
62
  7
10
271.185
20
553.227
30
0.0
11
269.081
21
550.922
31
0.0
0
LINE
5
2701f
8
0-0
6
CONTINUOUS
62
  7
10
269.081
20
550.922
30
0.0
11
267.043
21
548.582
31
0.0
0
LINE
5
27020
8
0-0
6
CONTINUOUS
62
  7
10
267.043
20
548.582
30
0.0
11
265.080
21
546.214
31
0.0
0
LINE
5
27021
8
0-0
6
CONTINUOUS
62
  7
10
265.080
20
546.214
30
0.0
11
263.199
21
543.826
31
0.0
0
LINE
5
27022
8
0-0
6
CONTINUOUS
62
  7
10
263.199
20
543.826
30
0.0
11
261.406
21
541.424
31
0.0
0
LINE
5
27023
8
0-0
6
CONTINUOUS
62
  7
10
261.406
20
541.424
30
0.0
11
259.707
21
539.016
31
0.0
0
LINE
5
27024
8
0-0
6
CONTINUOUS
62
  7
10
259.707
20
539.016
30
0.0
11
258.107
21
536.608
31
0.0
0
LINE
5
27025
8
0-0
6
CONTINUOUS
62
  7
10
258.107
20
536.608
30
0.0
11
256.608
21
534.206
31
0.0
0
LINE
5
27026
8
0-0
6
CONTINUOUS
62
  7
10
256.608
20
534.206
30
0.0
11
255.213
21
531.816
31
0.0
0
LINE
5
27027
8
0-0
6
CONTINUOUS
62
  7
10
255.213
20
531.816
30
0.0
11
253.922
21
529.443
31
0.0
0
LINE
5
27028
8
0-0
6
CONTINUOUS
62
  7
10
253.922
20
529.443
30
0.0
11
252.732
21
527.093
31
0.0
0
LINE
5
27029
8
0-0
6
CONTINUOUS
62
  7
10
252.732
20
527.093
30
0.0
11
251.639
21
524.772
31
0.0
0
LINE
5
2702a
8
0-0
6
CONTINUOUS
62
  7
10
251.639
20
524.772
30
0.0
11
250.639
21
522.485
31
0.0
0
LINE
5
2702b
8
0-0
6
CONTINUOUS
62
  7
10
250.639
20
522.485
30
0.0
11
249.725
21
520.240
31
0.0
0
LINE
5
2702c
8
0-0
6
CONTINUOUS
62
  7
10
249.725
20
520.240
30
0.0
11
248.890
21
518.045
31
0.0
0
LINE
5
2702d
8
0-0
6
CONTINUOUS
62
  7
10
248.890
20
518.045
30
0.0
11
248.125
21
515.914
31
0.0
0
LINE
5
2702e
8
0-0
6
CONTINUOUS
62
  7
10
248.125
20
515.914
30
0.0
11
247.426
21
513.862
31
0.0
0
LINE
5
2702f
8
0-0
6
CONTINUOUS
62
  7
10
247.426
20
513.862
30
0.0
11
247.202
21
511.922
31
0.0
0
LINE
5
27030
8
0-0
6
CONTINUOUS
62
  7
10
247.202
20
511.922
30
0.0
11
246.997
21
510.055
31
0.0
0
LINE
5
27031
8
0-0
6
CONTINUOUS
62
  7
10
246.997
20
510.055
30
0.0
11
246.813
21
508.250
31
0.0
0
LINE
5
27032
8
0-0
6
CONTINUOUS
62
  7
10
246.813
20
508.250
30
0.0
11
246.653
21
506.496
31
0.0
0
LINE
5
27033
8
0-0
6
CONTINUOUS
62
  7
10
246.653
20
506.496
30
0.0
11
246.519
21
504.783
31
0.0
0
LINE
5
27034
8
0-0
6
CONTINUOUS
62
  7
10
246.519
20
504.783
30
0.0
11
246.414
21
503.099
31
0.0
0
LINE
5
27035
8
0-0
6
CONTINUOUS
62
  7
10
246.414
20
503.099
30
0.0
11
246.340
21
501.434
31
0.0
0
LINE
5
27036
8
0-0
6
CONTINUOUS
62
  7
10
246.340
20
501.434
30
0.0
11
246.298
21
499.777
31
0.0
0
LINE
5
27037
8
0-0
6
CONTINUOUS
62
  7
10
246.298
20
499.777
30
0.0
11
246.293
21
498.118
31
0.0
0
LINE
5
27038
8
0-0
6
CONTINUOUS
62
  7
10
246.293
20
498.118
30
0.0
11
246.325
21
496.446
31
0.0
0
LINE
5
27039
8
0-0
6
CONTINUOUS
62
  7
10
246.325
20
496.446
30
0.0
11
246.398
21
494.750
31
0.0
0
LINE
5
2703a
8
0-0
6
CONTINUOUS
62
  7
10
246.398
20
494.750
30
0.0
11
246.409
21
494.594
31
0.0
0
LINE
5
2703b
8
0-0
6
CONTINUOUS
62
  7
10
246.409
20
494.594
30
0.0
11
246.683
21
492.649
31
0.0
0
LINE
5
2703c
8
0-0
6
CONTINUOUS
62
  7
10
246.683
20
492.649
30
0.0
11
247.010
21
490.711
31
0.0
0
LINE
5
2703d
8
0-0
6
CONTINUOUS
62
  7
10
247.010
20
490.711
30
0.0
11
247.412
21
488.731
31
0.0
0
LINE
5
2703e
8
0-0
6
CONTINUOUS
62
  7
10
247.412
20
488.731
30
0.0
11
247.907
21
486.674
31
0.0
0
LINE
5
2703f
8
0-0
6
CONTINUOUS
62
  7
10
247.907
20
486.674
30
0.0
11
248.509
21
484.514
31
0.0
0
LINE
5
27040
8
0-0
6
CONTINUOUS
62
  7
10
248.509
20
484.514
30
0.0
11
249.225
21
482.234
31
0.0
0
LINE
5
27041
8
0-0
6
CONTINUOUS
62
  7
10
249.225
20
482.234
30
0.0
11
250.061
21
479.825
31
0.0
0
LINE
5
27042
8
0-0
6
CONTINUOUS
62
  7
10
250.061
20
479.825
30
0.0
11
251.020
21
477.283
31
0.0
0
LINE
5
27043
8
0-0
6
CONTINUOUS
62
  7
10
251.020
20
477.283
30
0.0
11
252.101
21
474.610
31
0.0
0
LINE
5
27044
8
0-0
6
CONTINUOUS
62
  7
10
252.101
20
474.610
30
0.0
11
253.305
21
471.808
31
0.0
0
LINE
5
27045
8
0-0
6
CONTINUOUS
62
  7
10
253.305
20
471.808
30
0.0
11
254.629
21
468.884
31
0.0
0
LINE
5
27046
8
0-0
6
CONTINUOUS
62
  7
10
254.629
20
468.884
30
0.0
11
256.071
21
465.848
31
0.0
0
LINE
5
27047
8
0-0
6
CONTINUOUS
62
  7
10
256.071
20
465.848
30
0.0
11
257.626
21
462.709
31
0.0
0
LINE
5
27048
8
0-0
6
CONTINUOUS
62
  7
10
257.626
20
462.709
30
0.0
11
259.292
21
459.478
31
0.0
0
LINE
5
27049
8
0-0
6
CONTINUOUS
62
  7
10
259.292
20
459.478
30
0.0
11
261.065
21
456.167
31
0.0
0
LINE
5
2704a
8
0-0
6
CONTINUOUS
62
  7
10
261.065
20
456.167
30
0.0
11
262.940
21
452.786
31
0.0
0
LINE
5
2704b
8
0-0
6
CONTINUOUS
62
  7
10
262.940
20
452.786
30
0.0
11
264.915
21
449.350
31
0.0
0
LINE
5
2704c
8
0-0
6
CONTINUOUS
62
  7
10
264.915
20
449.350
30
0.0
11
266.985
21
445.868
31
0.0
0
LINE
5
2704d
8
0-0
6
CONTINUOUS
62
  7
10
266.985
20
445.868
30
0.0
11
269.148
21
442.354
31
0.0
0
LINE
5
2704e
8
0-0
6
CONTINUOUS
62
  7
10
269.148
20
442.354
30
0.0
11
271.401
21
438.817
31
0.0
0
LINE
5
2704f
8
0-0
6
CONTINUOUS
62
  7
10
271.401
20
438.817
30
0.0
11
273.740
21
435.271
31
0.0
0
LINE
5
27050
8
0-0
6
CONTINUOUS
62
  7
10
273.740
20
435.271
30
0.0
11
276.163
21
431.724
31
0.0
0
LINE
5
27051
8
0-0
6
CONTINUOUS
62
  7
10
276.163
20
431.724
30
0.0
11
278.668
21
428.188
31
0.0
0
LINE
5
27052
8
0-0
6
CONTINUOUS
62
  7
10
278.668
20
428.188
30
0.0
11
281.252
21
424.672
31
0.0
0
LINE
5
27053
8
0-0
6
CONTINUOUS
62
  7
10
281.252
20
424.672
30
0.0
11
283.914
21
421.185
31
0.0
0
LINE
5
27054
8
0-0
6
CONTINUOUS
62
  7
10
283.914
20
421.185
30
0.0
11
286.651
21
417.738
31
0.0
0
LINE
5
27055
8
0-0
6
CONTINUOUS
62
  7
10
286.651
20
417.738
30
0.0
11
289.463
21
414.337
31
0.0
0
LINE
5
27056
8
0-0
6
CONTINUOUS
62
  7
10
289.463
20
414.337
30
0.0
11
292.346
21
410.992
31
0.0
0
LINE
5
27057
8
0-0
6
CONTINUOUS
62
  7
10
292.346
20
410.992
30
0.0
11
295.300
21
407.709
31
0.0
0
LINE
5
27058
8
0-0
6
CONTINUOUS
62
  7
10
295.300
20
407.709
30
0.0
11
298.321
21
404.497
31
0.0
0
LINE
5
27059
8
0-0
6
CONTINUOUS
62
  7
10
298.321
20
404.497
30
0.0
11
301.408
21
401.362
31
0.0
0
LINE
5
2705a
8
0-0
6
CONTINUOUS
62
  7
10
301.408
20
401.362
30
0.0
11
304.557
21
398.310
31
0.0
0
LINE
5
2705b
8
0-0
6
CONTINUOUS
62
  7
10
304.557
20
398.310
30
0.0
11
307.764
21
395.347
31
0.0
0
LINE
5
2705c
8
0-0
6
CONTINUOUS
62
  7
10
307.764
20
395.347
30
0.0
11
311.026
21
392.480
31
0.0
0
LINE
5
2705d
8
0-0
6
CONTINUOUS
62
  7
10
311.026
20
392.480
30
0.0
11
314.336
21
389.713
31
0.0
0
LINE
5
2705e
8
0-0
6
CONTINUOUS
62
  7
10
314.336
20
389.713
30
0.0
11
317.688
21
387.053
31
0.0
0
LINE
5
2705f
8
0-0
6
CONTINUOUS
62
  7
10
317.688
20
387.053
30
0.0
11
321.073
21
384.505
31
0.0
0
LINE
5
27060
8
0-0
6
CONTINUOUS
62
  7
10
321.073
20
384.505
30
0.0
11
324.483
21
382.074
31
0.0
0
LINE
5
27061
8
0-0
6
CONTINUOUS
62
  7
10
324.483
20
382.074
30
0.0
11
327.905
21
379.765
31
0.0
0
LINE
5
27062
8
0-0
6
CONTINUOUS
62
  7
10
327.905
20
379.765
30
0.0
11
331.328
21
377.584
31
0.0
0
LINE
5
27063
8
0-0
6
CONTINUOUS
62
  7
10
331.328
20
377.584
30
0.0
11
334.735
21
375.535
31
0.0
0
LINE
5
27064
8
0-0
6
CONTINUOUS
62
  7
10
334.735
20
375.535
30
0.0
11
338.111
21
373.624
31
0.0
0
LINE
5
27065
8
0-0
6
CONTINUOUS
62
  7
10
338.111
20
373.624
30
0.0
11
341.438
21
371.856
31
0.0
0
LINE
5
27066
8
0-0
6
CONTINUOUS
62
  7
10
341.438
20
371.856
30
0.0
11
344.694
21
370.237
31
0.0
0
LINE
5
27067
8
0-0
6
CONTINUOUS
62
  7
10
344.694
20
370.237
30
0.0
11
347.860
21
368.770
31
0.0
0
LINE
5
27068
8
0-0
6
CONTINUOUS
62
  7
10
347.860
20
368.770
30
0.0
11
350.914
21
367.460
31
0.0
0
LINE
5
27069
8
0-0
6
CONTINUOUS
62
  7
10
350.914
20
367.460
30
0.0
11
353.833
21
366.312
31
0.0
0
LINE
5
2706a
8
0-0
6
CONTINUOUS
62
  7
10
353.833
20
366.312
30
0.0
11
356.597
21
365.327
31
0.0
0
LINE
5
2706b
8
0-0
6
CONTINUOUS
62
  7
10
356.597
20
365.327
30
0.0
11
359.187
21
364.507
31
0.0
0
LINE
5
2706c
8
0-0
6
CONTINUOUS
62
  7
10
359.187
20
364.507
30
0.0
11
361.586
21
363.852
31
0.0
0
LINE
5
2706d
8
0-0
6
CONTINUOUS
62
  7
10
361.586
20
363.852
30
0.0
11
363.785
21
363.358
31
0.0
0
LINE
5
2706e
8
0-0
6
CONTINUOUS
62
  7
10
363.785
20
363.358
30
0.0
11
365.779
21
363.020
31
0.0
0
LINE
5
2706f
8
0-0
6
CONTINUOUS
62
  7
10
365.779
20
363.020
30
0.0
11
367.573
21
362.827
31
0.0
0
LINE
5
27070
8
0-0
6
CONTINUOUS
62
  7
10
367.573
20
362.827
30
0.0
11
369.185
21
362.767
31
0.0
0
LINE
5
27071
8
0-0
6
CONTINUOUS
62
  7
10
369.185
20
362.767
30
0.0
11
370.589
21
362.919
31
0.0
0
LINE
5
27072
8
0-0
6
CONTINUOUS
62
  7
10
370.589
20
362.919
30
0.0
11
372.029
21
363.140
31
0.0
0
LINE
5
27073
8
0-0
6
CONTINUOUS
62
  7
10
372.029
20
363.140
30
0.0
11
373.497
21
363.430
31
0.0
0
LINE
5
27074
8
0-0
6
CONTINUOUS
62
  7
10
373.497
20
363.430
30
0.0
11
374.982
21
363.791
31
0.0
0
LINE
5
27075
8
0-0
6
CONTINUOUS
62
  7
10
374.982
20
363.791
30
0.0
11
376.475
21
364.221
31
0.0
0
LINE
5
27076
8
0-0
6
CONTINUOUS
62
  7
10
376.475
20
364.221
30
0.0
11
377.968
21
364.717
31
0.0
0
LINE
5
27077
8
0-0
6
CONTINUOUS
62
  7
10
377.968
20
364.717
30
0.0
11
379.449
21
365.278
31
0.0
0
LINE
5
27078
8
0-0
6
CONTINUOUS
62
  7
10
379.449
20
365.278
30
0.0
11
380.911
21
365.898
31
0.0
0
LINE
5
27079
8
0-0
6
CONTINUOUS
62
  7
10
380.911
20
365.898
30
0.0
11
382.343
21
366.573
31
0.0
0
LINE
5
2707a
8
0-0
6
CONTINUOUS
62
  7
10
382.343
20
366.573
30
0.0
11
383.736
21
367.295
31
0.0
0
LINE
5
2707b
8
0-0
6
CONTINUOUS
62
  7
10
383.736
20
367.295
30
0.0
11
385.080
21
368.058
31
0.0
0
LINE
5
2707c
8
0-0
6
CONTINUOUS
62
  7
10
385.080
20
368.058
30
0.0
11
386.366
21
368.852
31
0.0
0
LINE
5
2707d
8
0-0
6
CONTINUOUS
62
  7
10
386.366
20
368.852
30
0.0
11
387.583
21
369.669
31
0.0
0
LINE
5
2707e
8
0-0
6
CONTINUOUS
62
  7
10
387.583
20
369.669
30
0.0
11
388.724
21
370.496
31
0.0
0
LINE
5
2707f
8
0-0
6
CONTINUOUS
62
  7
10
388.724
20
370.496
30
0.0
11
389.776
21
371.323
31
0.0
0
LINE
5
27080
8
0-0
6
CONTINUOUS
62
  7
10
389.776
20
371.323
30
0.0
11
390.732
21
372.136
31
0.0
0
LINE
5
27081
8
0-0
6
CONTINUOUS
62
  7
10
390.732
20
372.136
30
0.0
11
391.581
21
372.921
31
0.0
0
LINE
5
27082
8
0-0
6
CONTINUOUS
62
  7
10
391.581
20
372.921
30
0.0
11
392.313
21
373.663
31
0.0
0
LINE
5
27083
8
0-0
6
CONTINUOUS
62
  7
10
392.313
20
373.663
30
0.0
11
392.919
21
374.346
31
0.0
0
LINE
5
27084
8
0-0
6
CONTINUOUS
62
  7
10
392.919
20
374.346
30
0.0
11
393.852
21
375.698
31
0.0
0
LINE
5
27085
8
0-0
6
CONTINUOUS
62
  7
10
393.852
20
375.698
30
0.0
11
394.783
21
377.119
31
0.0
0
LINE
5
27086
8
0-0
6
CONTINUOUS
62
  7
10
394.783
20
377.119
30
0.0
11
395.709
21
378.604
31
0.0
0
LINE
5
27087
8
0-0
6
CONTINUOUS
62
  7
10
395.709
20
378.604
30
0.0
11
396.629
21
380.151
31
0.0
0
LINE
5
27088
8
0-0
6
CONTINUOUS
62
  7
10
396.629
20
380.151
30
0.0
11
397.539
21
381.758
31
0.0
0
LINE
5
27089
8
0-0
6
CONTINUOUS
62
  7
10
397.539
20
381.758
30
0.0
11
398.439
21
383.422
31
0.0
0
LINE
5
2708a
8
0-0
6
CONTINUOUS
62
  7
10
398.439
20
383.422
30
0.0
11
399.325
21
385.139
31
0.0
0
LINE
5
2708b
8
0-0
6
CONTINUOUS
62
  7
10
399.325
20
385.139
30
0.0
11
400.195
21
386.907
31
0.0
0
LINE
5
2708c
8
0-0
6
CONTINUOUS
62
  7
10
400.195
20
386.907
30
0.0
11
401.047
21
388.723
31
0.0
0
LINE
5
2708d
8
0-0
6
CONTINUOUS
62
  7
10
401.047
20
388.723
30
0.0
11
401.879
21
390.585
31
0.0
0
LINE
5
2708e
8
0-0
6
CONTINUOUS
62
  7
10
401.879
20
390.585
30
0.0
11
402.689
21
392.489
31
0.0
0
LINE
5
2708f
8
0-0
6
CONTINUOUS
62
  7
10
402.689
20
392.489
30
0.0
11
403.474
21
394.434
31
0.0
0
LINE
5
27090
8
0-0
6
CONTINUOUS
62
  7
10
403.474
20
394.434
30
0.0
11
404.232
21
396.415
31
0.0
0
LINE
5
27091
8
0-0
6
CONTINUOUS
62
  7
10
404.232
20
396.415
30
0.0
11
404.961
21
398.430
31
0.0
0
LINE
5
27092
8
0-0
6
CONTINUOUS
62
  7
10
413.049
20
496.407
30
0.0
11
412.062
21
499.802
31
0.0
0
LINE
5
27093
8
0-0
6
CONTINUOUS
62
  7
10
412.062
20
499.802
30
0.0
11
410.996
21
503.127
31
0.0
0
LINE
5
27094
8
0-0
6
CONTINUOUS
62
  7
10
410.996
20
503.127
30
0.0
11
409.847
21
506.388
31
0.0
0
LINE
5
27095
8
0-0
6
CONTINUOUS
62
  7
10
409.847
20
506.388
30
0.0
11
408.613
21
509.591
31
0.0
0
LINE
5
27096
8
0-0
6
CONTINUOUS
62
  7
10
408.613
20
509.591
30
0.0
11
407.292
21
512.739
31
0.0
0
LINE
5
27097
8
0-0
6
CONTINUOUS
62
  7
10
407.292
20
512.739
30
0.0
11
405.882
21
515.835
31
0.0
0
LINE
5
27098
8
0-0
6
CONTINUOUS
62
  7
10
405.882
20
515.835
30
0.0
11
404.382
21
518.883
31
0.0
0
LINE
5
27099
8
0-0
6
CONTINUOUS
62
  7
10
404.382
20
518.883
30
0.0
11
402.794
21
521.885
31
0.0
0
LINE
5
2709a
8
0-0
6
CONTINUOUS
62
  7
10
402.794
20
521.885
30
0.0
11
401.115
21
524.842
31
0.0
0
LINE
5
2709b
8
0-0
6
CONTINUOUS
62
  7
10
401.115
20
524.842
30
0.0
11
399.349
21
527.754
31
0.0
0
LINE
5
2709c
8
0-0
6
CONTINUOUS
62
  7
10
399.349
20
527.754
30
0.0
11
397.494
21
530.622
31
0.0
0
LINE
5
2709d
8
0-0
6
CONTINUOUS
62
  7
10
397.494
20
530.622
30
0.0
11
395.553
21
533.445
31
0.0
0
LINE
5
2709e
8
0-0
6
CONTINUOUS
62
  7
10
395.553
20
533.445
30
0.0
11
393.528
21
536.222
31
0.0
0
LINE
5
2709f
8
0-0
6
CONTINUOUS
62
  7
10
393.528
20
536.222
30
0.0
11
391.420
21
538.951
31
0.0
0
LINE
5
270a0
8
0-0
6
CONTINUOUS
62
  7
10
391.420
20
538.951
30
0.0
11
389.233
21
541.632
31
0.0
0
LINE
5
270a1
8
0-0
6
CONTINUOUS
62
  7
10
389.233
20
541.632
30
0.0
11
386.970
21
544.261
31
0.0
0
LINE
5
270a2
8
0-0
6
CONTINUOUS
62
  7
10
386.970
20
544.261
30
0.0
11
384.634
21
546.835
31
0.0
0
LINE
5
270a3
8
0-0
6
CONTINUOUS
62
  7
10
384.634
20
546.835
30
0.0
11
382.231
21
549.353
31
0.0
0
LINE
5
270a4
8
0-0
6
CONTINUOUS
62
  7
10
382.231
20
549.353
30
0.0
11
379.766
21
551.809
31
0.0
0
LINE
5
270a5
8
0-0
6
CONTINUOUS
62
  7
10
379.766
20
551.809
30
0.0
11
377.245
21
554.201
31
0.0
0
LINE
5
270a6
8
0-0
6
CONTINUOUS
62
  7
10
377.245
20
554.201
30
0.0
11
374.676
21
556.524
31
0.0
0
LINE
5
270a7
8
0-0
6
CONTINUOUS
62
  7
10
374.676
20
556.524
30
0.0
11
372.066
21
558.774
31
0.0
0
LINE
5
270a8
8
0-0
6
CONTINUOUS
62
  7
10
372.066
20
558.774
30
0.0
11
369.425
21
560.947
31
0.0
0
LINE
5
270a9
8
0-0
6
CONTINUOUS
62
  7
10
369.425
20
560.947
30
0.0
11
366.762
21
563.039
31
0.0
0
LINE
5
270aa
8
0-0
6
CONTINUOUS
62
  7
10
366.762
20
563.039
30
0.0
11
364.088
21
565.043
31
0.0
0
LINE
5
270ab
8
0-0
6
CONTINUOUS
62
  7
10
364.088
20
565.043
30
0.0
11
361.414
21
566.957
31
0.0
0
LINE
5
270ac
8
0-0
6
CONTINUOUS
62
  7
10
361.414
20
566.957
30
0.0
11
358.753
21
568.776
31
0.0
0
LINE
5
270ad
8
0-0
6
CONTINUOUS
62
  7
10
358.753
20
568.776
30
0.0
11
356.117
21
570.494
31
0.0
0
LINE
5
270ae
8
0-0
6
CONTINUOUS
62
  7
10
356.117
20
570.494
30
0.0
11
353.518
21
572.109
31
0.0
0
LINE
5
270af
8
0-0
6
CONTINUOUS
62
  7
10
353.518
20
572.109
30
0.0
11
350.969
21
573.617
31
0.0
0
LINE
5
270b0
8
0-0
6
CONTINUOUS
62
  7
10
350.969
20
573.617
30
0.0
11
348.483
21
575.014
31
0.0
0
LINE
5
270b1
8
0-0
6
CONTINUOUS
62
  7
10
348.483
20
575.014
30
0.0
11
346.070
21
576.299
31
0.0
0
LINE
5
270b2
8
0-0
6
CONTINUOUS
62
  7
10
346.070
20
576.299
30
0.0
11
343.740
21
577.470
31
0.0
0
LINE
5
270b3
8
0-0
6
CONTINUOUS
62
  7
10
343.740
20
577.470
30
0.0
11
341.503
21
578.527
31
0.0
0
LINE
5
270b4
8
0-0
6
CONTINUOUS
62
  7
10
341.503
20
578.527
30
0.0
11
339.365
21
579.471
31
0.0
0
LINE
5
270b5
8
0-0
6
CONTINUOUS
62
  7
10
339.365
20
579.471
30
0.0
11
337.329
21
580.304
31
0.0
0
LINE
5
270b6
8
0-0
6
CONTINUOUS
62
  7
10
337.329
20
580.304
30
0.0
11
335.396
21
581.029
31
0.0
0
LINE
5
270b7
8
0-0
6
CONTINUOUS
62
  7
10
335.396
20
581.029
30
0.0
11
333.561
21
581.653
31
0.0
0
LINE
5
270b8
8
0-0
6
CONTINUOUS
62
  7
10
333.561
20
581.653
30
0.0
11
331.818
21
582.183
31
0.0
0
LINE
5
270b9
8
0-0
6
CONTINUOUS
62
  7
10
331.818
20
582.183
30
0.0
11
330.153
21
582.626
31
0.0
0
LINE
5
270ba
8
0-0
6
CONTINUOUS
62
  7
10
330.153
20
582.626
30
0.0
11
328.546
21
582.995
31
0.0
0
LINE
5
270bb
8
0-0
6
CONTINUOUS
62
  7
10
328.546
20
582.995
30
0.0
11
326.972
21
583.301
31
0.0
0
LINE
5
270bc
8
0-0
6
CONTINUOUS
62
  7
10
326.972
20
583.301
30
0.0
11
325.398
21
583.559
31
0.0
0
LINE
5
270bd
8
0-0
6
CONTINUOUS
62
  7
10
325.398
20
583.559
30
0.0
11
323.784
21
583.784
31
0.0
0
LINE
5
270be
8
0-0
6
CONTINUOUS
62
  7
10
404.961
20
398.430
30
0.0
11
406.075
21
402.303
31
0.0
0
LINE
5
270bf
8
0-0
6
CONTINUOUS
62
  7
10
406.075
20
402.303
30
0.0
11
407.104
21
406.146
31
0.0
0
LINE
5
270c0
8
0-0
6
CONTINUOUS
62
  7
10
407.104
20
406.146
30
0.0
11
408.052
21
409.997
31
0.0
0
LINE
5
270c1
8
0-0
6
CONTINUOUS
62
  7
10
408.052
20
409.997
30
0.0
11
408.925
21
413.887
31
0.0
0
LINE
5
270c2
8
0-0
6
CONTINUOUS
62
  7
10
408.925
20
413.887
30
0.0
11
409.725
21
417.836
31
0.0
0
LINE
5
270c3
8
0-0
6
CONTINUOUS
62
  7
10
409.725
20
417.836
30
0.0
11
410.457
21
421.858
31
0.0
0
LINE
5
270c4
8
0-0
6
CONTINUOUS
62
  7
10
410.457
20
421.858
30
0.0
11
411.122
21
425.958
31
0.0
0
LINE
5
270c5
8
0-0
6
CONTINUOUS
62
  7
10
411.122
20
425.958
30
0.0
11
411.724
21
430.136
31
0.0
0
LINE
5
270c6
8
0-0
6
CONTINUOUS
62
  7
10
411.724
20
430.136
30
0.0
11
412.263
21
434.386
31
0.0
0
LINE
5
270c7
8
0-0
6
CONTINUOUS
62
  7
10
412.263
20
434.386
30
0.0
11
412.742
21
438.697
31
0.0
0
LINE
5
270c8
8
0-0
6
CONTINUOUS
62
  7
10
412.742
20
438.697
30
0.0
11
413.161
21
443.055
31
0.0
0
LINE
5
270c9
8
0-0
6
CONTINUOUS
62
  7
10
413.161
20
443.055
30
0.0
11
413.521
21
447.445
31
0.0
0
LINE
5
270ca
8
0-0
6
CONTINUOUS
62
  7
10
413.521
20
447.445
30
0.0
11
413.821
21
451.846
31
0.0
0
LINE
5
270cb
8
0-0
6
CONTINUOUS
62
  7
10
413.821
20
451.846
30
0.0
11
414.063
21
456.239
31
0.0
0
LINE
5
270cc
8
0-0
6
CONTINUOUS
62
  7
10
414.063
20
456.239
30
0.0
11
414.246
21
460.604
31
0.0
0
LINE
5
270cd
8
0-0
6
CONTINUOUS
62
  7
10
414.246
20
460.604
30
0.0
11
414.368
21
464.923
31
0.0
0
LINE
5
270ce
8
0-0
6
CONTINUOUS
62
  7
10
414.368
20
464.923
30
0.0
11
414.430
21
469.177
31
0.0
0
LINE
5
270cf
8
0-0
6
CONTINUOUS
62
  7
10
414.430
20
469.177
30
0.0
11
414.430
21
473.351
31
0.0
0
LINE
5
270d0
8
0-0
6
CONTINUOUS
62
  7
10
414.430
20
473.351
30
0.0
11
414.367
21
477.434
31
0.0
0
LINE
5
270d1
8
0-0
6
CONTINUOUS
62
  7
10
414.367
20
477.434
30
0.0
11
414.239
21
481.417
31
0.0
0
LINE
5
270d2
8
0-0
6
CONTINUOUS
62
  7
10
414.239
20
481.417
30
0.0
11
414.045
21
485.299
31
0.0
0
LINE
5
270d3
8
0-0
6
CONTINUOUS
62
  7
10
414.045
20
485.299
30
0.0
11
413.783
21
489.084
31
0.0
0
LINE
5
270d4
8
0-0
6
CONTINUOUS
62
  7
10
413.783
20
489.084
30
0.0
11
413.452
21
492.780
31
0.0
0
LINE
5
270d5
8
0-0
6
CONTINUOUS
62
  7
10
413.452
20
492.780
30
0.0
11
413.049
21
496.407
31
0.0
0
LINE
5
270d6
8
0-0
6
CONTINUOUS
62
  7
10
369.185
20
362.767
30
0.0
11
386.654
21
362.767
31
0.0
0
LINE
5
270d7
8
0-0
6
CONTINUOUS
62
  7
10
386.654
20
362.767
30
0.0
11
388.284
21
363.642
31
0.0
0
LINE
5
270d8
8
0-0
6
CONTINUOUS
62
  7
10
388.284
20
363.642
30
0.0
11
389.938
21
364.619
31
0.0
0
LINE
5
270d9
8
0-0
6
CONTINUOUS
62
  7
10
389.938
20
364.619
30
0.0
11
391.604
21
365.718
31
0.0
0
LINE
5
270da
8
0-0
6
CONTINUOUS
62
  7
10
391.604
20
365.718
30
0.0
11
393.275
21
366.953
31
0.0
0
LINE
5
270db
8
0-0
6
CONTINUOUS
62
  7
10
393.275
20
366.953
30
0.0
11
394.942
21
368.335
31
0.0
0
LINE
5
270dc
8
0-0
6
CONTINUOUS
62
  7
10
394.942
20
368.335
30
0.0
11
396.598
21
369.869
31
0.0
0
LINE
5
270dd
8
0-0
6
CONTINUOUS
62
  7
10
396.598
20
369.869
30
0.0
11
398.236
21
371.556
31
0.0
0
LINE
5
270de
8
0-0
6
CONTINUOUS
62
  7
10
398.236
20
371.556
30
0.0
11
399.849
21
373.398
31
0.0
0
LINE
5
270df
8
0-0
6
CONTINUOUS
62
  7
10
399.849
20
373.398
30
0.0
11
401.433
21
375.393
31
0.0
0
LINE
5
270e0
8
0-0
6
CONTINUOUS
62
  7
10
401.433
20
375.393
30
0.0
11
402.983
21
377.537
31
0.0
0
LINE
5
270e1
8
0-0
6
CONTINUOUS
62
  7
10
402.983
20
377.537
30
0.0
11
404.494
21
379.829
31
0.0
0
LINE
5
270e2
8
0-0
6
CONTINUOUS
62
  7
10
404.494
20
379.829
30
0.0
11
405.963
21
382.264
31
0.0
0
LINE
5
270e3
8
0-0
6
CONTINUOUS
62
  7
10
405.963
20
382.264
30
0.0
11
407.387
21
384.842
31
0.0
0
LINE
5
270e4
8
0-0
6
CONTINUOUS
62
  7
10
407.387
20
384.842
30
0.0
11
408.763
21
387.558
31
0.0
0
LINE
5
270e5
8
0-0
6
CONTINUOUS
62
  7
10
408.763
20
387.558
30
0.0
11
410.089
21
390.413
31
0.0
0
LINE
5
270e6
8
0-0
6
CONTINUOUS
62
  7
10
410.089
20
390.413
30
0.0
11
411.364
21
393.404
31
0.0
0
LINE
5
270e7
8
0-0
6
CONTINUOUS
62
  7
10
411.364
20
393.404
30
0.0
11
412.587
21
396.530
31
0.0
0
LINE
5
270e8
8
0-0
6
CONTINUOUS
62
  7
10
412.587
20
396.530
30
0.0
11
413.756
21
399.792
31
0.0
0
LINE
5
270e9
8
0-0
6
CONTINUOUS
62
  7
10
413.756
20
399.792
30
0.0
11
414.873
21
403.188
31
0.0
0
LINE
5
270ea
8
0-0
6
CONTINUOUS
62
  7
10
414.873
20
403.188
30
0.0
11
415.935
21
406.716
31
0.0
0
LINE
5
270eb
8
0-0
6
CONTINUOUS
62
  7
10
415.935
20
406.716
30
0.0
11
416.943
21
410.375
31
0.0
0
LINE
5
270ec
8
0-0
6
CONTINUOUS
62
  7
10
416.943
20
410.375
30
0.0
11
417.898
21
414.160
31
0.0
0
LINE
5
270ed
8
0-0
6
CONTINUOUS
62
  7
10
417.898
20
414.160
30
0.0
11
418.800
21
418.066
31
0.0
0
LINE
5
270ee
8
0-0
6
CONTINUOUS
62
  7
10
418.800
20
418.066
30
0.0
11
419.648
21
422.086
31
0.0
0
LINE
5
270ef
8
0-0
6
CONTINUOUS
62
  7
10
419.648
20
422.086
30
0.0
11
420.443
21
426.209
31
0.0
0
LINE
5
270f0
8
0-0
6
CONTINUOUS
62
  7
10
420.443
20
426.209
30
0.0
11
421.184
21
430.423
31
0.0
0
LINE
5
270f1
8
0-0
6
CONTINUOUS
62
  7
10
421.184
20
430.423
30
0.0
11
421.872
21
434.711
31
0.0
0
LINE
5
270f2
8
0-0
6
CONTINUOUS
62
  7
10
421.872
20
434.711
30
0.0
11
422.506
21
439.054
31
0.0
0
LINE
5
270f3
8
0-0
6
CONTINUOUS
62
  7
10
422.506
20
439.054
30
0.0
11
423.085
21
443.431
31
0.0
0
LINE
5
270f4
8
0-0
6
CONTINUOUS
62
  7
10
423.085
20
443.431
30
0.0
11
423.608
21
447.815
31
0.0
0
LINE
5
270f5
8
0-0
6
CONTINUOUS
62
  7
10
423.608
20
447.815
30
0.0
11
424.075
21
452.180
31
0.0
0
LINE
5
270f6
8
0-0
6
CONTINUOUS
62
  7
10
424.075
20
452.180
30
0.0
11
424.484
21
456.495
31
0.0
0
LINE
5
270f7
8
0-0
6
CONTINUOUS
62
  7
10
424.484
20
456.495
30
0.0
11
424.833
21
460.730
31
0.0
0
LINE
5
270f8
8
0-0
6
CONTINUOUS
62
  7
10
424.833
20
460.730
30
0.0
11
425.123
21
464.853
31
0.0
0
LINE
5
270f9
8
0-0
6
CONTINUOUS
62
  7
10
425.123
20
464.853
30
0.0
11
425.351
21
468.833
31
0.0
0
LINE
5
270fa
8
0-0
6
CONTINUOUS
62
  7
10
425.351
20
468.833
30
0.0
11
425.517
21
472.643
31
0.0
0
LINE
5
270fb
8
0-0
6
CONTINUOUS
62
  7
10
425.517
20
472.643
30
0.0
11
425.621
21
476.259
31
0.0
0
LINE
5
270fc
8
0-0
6
CONTINUOUS
62
  7
10
425.621
20
476.259
30
0.0
11
425.662
21
479.663
31
0.0
0
LINE
5
270fd
8
0-0
6
CONTINUOUS
62
  7
10
425.662
20
479.663
30
0.0
11
425.641
21
482.846
31
0.0
0
LINE
5
270fe
8
0-0
6
CONTINUOUS
62
  7
10
425.641
20
482.846
30
0.0
11
425.561
21
485.811
31
0.0
0
LINE
5
270ff
8
0-0
6
CONTINUOUS
62
  7
10
425.561
20
485.811
30
0.0
11
425.422
21
488.576
31
0.0
0
LINE
5
27100
8
0-0
6
CONTINUOUS
62
  7
10
425.422
20
488.576
30
0.0
11
425.230
21
491.174
31
0.0
0
LINE
5
27101
8
0-0
6
CONTINUOUS
62
  7
10
425.230
20
491.174
30
0.0
11
424.990
21
493.663
31
0.0
0
LINE
5
27102
8
0-0
6
CONTINUOUS
62
  7
10
424.990
20
493.663
30
0.0
11
424.708
21
496.125
31
0.0
0
LINE
5
27103
8
0-0
6
CONTINUOUS
62
  7
10
424.708
20
496.125
30
0.0
11
423.366
21
499.697
31
0.0
0
LINE
5
27104
8
0-0
6
CONTINUOUS
62
  7
10
423.366
20
499.697
30
0.0
11
421.831
21
503.420
31
0.0
0
LINE
5
27105
8
0-0
6
CONTINUOUS
62
  7
10
421.831
20
503.420
30
0.0
11
420.115
21
507.255
31
0.0
0
LINE
5
27106
8
0-0
6
CONTINUOUS
62
  7
10
420.115
20
507.255
30
0.0
11
418.234
21
511.165
31
0.0
0
LINE
5
27107
8
0-0
6
CONTINUOUS
62
  7
10
418.234
20
511.165
30
0.0
11
416.206
21
515.116
31
0.0
0
LINE
5
27108
8
0-0
6
CONTINUOUS
62
  7
10
416.206
20
515.116
30
0.0
11
414.045
21
519.073
31
0.0
0
LINE
5
27109
8
0-0
6
CONTINUOUS
62
  7
10
414.045
20
519.073
30
0.0
11
411.771
21
523.004
31
0.0
0
LINE
5
2710a
8
0-0
6
CONTINUOUS
62
  7
10
411.771
20
523.004
30
0.0
11
409.401
21
526.876
31
0.0
0
LINE
5
2710b
8
0-0
6
CONTINUOUS
62
  7
10
409.401
20
526.876
30
0.0
11
406.955
21
530.658
31
0.0
0
LINE
5
2710c
8
0-0
6
CONTINUOUS
62
  7
10
406.955
20
530.658
30
0.0
11
404.451
21
534.323
31
0.0
0
LINE
5
2710d
8
0-0
6
CONTINUOUS
62
  7
10
404.451
20
534.323
30
0.0
11
401.911
21
537.841
31
0.0
0
LINE
5
2710e
8
0-0
6
CONTINUOUS
62
  7
10
401.911
20
537.841
30
0.0
11
399.355
21
541.185
31
0.0
0
LINE
5
2710f
8
0-0
6
CONTINUOUS
62
  7
10
399.355
20
541.185
30
0.0
11
396.806
21
544.331
31
0.0
0
LINE
5
27110
8
0-0
6
CONTINUOUS
62
  7
10
396.806
20
544.331
30
0.0
11
394.284
21
547.253
31
0.0
0
LINE
5
27111
8
0-0
6
CONTINUOUS
62
  7
10
394.284
20
547.253
30
0.0
11
391.814
21
549.928
31
0.0
0
LINE
5
27112
8
0-0
6
CONTINUOUS
62
  7
10
391.814
20
549.928
30
0.0
11
389.420
21
552.335
31
0.0
0
LINE
5
27113
8
0-0
6
CONTINUOUS
62
  7
10
389.420
20
552.335
30
0.0
11
387.125
21
554.452
31
0.0
0
LINE
5
27114
8
0-0
6
CONTINUOUS
62
  7
10
387.125
20
554.452
30
0.0
11
384.955
21
556.260
31
0.0
0
LINE
5
27115
8
0-0
6
CONTINUOUS
62
  7
10
384.955
20
556.260
30
0.0
11
382.936
21
557.740
31
0.0
0
LINE
5
27116
8
0-0
6
CONTINUOUS
62
  7
10
429.805
20
493.784
30
0.0
11
424.990
21
493.784
31
0.0
0
LINE
5
27117
8
0-0
6
CONTINUOUS
62
  7
10
1402.703
20
583.784
30
0.0
11
1402.703
21
493.784
31
0.0
0
LINE
5
27118
8
0-0
6
CONTINUOUS
62
  7
10
1402.703
20
493.784
30
0.0
11
1556.682
21
493.784
31
0.0
0
LINE
5
27119
8
0-0
6
CONTINUOUS
62
  7
10
1413.703
20
583.784
30
0.0
11
1413.703
21
506.284
31
0.0
0
LINE
5
2711a
8
0-0
6
CONTINUOUS
62
  7
10
1418.703
20
583.784
30
0.0
11
1418.703
21
506.284
31
0.0
0
LINE
5
2711b
8
0-0
6
CONTINUOUS
62
  7
10
1402.703
20
583.784
30
0.0
11
1413.703
21
583.784
31
0.0
0
LINE
5
2711c
8
0-0
6
CONTINUOUS
62
  7
10
1418.703
20
583.784
30
0.0
11
1662.703
21
583.784
31
0.0
0
LINE
5
2711d
8
ADD_LINE
6
HIDDEN
62
  3
10
1402.703
20
493.784
30
0.0
11
1391.120
21
493.784
31
0.0
0
LINE
5
2711e
8
ADD_LINE
6
HIDDEN
62
  3
10
1402.703
20
493.784
30
0.0
11
1402.703
21
484.025
31
0.0
0
LINE
5
2711f
8
0-0
6
CONTINUOUS
62
  7
10
1662.703
20
583.784
30
0.0
11
1665.379
21
583.531
31
0.0
0
LINE
5
27120
8
0-0
6
CONTINUOUS
62
  7
10
1665.379
20
583.531
30
0.0
11
1667.961
21
583.151
31
0.0
0
LINE
5
27121
8
0-0
6
CONTINUOUS
62
  7
10
1667.961
20
583.151
30
0.0
11
1670.475
21
582.646
31
0.0
0
LINE
5
27122
8
0-0
6
CONTINUOUS
62
  7
10
1670.475
20
582.646
30
0.0
11
1672.944
21
582.016
31
0.0
0
LINE
5
27123
8
0-0
6
CONTINUOUS
62
  7
10
1672.944
20
582.016
30
0.0
11
1675.382
21
581.265
31
0.0
0
LINE
5
27124
8
0-0
6
CONTINUOUS
62
  7
10
1675.382
20
581.265
30
0.0
11
1677.800
21
580.396
31
0.0
0
LINE
5
27125
8
0-0
6
CONTINUOUS
62
  7
10
1677.800
20
580.396
30
0.0
11
1680.208
21
579.412
31
0.0
0
LINE
5
27126
8
0-0
6
CONTINUOUS
62
  7
10
1680.208
20
579.412
30
0.0
11
1682.609
21
578.317
31
0.0
0
LINE
5
27127
8
0-0
6
CONTINUOUS
62
  7
10
1682.609
20
578.317
30
0.0
11
1685.007
21
577.113
31
0.0
0
LINE
5
27128
8
0-0
6
CONTINUOUS
62
  7
10
1685.007
20
577.113
30
0.0
11
1687.403
21
575.804
31
0.0
0
LINE
5
27129
8
0-0
6
CONTINUOUS
62
  7
10
1687.403
20
575.804
30
0.0
11
1689.799
21
574.393
31
0.0
0
LINE
5
2712a
8
0-0
6
CONTINUOUS
62
  7
10
1689.799
20
574.393
30
0.0
11
1692.193
21
572.883
31
0.0
0
LINE
5
2712b
8
0-0
6
CONTINUOUS
62
  7
10
1692.193
20
572.883
30
0.0
11
1694.584
21
571.278
31
0.0
0
LINE
5
2712c
8
0-0
6
CONTINUOUS
62
  7
10
1694.584
20
571.278
30
0.0
11
1696.969
21
569.580
31
0.0
0
LINE
5
2712d
8
0-0
6
CONTINUOUS
62
  7
10
1696.969
20
569.580
30
0.0
11
1699.345
21
567.794
31
0.0
0
LINE
5
2712e
8
0-0
6
CONTINUOUS
62
  7
10
1699.345
20
567.794
30
0.0
11
1701.708
21
565.924
31
0.0
0
LINE
5
2712f
8
0-0
6
CONTINUOUS
62
  7
10
1701.708
20
565.924
30
0.0
11
1704.053
21
563.975
31
0.0
0
LINE
5
27130
8
0-0
6
CONTINUOUS
62
  7
10
1704.053
20
563.975
30
0.0
11
1706.376
21
561.950
31
0.0
0
LINE
5
27131
8
0-0
6
CONTINUOUS
62
  7
10
1706.376
20
561.950
30
0.0
11
1708.669
21
559.857
31
0.0
0
LINE
5
27132
8
0-0
6
CONTINUOUS
62
  7
10
1708.669
20
559.857
30
0.0
11
1710.926
21
557.701
31
0.0
0
LINE
5
27133
8
0-0
6
CONTINUOUS
62
  7
10
1710.926
20
557.701
30
0.0
11
1713.139
21
555.489
31
0.0
0
LINE
5
27134
8
0-0
6
CONTINUOUS
62
  7
10
1713.139
20
555.489
30
0.0
11
1715.302
21
553.227
31
0.0
0
LINE
5
27135
8
0-0
6
CONTINUOUS
62
  7
10
1715.302
20
553.227
30
0.0
11
1717.406
21
550.922
31
0.0
0
LINE
5
27136
8
0-0
6
CONTINUOUS
62
  7
10
1717.406
20
550.922
30
0.0
11
1719.443
21
548.582
31
0.0
0
LINE
5
27137
8
0-0
6
CONTINUOUS
62
  7
10
1719.443
20
548.582
30
0.0
11
1721.406
21
546.214
31
0.0
0
LINE
5
27138
8
0-0
6
CONTINUOUS
62
  7
10
1721.406
20
546.214
30
0.0
11
1723.288
21
543.826
31
0.0
0
LINE
5
27139
8
0-0
6
CONTINUOUS
62
  7
10
1723.288
20
543.826
30
0.0
11
1725.081
21
541.424
31
0.0
0
LINE
5
2713a
8
0-0
6
CONTINUOUS
62
  7
10
1725.081
20
541.424
30
0.0
11
1726.780
21
539.016
31
0.0
0
LINE
5
2713b
8
0-0
6
CONTINUOUS
62
  7
10
1726.780
20
539.016
30
0.0
11
1728.380
21
536.608
31
0.0
0
LINE
5
2713c
8
0-0
6
CONTINUOUS
62
  7
10
1728.380
20
536.608
30
0.0
11
1729.878
21
534.206
31
0.0
0
LINE
5
2713d
8
0-0
6
CONTINUOUS
62
  7
10
1729.878
20
534.206
30
0.0
11
1731.273
21
531.816
31
0.0
0
LINE
5
2713e
8
0-0
6
CONTINUOUS
62
  7
10
1731.273
20
531.816
30
0.0
11
1732.565
21
529.443
31
0.0
0
LINE
5
2713f
8
0-0
6
CONTINUOUS
62
  7
10
1732.565
20
529.443
30
0.0
11
1733.755
21
527.093
31
0.0
0
LINE
5
27140
8
0-0
6
CONTINUOUS
62
  7
10
1733.755
20
527.093
30
0.0
11
1734.848
21
524.772
31
0.0
0
LINE
5
27141
8
0-0
6
CONTINUOUS
62
  7
10
1734.848
20
524.772
30
0.0
11
1735.848
21
522.485
31
0.0
0
LINE
5
27142
8
0-0
6
CONTINUOUS
62
  7
10
1735.848
20
522.485
30
0.0
11
1736.762
21
520.240
31
0.0
0
LINE
5
27143
8
0-0
6
CONTINUOUS
62
  7
10
1736.762
20
520.240
30
0.0
11
1737.597
21
518.045
31
0.0
0
LINE
5
27144
8
0-0
6
CONTINUOUS
62
  7
10
1737.597
20
518.045
30
0.0
11
1738.361
21
515.914
31
0.0
0
LINE
5
27145
8
0-0
6
CONTINUOUS
62
  7
10
1738.361
20
515.914
30
0.0
11
1739.060
21
513.862
31
0.0
0
LINE
5
27146
8
0-0
6
CONTINUOUS
62
  7
10
1739.060
20
513.862
30
0.0
11
1739.285
21
511.922
31
0.0
0
LINE
5
27147
8
0-0
6
CONTINUOUS
62
  7
10
1739.285
20
511.922
30
0.0
11
1739.490
21
510.055
31
0.0
0
LINE
5
27148
8
0-0
6
CONTINUOUS
62
  7
10
1739.490
20
510.055
30
0.0
11
1739.673
21
508.250
31
0.0
0
LINE
5
27149
8
0-0
6
CONTINUOUS
62
  7
10
1739.673
20
508.250
30
0.0
11
1739.833
21
506.496
31
0.0
0
LINE
5
2714a
8
0-0
6
CONTINUOUS
62
  7
10
1739.833
20
506.496
30
0.0
11
1739.967
21
504.783
31
0.0
0
LINE
5
2714b
8
0-0
6
CONTINUOUS
62
  7
10
1739.967
20
504.783
30
0.0
11
1740.073
21
503.099
31
0.0
0
LINE
5
2714c
8
0-0
6
CONTINUOUS
62
  7
10
1740.073
20
503.099
30
0.0
11
1740.147
21
501.434
31
0.0
0
LINE
5
2714d
8
0-0
6
CONTINUOUS
62
  7
10
1740.147
20
501.434
30
0.0
11
1740.188
21
499.777
31
0.0
0
LINE
5
2714e
8
0-0
6
CONTINUOUS
62
  7
10
1740.188
20
499.777
30
0.0
11
1740.194
21
498.118
31
0.0
0
LINE
5
2714f
8
0-0
6
CONTINUOUS
62
  7
10
1740.194
20
498.118
30
0.0
11
1740.161
21
496.446
31
0.0
0
LINE
5
27150
8
0-0
6
CONTINUOUS
62
  7
10
1740.161
20
496.446
30
0.0
11
1740.089
21
494.750
31
0.0
0
LINE
5
27151
8
0-0
6
CONTINUOUS
62
  7
10
1740.089
20
494.750
30
0.0
11
1740.078
21
494.594
31
0.0
0
LINE
5
27152
8
0-0
6
CONTINUOUS
62
  7
10
1740.078
20
494.594
30
0.0
11
1739.803
21
492.649
31
0.0
0
LINE
5
27153
8
0-0
6
CONTINUOUS
62
  7
10
1739.803
20
492.649
30
0.0
11
1739.477
21
490.711
31
0.0
0
LINE
5
27154
8
0-0
6
CONTINUOUS
62
  7
10
1739.477
20
490.711
30
0.0
11
1739.075
21
488.731
31
0.0
0
LINE
5
27155
8
0-0
6
CONTINUOUS
62
  7
10
1739.075
20
488.731
30
0.0
11
1738.580
21
486.674
31
0.0
0
LINE
5
27156
8
0-0
6
CONTINUOUS
62
  7
10
1738.580
20
486.674
30
0.0
11
1737.978
21
484.514
31
0.0
0
LINE
5
27157
8
0-0
6
CONTINUOUS
62
  7
10
1737.978
20
484.514
30
0.0
11
1737.262
21
482.234
31
0.0
0
LINE
5
27158
8
0-0
6
CONTINUOUS
62
  7
10
1737.262
20
482.234
30
0.0
11
1736.426
21
479.825
31
0.0
0
LINE
5
27159
8
0-0
6
CONTINUOUS
62
  7
10
1736.426
20
479.825
30
0.0
11
1735.467
21
477.283
31
0.0
0
LINE
5
2715a
8
0-0
6
CONTINUOUS
62
  7
10
1735.467
20
477.283
30
0.0
11
1734.385
21
474.610
31
0.0
0
LINE
5
2715b
8
0-0
6
CONTINUOUS
62
  7
10
1734.385
20
474.610
30
0.0
11
1733.181
21
471.808
31
0.0
0
LINE
5
2715c
8
0-0
6
CONTINUOUS
62
  7
10
1733.181
20
471.808
30
0.0
11
1731.857
21
468.884
31
0.0
0
LINE
5
2715d
8
0-0
6
CONTINUOUS
62
  7
10
1731.857
20
468.884
30
0.0
11
1730.416
21
465.848
31
0.0
0
LINE
5
2715e
8
0-0
6
CONTINUOUS
62
  7
10
1730.416
20
465.848
30
0.0
11
1728.860
21
462.709
31
0.0
0
LINE
5
2715f
8
0-0
6
CONTINUOUS
62
  7
10
1728.860
20
462.709
30
0.0
11
1727.194
21
459.478
31
0.0
0
LINE
5
27160
8
0-0
6
CONTINUOUS
62
  7
10
1727.194
20
459.478
30
0.0
11
1725.422
21
456.167
31
0.0
0
LINE
5
27161
8
0-0
6
CONTINUOUS
62
  7
10
1725.422
20
456.167
30
0.0
11
1723.547
21
452.786
31
0.0
0
LINE
5
27162
8
0-0
6
CONTINUOUS
62
  7
10
1723.547
20
452.786
30
0.0
11
1721.572
21
449.350
31
0.0
0
LINE
5
27163
8
0-0
6
CONTINUOUS
62
  7
10
1721.572
20
449.350
30
0.0
11
1719.501
21
445.868
31
0.0
0
LINE
5
27164
8
0-0
6
CONTINUOUS
62
  7
10
1719.501
20
445.868
30
0.0
11
1717.338
21
442.354
31
0.0
0
LINE
5
27165
8
0-0
6
CONTINUOUS
62
  7
10
1717.338
20
442.354
30
0.0
11
1715.086
21
438.817
31
0.0
0
LINE
5
27166
8
0-0
6
CONTINUOUS
62
  7
10
1715.086
20
438.817
30
0.0
11
1712.747
21
435.271
31
0.0
0
LINE
5
27167
8
0-0
6
CONTINUOUS
62
  7
10
1712.747
20
435.271
30
0.0
11
1710.324
21
431.724
31
0.0
0
LINE
5
27168
8
0-0
6
CONTINUOUS
62
  7
10
1710.324
20
431.724
30
0.0
11
1707.819
21
428.188
31
0.0
0
LINE
5
27169
8
0-0
6
CONTINUOUS
62
  7
10
1707.819
20
428.188
30
0.0
11
1705.235
21
424.672
31
0.0
0
LINE
5
2716a
8
0-0
6
CONTINUOUS
62
  7
10
1705.235
20
424.672
30
0.0
11
1702.573
21
421.185
31
0.0
0
LINE
5
2716b
8
0-0
6
CONTINUOUS
62
  7
10
1702.573
20
421.185
30
0.0
11
1699.835
21
417.738
31
0.0
0
LINE
5
2716c
8
0-0
6
CONTINUOUS
62
  7
10
1699.835
20
417.738
30
0.0
11
1697.024
21
414.337
31
0.0
0
LINE
5
2716d
8
0-0
6
CONTINUOUS
62
  7
10
1697.024
20
414.337
30
0.0
11
1694.140
21
410.992
31
0.0
0
LINE
5
2716e
8
0-0
6
CONTINUOUS
62
  7
10
1694.140
20
410.992
30
0.0
11
1691.187
21
407.709
31
0.0
0
LINE
5
2716f
8
0-0
6
CONTINUOUS
62
  7
10
1691.187
20
407.709
30
0.0
11
1688.165
21
404.497
31
0.0
0
LINE
5
27170
8
0-0
6
CONTINUOUS
62
  7
10
1688.165
20
404.497
30
0.0
11
1685.079
21
401.362
31
0.0
0
LINE
5
27171
8
0-0
6
CONTINUOUS
62
  7
10
1685.079
20
401.362
30
0.0
11
1681.930
21
398.310
31
0.0
0
LINE
5
27172
8
0-0
6
CONTINUOUS
62
  7
10
1681.930
20
398.310
30
0.0
11
1678.722
21
395.347
31
0.0
0
LINE
5
27173
8
0-0
6
CONTINUOUS
62
  7
10
1678.722
20
395.347
30
0.0
11
1675.461
21
392.480
31
0.0
0
LINE
5
27174
8
0-0
6
CONTINUOUS
62
  7
10
1675.461
20
392.480
30
0.0
11
1672.151
21
389.713
31
0.0
0
LINE
5
27175
8
0-0
6
CONTINUOUS
62
  7
10
1672.151
20
389.713
30
0.0
11
1668.799
21
387.053
31
0.0
0
LINE
5
27176
8
0-0
6
CONTINUOUS
62
  7
10
1668.799
20
387.053
30
0.0
11
1665.414
21
384.505
31
0.0
0
LINE
5
27177
8
0-0
6
CONTINUOUS
62
  7
10
1665.414
20
384.505
30
0.0
11
1662.004
21
382.074
31
0.0
0
LINE
5
27178
8
0-0
6
CONTINUOUS
62
  7
10
1662.004
20
382.074
30
0.0
11
1658.581
21
379.765
31
0.0
0
LINE
5
27179
8
0-0
6
CONTINUOUS
62
  7
10
1658.581
20
379.765
30
0.0
11
1655.159
21
377.584
31
0.0
0
LINE
5
2717a
8
0-0
6
CONTINUOUS
62
  7
10
1655.159
20
377.584
30
0.0
11
1651.751
21
375.535
31
0.0
0
LINE
5
2717b
8
0-0
6
CONTINUOUS
62
  7
10
1651.751
20
375.535
30
0.0
11
1648.375
21
373.624
31
0.0
0
LINE
5
2717c
8
0-0
6
CONTINUOUS
62
  7
10
1648.375
20
373.624
30
0.0
11
1645.049
21
371.856
31
0.0
0
LINE
5
2717d
8
0-0
6
CONTINUOUS
62
  7
10
1645.049
20
371.856
30
0.0
11
1641.792
21
370.237
31
0.0
0
LINE
5
2717e
8
0-0
6
CONTINUOUS
62
  7
10
1641.792
20
370.237
30
0.0
11
1638.626
21
368.770
31
0.0
0
LINE
5
2717f
8
0-0
6
CONTINUOUS
62
  7
10
1638.626
20
368.770
30
0.0
11
1635.573
21
367.460
31
0.0
0
LINE
5
27180
8
0-0
6
CONTINUOUS
62
  7
10
1635.573
20
367.460
30
0.0
11
1632.654
21
366.312
31
0.0
0
LINE
5
27181
8
0-0
6
CONTINUOUS
62
  7
10
1632.654
20
366.312
30
0.0
11
1629.890
21
365.327
31
0.0
0
LINE
5
27182
8
0-0
6
CONTINUOUS
62
  7
10
1629.890
20
365.327
30
0.0
11
1627.300
21
364.507
31
0.0
0
LINE
5
27183
8
0-0
6
CONTINUOUS
62
  7
10
1627.300
20
364.507
30
0.0
11
1624.900
21
363.852
31
0.0
0
LINE
5
27184
8
0-0
6
CONTINUOUS
62
  7
10
1624.900
20
363.852
30
0.0
11
1622.702
21
363.358
31
0.0
0
LINE
5
27185
8
0-0
6
CONTINUOUS
62
  7
10
1622.702
20
363.358
30
0.0
11
1620.708
21
363.020
31
0.0
0
LINE
5
27186
8
0-0
6
CONTINUOUS
62
  7
10
1620.708
20
363.020
30
0.0
11
1618.914
21
362.827
31
0.0
0
LINE
5
27187
8
0-0
6
CONTINUOUS
62
  7
10
1618.914
20
362.827
30
0.0
11
1617.302
21
362.767
31
0.0
0
LINE
5
27188
8
0-0
6
CONTINUOUS
62
  7
10
1617.302
20
362.767
30
0.0
11
1615.898
21
362.919
31
0.0
0
LINE
5
27189
8
0-0
6
CONTINUOUS
62
  7
10
1615.898
20
362.919
30
0.0
11
1614.457
21
363.140
31
0.0
0
LINE
5
2718a
8
0-0
6
CONTINUOUS
62
  7
10
1614.457
20
363.140
30
0.0
11
1612.990
21
363.430
31
0.0
0
LINE
5
2718b
8
0-0
6
CONTINUOUS
62
  7
10
1612.990
20
363.430
30
0.0
11
1611.505
21
363.791
31
0.0
0
LINE
5
2718c
8
0-0
6
CONTINUOUS
62
  7
10
1611.505
20
363.791
30
0.0
11
1610.011
21
364.221
31
0.0
0
LINE
5
2718d
8
0-0
6
CONTINUOUS
62
  7
10
1610.011
20
364.221
30
0.0
11
1608.519
21
364.717
31
0.0
0
LINE
5
2718e
8
0-0
6
CONTINUOUS
62
  7
10
1608.519
20
364.717
30
0.0
11
1607.037
21
365.278
31
0.0
0
LINE
5
2718f
8
0-0
6
CONTINUOUS
62
  7
10
1607.037
20
365.278
30
0.0
11
1605.576
21
365.898
31
0.0
0
LINE
5
27190
8
0-0
6
CONTINUOUS
62
  7
10
1605.576
20
365.898
30
0.0
11
1604.144
21
366.573
31
0.0
0
LINE
5
27191
8
0-0
6
CONTINUOUS
62
  7
10
1604.144
20
366.573
30
0.0
11
1602.751
21
367.295
31
0.0
0
LINE
5
27192
8
0-0
6
CONTINUOUS
62
  7
10
1602.751
20
367.295
30
0.0
11
1601.407
21
368.058
31
0.0
0
LINE
5
27193
8
0-0
6
CONTINUOUS
62
  7
10
1601.407
20
368.058
30
0.0
11
1600.121
21
368.852
31
0.0
0
LINE
5
27194
8
0-0
6
CONTINUOUS
62
  7
10
1600.121
20
368.852
30
0.0
11
1598.903
21
369.669
31
0.0
0
LINE
5
27195
8
0-0
6
CONTINUOUS
62
  7
10
1598.903
20
369.669
30
0.0
11
1597.763
21
370.496
31
0.0
0
LINE
5
27196
8
0-0
6
CONTINUOUS
62
  7
10
1597.763
20
370.496
30
0.0
11
1596.710
21
371.323
31
0.0
0
LINE
5
27197
8
0-0
6
CONTINUOUS
62
  7
10
1596.710
20
371.323
30
0.0
11
1595.754
21
372.136
31
0.0
0
LINE
5
27198
8
0-0
6
CONTINUOUS
62
  7
10
1595.754
20
372.136
30
0.0
11
1594.906
21
372.921
31
0.0
0
LINE
5
27199
8
0-0
6
CONTINUOUS
62
  7
10
1594.906
20
372.921
30
0.0
11
1594.173
21
373.663
31
0.0
0
LINE
5
2719a
8
0-0
6
CONTINUOUS
62
  7
10
1594.173
20
373.663
30
0.0
11
1593.567
21
374.346
31
0.0
0
LINE
5
2719b
8
0-0
6
CONTINUOUS
62
  7
10
1593.567
20
374.346
30
0.0
11
1592.634
21
375.698
31
0.0
0
LINE
5
2719c
8
0-0
6
CONTINUOUS
62
  7
10
1592.634
20
375.698
30
0.0
11
1591.703
21
377.119
31
0.0
0
LINE
5
2719d
8
0-0
6
CONTINUOUS
62
  7
10
1591.703
20
377.119
30
0.0
11
1590.777
21
378.604
31
0.0
0
LINE
5
2719e
8
0-0
6
CONTINUOUS
62
  7
10
1590.777
20
378.604
30
0.0
11
1589.858
21
380.151
31
0.0
0
LINE
5
2719f
8
0-0
6
CONTINUOUS
62
  7
10
1589.858
20
380.151
30
0.0
11
1588.947
21
381.758
31
0.0
0
LINE
5
271a0
8
0-0
6
CONTINUOUS
62
  7
10
1588.947
20
381.758
30
0.0
11
1588.048
21
383.422
31
0.0
0
LINE
5
271a1
8
0-0
6
CONTINUOUS
62
  7
10
1588.048
20
383.422
30
0.0
11
1587.162
21
385.139
31
0.0
0
LINE
5
271a2
8
0-0
6
CONTINUOUS
62
  7
10
1587.162
20
385.139
30
0.0
11
1586.292
21
386.907
31
0.0
0
LINE
5
271a3
8
0-0
6
CONTINUOUS
62
  7
10
1586.292
20
386.907
30
0.0
11
1585.439
21
388.723
31
0.0
0
LINE
5
271a4
8
0-0
6
CONTINUOUS
62
  7
10
1585.439
20
388.723
30
0.0
11
1584.607
21
390.585
31
0.0
0
LINE
5
271a5
8
0-0
6
CONTINUOUS
62
  7
10
1584.607
20
390.585
30
0.0
11
1583.798
21
392.489
31
0.0
0
LINE
5
271a6
8
0-0
6
CONTINUOUS
62
  7
10
1583.798
20
392.489
30
0.0
11
1583.012
21
394.434
31
0.0
0
LINE
5
271a7
8
0-0
6
CONTINUOUS
62
  7
10
1583.012
20
394.434
30
0.0
11
1582.254
21
396.415
31
0.0
0
LINE
5
271a8
8
0-0
6
CONTINUOUS
62
  7
10
1582.254
20
396.415
30
0.0
11
1581.525
21
398.430
31
0.0
0
LINE
5
271a9
8
0-0
6
CONTINUOUS
62
  7
10
1573.438
20
496.407
30
0.0
11
1574.425
21
499.802
31
0.0
0
LINE
5
271aa
8
0-0
6
CONTINUOUS
62
  7
10
1574.425
20
499.802
30
0.0
11
1575.491
21
503.127
31
0.0
0
LINE
5
271ab
8
0-0
6
CONTINUOUS
62
  7
10
1575.491
20
503.127
30
0.0
11
1576.640
21
506.388
31
0.0
0
LINE
5
271ac
8
0-0
6
CONTINUOUS
62
  7
10
1576.640
20
506.388
30
0.0
11
1577.874
21
509.591
31
0.0
0
LINE
5
271ad
8
0-0
6
CONTINUOUS
62
  7
10
1577.874
20
509.591
30
0.0
11
1579.195
21
512.739
31
0.0
0
LINE
5
271ae
8
0-0
6
CONTINUOUS
62
  7
10
1579.195
20
512.739
30
0.0
11
1580.605
21
515.835
31
0.0
0
LINE
5
271af
8
0-0
6
CONTINUOUS
62
  7
10
1580.605
20
515.835
30
0.0
11
1582.104
21
518.883
31
0.0
0
LINE
5
271b0
8
0-0
6
CONTINUOUS
62
  7
10
1582.104
20
518.883
30
0.0
11
1583.693
21
521.885
31
0.0
0
LINE
5
271b1
8
0-0
6
CONTINUOUS
62
  7
10
1583.693
20
521.885
30
0.0
11
1585.371
21
524.842
31
0.0
0
LINE
5
271b2
8
0-0
6
CONTINUOUS
62
  7
10
1585.371
20
524.842
30
0.0
11
1587.138
21
527.754
31
0.0
0
LINE
5
271b3
8
0-0
6
CONTINUOUS
62
  7
10
1587.138
20
527.754
30
0.0
11
1588.993
21
530.622
31
0.0
0
LINE
5
271b4
8
0-0
6
CONTINUOUS
62
  7
10
1588.993
20
530.622
30
0.0
11
1590.933
21
533.445
31
0.0
0
LINE
5
271b5
8
0-0
6
CONTINUOUS
62
  7
10
1590.933
20
533.445
30
0.0
11
1592.959
21
536.222
31
0.0
0
LINE
5
271b6
8
0-0
6
CONTINUOUS
62
  7
10
1592.959
20
536.222
30
0.0
11
1595.066
21
538.951
31
0.0
0
LINE
5
271b7
8
0-0
6
CONTINUOUS
62
  7
10
1595.066
20
538.951
30
0.0
11
1597.254
21
541.632
31
0.0
0
LINE
5
271b8
8
0-0
6
CONTINUOUS
62
  7
10
1597.254
20
541.632
30
0.0
11
1599.517
21
544.261
31
0.0
0
LINE
5
271b9
8
0-0
6
CONTINUOUS
62
  7
10
1599.517
20
544.261
30
0.0
11
1601.853
21
546.835
31
0.0
0
LINE
5
271ba
8
0-0
6
CONTINUOUS
62
  7
10
1601.853
20
546.835
30
0.0
11
1604.255
21
549.353
31
0.0
0
LINE
5
271bb
8
0-0
6
CONTINUOUS
62
  7
10
1604.255
20
549.353
30
0.0
11
1606.720
21
551.809
31
0.0
0
LINE
5
271bc
8
0-0
6
CONTINUOUS
62
  7
10
1606.720
20
551.809
30
0.0
11
1609.241
21
554.201
31
0.0
0
LINE
5
271bd
8
0-0
6
CONTINUOUS
62
  7
10
1609.241
20
554.201
30
0.0
11
1611.811
21
556.524
31
0.0
0
LINE
5
271be
8
0-0
6
CONTINUOUS
62
  7
10
1611.811
20
556.524
30
0.0
11
1614.420
21
558.774
31
0.0
0
LINE
5
271bf
8
0-0
6
CONTINUOUS
62
  7
10
1614.420
20
558.774
30
0.0
11
1617.062
21
560.947
31
0.0
0
LINE
5
271c0
8
0-0
6
CONTINUOUS
62
  7
10
1617.062
20
560.947
30
0.0
11
1619.725
21
563.039
31
0.0
0
LINE
5
271c1
8
0-0
6
CONTINUOUS
62
  7
10
1619.725
20
563.039
30
0.0
11
1622.399
21
565.043
31
0.0
0
LINE
5
271c2
8
0-0
6
CONTINUOUS
62
  7
10
1622.399
20
565.043
30
0.0
11
1625.073
21
566.957
31
0.0
0
LINE
5
271c3
8
0-0
6
CONTINUOUS
62
  7
10
1625.073
20
566.957
30
0.0
11
1627.734
21
568.776
31
0.0
0
LINE
5
271c4
8
0-0
6
CONTINUOUS
62
  7
10
1627.734
20
568.776
30
0.0
11
1630.370
21
570.494
31
0.0
0
LINE
5
271c5
8
0-0
6
CONTINUOUS
62
  7
10
1630.370
20
570.494
30
0.0
11
1632.969
21
572.109
31
0.0
0
LINE
5
271c6
8
0-0
6
CONTINUOUS
62
  7
10
1632.969
20
572.109
30
0.0
11
1635.517
21
573.617
31
0.0
0
LINE
5
271c7
8
0-0
6
CONTINUOUS
62
  7
10
1635.517
20
573.617
30
0.0
11
1638.004
21
575.014
31
0.0
0
LINE
5
271c8
8
0-0
6
CONTINUOUS
62
  7
10
1638.004
20
575.014
30
0.0
11
1640.417
21
576.299
31
0.0
0
LINE
5
271c9
8
0-0
6
CONTINUOUS
62
  7
10
1640.417
20
576.299
30
0.0
11
1642.746
21
577.470
31
0.0
0
LINE
5
271ca
8
0-0
6
CONTINUOUS
62
  7
10
1642.746
20
577.470
30
0.0
11
1644.983
21
578.527
31
0.0
0
LINE
5
271cb
8
0-0
6
CONTINUOUS
62
  7
10
1644.983
20
578.527
30
0.0
11
1647.122
21
579.471
31
0.0
0
LINE
5
271cc
8
0-0
6
CONTINUOUS
62
  7
10
1647.122
20
579.471
30
0.0
11
1649.158
21
580.304
31
0.0
0
LINE
5
271cd
8
0-0
6
CONTINUOUS
62
  7
10
1649.158
20
580.304
30
0.0
11
1651.091
21
581.029
31
0.0
0
LINE
5
271ce
8
0-0
6
CONTINUOUS
62
  7
10
1651.091
20
581.029
30
0.0
11
1652.925
21
581.653
31
0.0
0
LINE
5
271cf
8
0-0
6
CONTINUOUS
62
  7
10
1652.925
20
581.653
30
0.0
11
1654.668
21
582.183
31
0.0
0
LINE
5
271d0
8
0-0
6
CONTINUOUS
62
  7
10
1654.668
20
582.183
30
0.0
11
1656.334
21
582.626
31
0.0
0
LINE
5
271d1
8
0-0
6
CONTINUOUS
62
  7
10
1656.334
20
582.626
30
0.0
11
1657.941
21
582.995
31
0.0
0
LINE
5
271d2
8
0-0
6
CONTINUOUS
62
  7
10
1657.941
20
582.995
30
0.0
11
1659.515
21
583.301
31
0.0
0
LINE
5
271d3
8
0-0
6
CONTINUOUS
62
  7
10
1659.515
20
583.301
30
0.0
11
1661.089
21
583.559
31
0.0
0
LINE
5
271d4
8
0-0
6
CONTINUOUS
62
  7
10
1661.089
20
583.559
30
0.0
11
1662.703
21
583.784
31
0.0
0
LINE
5
271d5
8
0-0
6
CONTINUOUS
62
  7
10
1581.525
20
398.430
30
0.0
11
1580.411
21
402.303
31
0.0
0
LINE
5
271d6
8
0-0
6
CONTINUOUS
62
  7
10
1580.411
20
402.303
30
0.0
11
1579.383
21
406.146
31
0.0
0
LINE
5
271d7
8
0-0
6
CONTINUOUS
62
  7
10
1579.383
20
406.146
30
0.0
11
1578.434
21
409.997
31
0.0
0
LINE
5
271d8
8
0-0
6
CONTINUOUS
62
  7
10
1578.434
20
409.997
30
0.0
11
1577.562
21
413.887
31
0.0
0
LINE
5
271d9
8
0-0
6
CONTINUOUS
62
  7
10
1577.562
20
413.887
30
0.0
11
1576.761
21
417.836
31
0.0
0
LINE
5
271da
8
0-0
6
CONTINUOUS
62
  7
10
1576.761
20
417.836
30
0.0
11
1576.030
21
421.858
31
0.0
0
LINE
5
271db
8
0-0
6
CONTINUOUS
62
  7
10
1576.030
20
421.858
30
0.0
11
1575.364
21
425.958
31
0.0
0
LINE
5
271dc
8
0-0
6
CONTINUOUS
62
  7
10
1575.364
20
425.958
30
0.0
11
1574.763
21
430.136
31
0.0
0
LINE
5
271dd
8
0-0
6
CONTINUOUS
62
  7
10
1574.763
20
430.136
30
0.0
11
1574.224
21
434.386
31
0.0
0
LINE
5
271de
8
0-0
6
CONTINUOUS
62
  7
10
1574.224
20
434.386
30
0.0
11
1573.745
21
438.697
31
0.0
0
LINE
5
271df
8
0-0
6
CONTINUOUS
62
  7
10
1573.745
20
438.697
30
0.0
11
1573.326
21
443.055
31
0.0
0
LINE
5
271e0
8
0-0
6
CONTINUOUS
62
  7
10
1573.326
20
443.055
30
0.0
11
1572.966
21
447.445
31
0.0
0
LINE
5
271e1
8
0-0
6
CONTINUOUS
62
  7
10
1572.966
20
447.445
30
0.0
11
1572.665
21
451.846
31
0.0
0
LINE
5
271e2
8
0-0
6
CONTINUOUS
62
  7
10
1572.665
20
451.846
30
0.0
11
1572.423
21
456.239
31
0.0
0
LINE
5
271e3
8
0-0
6
CONTINUOUS
62
  7
10
1572.423
20
456.239
30
0.0
11
1572.241
21
460.604
31
0.0
0
LINE
5
271e4
8
0-0
6
CONTINUOUS
62
  7
10
1572.241
20
460.604
30
0.0
11
1572.118
21
464.923
31
0.0
0
LINE
5
271e5
8
0-0
6
CONTINUOUS
62
  7
10
1572.118
20
464.923
30
0.0
11
1572.056
21
469.177
31
0.0
0
LINE
5
271e6
8
0-0
6
CONTINUOUS
62
  7
10
1572.056
20
469.177
30
0.0
11
1572.057
21
473.351
31
0.0
0
LINE
5
271e7
8
0-0
6
CONTINUOUS
62
  7
10
1572.057
20
473.351
30
0.0
11
1572.120
21
477.434
31
0.0
0
LINE
5
271e8
8
0-0
6
CONTINUOUS
62
  7
10
1572.120
20
477.434
30
0.0
11
1572.248
21
481.417
31
0.0
0
LINE
5
271e9
8
0-0
6
CONTINUOUS
62
  7
10
1572.248
20
481.417
30
0.0
11
1572.442
21
485.299
31
0.0
0
LINE
5
271ea
8
0-0
6
CONTINUOUS
62
  7
10
1572.442
20
485.299
30
0.0
11
1572.704
21
489.084
31
0.0
0
LINE
5
271eb
8
0-0
6
CONTINUOUS
62
  7
10
1572.704
20
489.084
30
0.0
11
1573.035
21
492.780
31
0.0
0
LINE
5
271ec
8
0-0
6
CONTINUOUS
62
  7
10
1573.035
20
492.780
30
0.0
11
1573.438
21
496.407
31
0.0
0
LINE
5
271ed
8
0-0
6
CONTINUOUS
62
  7
10
1617.302
20
362.767
30
0.0
11
1599.832
21
362.767
31
0.0
0
LINE
5
271ee
8
0-0
6
CONTINUOUS
62
  7
10
1599.832
20
362.767
30
0.0
11
1598.203
21
363.642
31
0.0
0
LINE
5
271ef
8
0-0
6
CONTINUOUS
62
  7
10
1598.203
20
363.642
30
0.0
11
1596.549
21
364.619
31
0.0
0
LINE
5
271f0
8
0-0
6
CONTINUOUS
62
  7
10
1596.549
20
364.619
30
0.0
11
1594.882
21
365.718
31
0.0
0
LINE
5
271f1
8
0-0
6
CONTINUOUS
62
  7
10
1594.882
20
365.718
30
0.0
11
1593.211
21
366.953
31
0.0
0
LINE
5
271f2
8
0-0
6
CONTINUOUS
62
  7
10
1593.211
20
366.953
30
0.0
11
1591.544
21
368.335
31
0.0
0
LINE
5
271f3
8
0-0
6
CONTINUOUS
62
  7
10
1591.544
20
368.335
30
0.0
11
1589.889
21
369.869
31
0.0
0
LINE
5
271f4
8
0-0
6
CONTINUOUS
62
  7
10
1589.889
20
369.869
30
0.0
11
1588.251
21
371.556
31
0.0
0
LINE
5
271f5
8
0-0
6
CONTINUOUS
62
  7
10
1588.251
20
371.556
30
0.0
11
1586.637
21
373.398
31
0.0
0
LINE
5
271f6
8
0-0
6
CONTINUOUS
62
  7
10
1586.637
20
373.398
30
0.0
11
1585.053
21
375.393
31
0.0
0
LINE
5
271f7
8
0-0
6
CONTINUOUS
62
  7
10
1585.053
20
375.393
30
0.0
11
1583.504
21
377.537
31
0.0
0
LINE
5
271f8
8
0-0
6
CONTINUOUS
62
  7
10
1583.504
20
377.537
30
0.0
11
1581.993
21
379.829
31
0.0
0
LINE
5
271f9
8
0-0
6
CONTINUOUS
62
  7
10
1581.993
20
379.829
30
0.0
11
1580.524
21
382.264
31
0.0
0
LINE
5
271fa
8
0-0
6
CONTINUOUS
62
  7
10
1580.524
20
382.264
30
0.0
11
1579.100
21
384.842
31
0.0
0
LINE
5
271fb
8
0-0
6
CONTINUOUS
62
  7
10
1579.100
20
384.842
30
0.0
11
1577.724
21
387.558
31
0.0
0
LINE
5
271fc
8
0-0
6
CONTINUOUS
62
  7
10
1577.724
20
387.558
30
0.0
11
1576.398
21
390.413
31
0.0
0
LINE
5
271fd
8
0-0
6
CONTINUOUS
62
  7
10
1576.398
20
390.413
30
0.0
11
1575.122
21
393.404
31
0.0
0
LINE
5
271fe
8
0-0
6
CONTINUOUS
62
  7
10
1575.122
20
393.404
30
0.0
11
1573.900
21
396.530
31
0.0
0
LINE
5
271ff
8
0-0
6
CONTINUOUS
62
  7
10
1573.900
20
396.530
30
0.0
11
1572.730
21
399.792
31
0.0
0
LINE
5
27200
8
0-0
6
CONTINUOUS
62
  7
10
1572.730
20
399.792
30
0.0
11
1571.614
21
403.188
31
0.0
0
LINE
5
27201
8
0-0
6
CONTINUOUS
62
  7
10
1571.614
20
403.188
30
0.0
11
1570.552
21
406.716
31
0.0
0
LINE
5
27202
8
0-0
6
CONTINUOUS
62
  7
10
1570.552
20
406.716
30
0.0
11
1569.543
21
410.375
31
0.0
0
LINE
5
27203
8
0-0
6
CONTINUOUS
62
  7
10
1569.543
20
410.375
30
0.0
11
1568.588
21
414.160
31
0.0
0
LINE
5
27204
8
0-0
6
CONTINUOUS
62
  7
10
1568.588
20
414.160
30
0.0
11
1567.687
21
418.066
31
0.0
0
LINE
5
27205
8
0-0
6
CONTINUOUS
62
  7
10
1567.687
20
418.066
30
0.0
11
1566.839
21
422.086
31
0.0
0
LINE
5
27206
8
0-0
6
CONTINUOUS
62
  7
10
1566.839
20
422.086
30
0.0
11
1566.044
21
426.209
31
0.0
0
LINE
5
27207
8
0-0
6
CONTINUOUS
62
  7
10
1566.044
20
426.209
30
0.0
11
1565.302
21
430.423
31
0.0
0
LINE
5
27208
8
0-0
6
CONTINUOUS
62
  7
10
1565.302
20
430.423
30
0.0
11
1564.615
21
434.711
31
0.0
0
LINE
5
27209
8
0-0
6
CONTINUOUS
62
  7
10
1564.615
20
434.711
30
0.0
11
1563.981
21
439.054
31
0.0
0
LINE
5
2720a
8
0-0
6
CONTINUOUS
62
  7
10
1563.981
20
439.054
30
0.0
11
1563.402
21
443.431
31
0.0
0
LINE
5
2720b
8
0-0
6
CONTINUOUS
62
  7
10
1563.402
20
443.431
30
0.0
11
1562.879
21
447.815
31
0.0
0
LINE
5
2720c
8
0-0
6
CONTINUOUS
62
  7
10
1562.879
20
447.815
30
0.0
11
1562.412
21
452.180
31
0.0
0
LINE
5
2720d
8
0-0
6
CONTINUOUS
62
  7
10
1562.412
20
452.180
30
0.0
11
1562.003
21
456.495
31
0.0
0
LINE
5
2720e
8
0-0
6
CONTINUOUS
62
  7
10
1562.003
20
456.495
30
0.0
11
1561.653
21
460.730
31
0.0
0
LINE
5
2720f
8
0-0
6
CONTINUOUS
62
  7
10
1561.653
20
460.730
30
0.0
11
1561.364
21
464.853
31
0.0
0
LINE
5
27210
8
0-0
6
CONTINUOUS
62
  7
10
1561.364
20
464.853
30
0.0
11
1561.135
21
468.833
31
0.0
0
LINE
5
27211
8
0-0
6
CONTINUOUS
62
  7
10
1561.135
20
468.833
30
0.0
11
1560.969
21
472.643
31
0.0
0
LINE
5
27212
8
0-0
6
CONTINUOUS
62
  7
10
1560.969
20
472.643
30
0.0
11
1560.866
21
476.259
31
0.0
0
LINE
5
27213
8
0-0
6
CONTINUOUS
62
  7
10
1560.866
20
476.259
30
0.0
11
1560.825
21
479.663
31
0.0
0
LINE
5
27214
8
0-0
6
CONTINUOUS
62
  7
10
1560.825
20
479.663
30
0.0
11
1560.845
21
482.846
31
0.0
0
LINE
5
27215
8
0-0
6
CONTINUOUS
62
  7
10
1560.845
20
482.846
30
0.0
11
1560.926
21
485.811
31
0.0
0
LINE
5
27216
8
0-0
6
CONTINUOUS
62
  7
10
1560.926
20
485.811
30
0.0
11
1561.064
21
488.576
31
0.0
0
LINE
5
27217
8
0-0
6
CONTINUOUS
62
  7
10
1561.064
20
488.576
30
0.0
11
1561.256
21
491.174
31
0.0
0
LINE
5
27218
8
0-0
6
CONTINUOUS
62
  7
10
1561.256
20
491.174
30
0.0
11
1561.497
21
493.663
31
0.0
0
LINE
5
27219
8
0-0
6
CONTINUOUS
62
  7
10
1561.497
20
493.663
30
0.0
11
1561.779
21
496.125
31
0.0
0
LINE
5
2721a
8
0-0
6
CONTINUOUS
62
  7
10
1561.779
20
496.125
30
0.0
11
1563.120
21
499.697
31
0.0
0
LINE
5
2721b
8
0-0
6
CONTINUOUS
62
  7
10
1563.120
20
499.697
30
0.0
11
1564.656
21
503.420
31
0.0
0
LINE
5
2721c
8
0-0
6
CONTINUOUS
62
  7
10
1564.656
20
503.420
30
0.0
11
1566.372
21
507.255
31
0.0
0
LINE
5
2721d
8
0-0
6
CONTINUOUS
62
  7
10
1566.372
20
507.255
30
0.0
11
1568.252
21
511.165
31
0.0
0
LINE
5
2721e
8
0-0
6
CONTINUOUS
62
  7
10
1568.252
20
511.165
30
0.0
11
1570.281
21
515.116
31
0.0
0
LINE
5
2721f
8
0-0
6
CONTINUOUS
62
  7
10
1570.281
20
515.116
30
0.0
11
1572.441
21
519.073
31
0.0
0
LINE
5
27220
8
0-0
6
CONTINUOUS
62
  7
10
1572.441
20
519.073
30
0.0
11
1574.715
21
523.004
31
0.0
0
LINE
5
27221
8
0-0
6
CONTINUOUS
62
  7
10
1574.715
20
523.004
30
0.0
11
1577.085
21
526.876
31
0.0
0
LINE
5
27222
8
0-0
6
CONTINUOUS
62
  7
10
1577.085
20
526.876
30
0.0
11
1579.532
21
530.658
31
0.0
0
LINE
5
27223
8
0-0
6
CONTINUOUS
62
  7
10
1579.532
20
530.658
30
0.0
11
1582.035
21
534.323
31
0.0
0
LINE
5
27224
8
0-0
6
CONTINUOUS
62
  7
10
1582.035
20
534.323
30
0.0
11
1584.575
21
537.841
31
0.0
0
LINE
5
27225
8
0-0
6
CONTINUOUS
62
  7
10
1584.575
20
537.841
30
0.0
11
1587.131
21
541.185
31
0.0
0
LINE
5
27226
8
0-0
6
CONTINUOUS
62
  7
10
1587.131
20
541.185
30
0.0
11
1589.681
21
544.331
31
0.0
0
LINE
5
27227
8
0-0
6
CONTINUOUS
62
  7
10
1589.681
20
544.331
30
0.0
11
1592.203
21
547.253
31
0.0
0
LINE
5
27228
8
0-0
6
CONTINUOUS
62
  7
10
1592.203
20
547.253
30
0.0
11
1594.672
21
549.928
31
0.0
0
LINE
5
27229
8
0-0
6
CONTINUOUS
62
  7
10
1594.672
20
549.928
30
0.0
11
1597.067
21
552.335
31
0.0
0
LINE
5
2722a
8
0-0
6
CONTINUOUS
62
  7
10
1597.067
20
552.335
30
0.0
11
1599.362
21
554.452
31
0.0
0
LINE
5
2722b
8
0-0
6
CONTINUOUS
62
  7
10
1599.362
20
554.452
30
0.0
11
1601.531
21
556.260
31
0.0
0
LINE
5
2722c
8
0-0
6
CONTINUOUS
62
  7
10
1601.531
20
556.260
30
0.0
11
1603.550
21
557.740
31
0.0
0
LINE
5
2722d
8
0-0
6
CONTINUOUS
62
  7
10
1556.682
20
493.784
30
0.0
11
1561.497
21
493.784
31
0.0
0
ARC
5
2722e
8
0-0
6
CONTINUOUS
62
  7
10
1273.978
20
1247.486
30
0.0
40
476.526
50
306.974792
51
340.292053
0
ARC
5
2722f
8
0-0
6
CONTINUOUS
62
  7
10
926.427
20
988.649
30
0.0
40
112.222
50
281.421143
51
78.578857
0
ARC
5
27230
8
0-0
6
CONTINUOUS
62
  7
10
926.427
20
988.649
30
0.0
40
94.222
50
286.792969
51
73.207016
0
ARC
5
27231
8
0-0
6
CONTINUOUS
62
  7
10
696.292
20
1247.486
30
0.0
40
476.526
50
199.707932
51
233.025223
0
ARC
5
27232
8
0-0
6
CONTINUOUS
62
  7
10
570.284
20
506.284
30
0.0
40
2.500
50
539.999268
51
360.000702
0
ARC
5
27233
8
0-0
6
CONTINUOUS
62
  7
10
570.284
20
581.284
30
0.0
40
2.500
50
540.000000
51
360.000000
0
CIRCLE
5
27234
8
0-0
6
CONTINUOUS
62
  7
10
1516.486
20
1001.149
30
0.0
40
3.000
0
CIRCLE
5
27235
8
0-0
6
CONTINUOUS
62
  7
10
1516.486
20
976.149
30
0.0
40
3.000
0
CIRCLE
5
27236
8
0-0
6
CONTINUOUS
62
  7
10
453.784
20
1001.149
30
0.0
40
3.000
0
CIRCLE
5
27237
8
0-0
6
CONTINUOUS
62
  7
10
453.784
20
976.149
30
0.0
40
3.000
0
CIRCLE
5
27238
8
ADD_LINE
6
HIDDEN
62
  3
10
583.784
20
988.649
30
0.0
40
3.000
0
CIRCLE
5
27239
8
ADD_LINE
6
HIDDEN
62
  3
10
1386.487
20
988.649
30
0.0
40
3.000
0
CIRCLE
5
2723a
8
ADD_LINE
6
HIDDEN
62
  3
10
583.784
20
493.784
30
0.0
40
3.000
0
ARC
5
2723b
8
0-0
6
CONTINUOUS
62
  7
10
1416.203
20
506.284
30
0.0
40
2.500
50
179.999298
51
0.000702
0
ARC
5
2723c
8
0-0
6
CONTINUOUS
62
  7
10
1416.203
20
581.284
30
0.0
40
2.500
50
180.000000
51
0.000000
0
CIRCLE
5
2723d
8
ADD_LINE
6
HIDDEN
62
  3
10
1402.703
20
493.784
30
0.0
40
3.000
0
TEXT
5
2723e
100
AcDbEntity
8
0-2
62
7
100
AcDbText
10
414.409
20
1316.014
30
0.0
40
9.750
41
0.800
50
0.000
1
320
100
AcDbText
0
TEXT
5
2723f
100
AcDbEntity
8
0-2
62
7
100
AcDbText
10
987.399
20
1316.014
30
0.0
40
9.750
41
0.800
50
0.000
1
90
100
AcDbText
0
TEXT
5
27240
100
AcDbEntity
8
0-2
62
7
100
AcDbText
10
1537.112
20
1316.014
30
0.0
40
9.750
41
0.800
50
0.000
1
320
100
AcDbText
0
TEXT
5
27241
100
AcDbEntity
8
0-2
62
7
100
AcDbText
10
495.409
20
724.122
30
0.0
40
9.750
41
0.800
50
0.000
1
158
100
AcDbText
0
TEXT
5
27242
100
AcDbEntity
8
0-2
62
7
100
AcDbText
10
1456.112
20
724.122
30
0.0
40
9.750
41
0.800
50
0.000
1
158
100
AcDbText
0
TEXT
5
27243
100
AcDbEntity
8
0-2
62
7
100
AcDbText
10
751.554
20
979.274
30
0.0
40
9.750
41
0.800
50
90.000
1
220
100
AcDbText
0
TEXT
5
27244
100
AcDbEntity
8
0-2
62
7
100
AcDbText
10
751.554
20
532.534
30
0.0
40
9.750
41
0.800
50
90.000
1
90
100
AcDbText
0
TEXT
5
27245
100
AcDbEntity
8
0-2
62
7
100
AcDbText
10
1229.932
20
979.274
30
0.0
40
9.750
41
0.800
50
90.000
1
220
100
AcDbText
0
TEXT
5
27246
100
AcDbEntity
8
0-2
62
7
100
AcDbText
10
1229.932
20
532.534
30
0.0
40
9.750
41
0.800
50
90.000
1
90
100
AcDbText
0
TEXT
5
27247
100
AcDbEntity
8
0-2
62
7
100
AcDbText
10
873.019
20
979.274
30
0.0
40
9.750
41
0.800
50
90.000
1
220
100
AcDbText
0
TEXT
5
27248
100
AcDbEntity
8
0-2
62
7
100
AcDbText
10
1805.608
20
464.557
30
0.0
40
9.750
41
0.800
50
90.000
1
220
100
AcDbText
0
TEXT
5
27249
100
AcDbEntity
8
0-2
62
7
100
AcDbText
10
405.405
20
1386.487
30
0.0
40
11.700
41
1.000
50
0.000
1
左
100
AcDbText
0
TEXT
5
2724a
100
AcDbEntity
8
0-2
62
7
100
AcDbText
10
1520.270
20
1386.487
30
0.0
40
11.700
41
1.000
50
0.000
1
右
100
AcDbText
0
POINT
5
2724b
8
0-2
62
  7
10
263.784
20
1313.514
30
0.0
0
POINT
5
2724c
8
0-2
62
  7
10
583.784
20
1313.514
30
0.0
0
POINT
5
2724d
8
0-2
62
  7
10
948.649
20
1313.514
30
0.0
0
POINT
5
2724e
8
0-2
62
  7
10
1038.649
20
1313.514
30
0.0
0
POINT
5
2724f
8
0-2
62
  7
10
1386.487
20
1313.514
30
0.0
0
POINT
5
27250
8
0-2
62
  7
10
1706.487
20
1313.514
30
0.0
0
POINT
5
27251
8
0-2
62
  7
10
425.784
20
721.622
30
0.0
0
POINT
5
27252
8
0-2
62
  7
10
583.784
20
721.622
30
0.0
0
POINT
5
27253
8
0-2
62
  7
10
1386.487
20
721.622
30
0.0
0
POINT
5
27254
8
0-2
62
  7
10
1544.487
20
721.622
30
0.0
0
POINT
5
27255
8
0-2
62
  7
10
754.054
20
1098.649
30
0.0
0
POINT
5
27256
8
0-2
62
  7
10
754.054
20
878.649
30
0.0
0
POINT
5
27257
8
0-2
62
  7
10
754.054
20
583.784
30
0.0
0
POINT
5
27258
8
0-2
62
  7
10
754.054
20
493.784
30
0.0
0
POINT
5
27259
8
0-2
62
  7
10
1232.432
20
1098.649
30
0.0
0
POINT
5
2725a
8
0-2
62
  7
10
1232.432
20
878.649
30
0.0
0
POINT
5
2725b
8
0-2
62
  7
10
1232.432
20
583.784
30
0.0
0
POINT
5
2725c
8
0-2
62
  7
10
1232.432
20
493.784
30
0.0
0
POINT
5
2725d
8
0-2
62
  7
10
875.519
20
1098.649
30
0.0
0
POINT
5
2725e
8
0-2
62
  7
10
875.519
20
878.649
30
0.0
0
POINT
5
2725f
8
0-2
62
  7
10
1808.108
20
583.784
30
0.0
0
POINT
5
27260
8
0-2
62
  7
10
1808.108
20
364.080
30
0.0
0
ENDSEC
0
EOF
