0
SECTION
2
HEADER
  9
$EXTMIN
10
0
20
0
30
0
  9
$EXTMAX
10
2440.148
20
1987.505
30
0
  9
$LTSCALE
40
5.000
  9
$DIMSCALE
40
5.000
  9
$PDMODE
70
0
  9
$PDSIZE
40
40
0
ENDSEC
0
SECTION
2
TABLES
0
TABLE
2
LTYPE
70
9
0
LTYPE
5
1f4
2
CONTINUOUS
70
0
3
実線
72
65
73
0
40
0.0
0
LTYPE
5
1f5
2
DOT
70
0
3
--  --  --  --  --  --  --  --     
72
65
73
2
40
5.000
49
1.000
49
-4.000
0
LTYPE
5
1f6
2
DASHED
70
0
3
----    ----    ----    ----    
72
65
73
2
40
5.000
49
2.000
49
-3.000
0
LTYPE
5
1f7
2
DASHED2
70
0
3
------  ------  ------  ------ 
72
65
73
2
40
10.000
49
4.000
49
-6.000
0
LTYPE
5
1f8
2
CENTER
70
0
3
----- - ----- - ----- - ----- - 
72
65
73
4
40
9.000
49
6.000
49
-1.000
49
1.000
49
-1.000
0
LTYPE
5
1f9
2
CENTER2
70
0
3
----------  --  ----------  -- 
72
65
73
4
40
18.000
49
12.000
49
-2.000
49
2.000
49
-2.000
0
LTYPE
5
1fa
2
PHANTOM
70
0
3
--- - - --- - - --- - - --- - -
72
65
73
6
40
10.000
49
5.000
49
-1.000
49
1.000
49
-1.000
49
1.000
49
-1.000
0
LTYPE
5
1fb
2
PHANTOM2
70
0
3
--------  -  -  --------  -  -
72
65
73
6
40
16.000
49
6.000
49
-2.000
49
2.000
49
-2.000
49
2.000
49
-2.000
0
LTYPE
5
1fc
2
HIDDEN
70
0
3
-   -   -   -   -   -   -   -   
72
65
73
2
40
2.500
49
0.500
49
-2.000
0
ENDTAB
0
TABLE
2
STYLE
70
1
0
STYLE
5
1fd
100
AcDbSymbolTableRecord
100
AcDbTextStyleTableRecord
2
STANDARD
70
0
40
0.0
41
1.0
50
0.0
71
0
42
0.0
3
txt.shx
4
extfont.shx
0
STYLE
5
1fe
100
AcDbSymbolTableRecord
100
AcDbTextStyleTableRecord
2
TATEGAKI
70
4
40
0.0
41
1.0
50
0.0
71
0
42
0.0
3
txt.shx
4
extfont.shx
0
STYLE
5
1ff
100
AcDbSymbolTableRecord
100
AcDbTextStyleTableRecord
2
MT
70
0
40
0.0
41
1.0
50
0.0
71
0
42
0.0
3
MS Mincho
4

0
STYLE
5
200
100
AcDbSymbolTableRecord
100
AcDbTextStyleTableRecord
2
TMT
70
4
40
0.0
41
1.0
50
0.0
71
0
42
0.0
3
@MS Mincho
4

0
ENDTAB
0
TABLE
2
LAYER
5
d57
100
AcDbSymbolTable
70
10
0
LAYER
5
d58
100
AcDbSymbolTableRecord
100
AcDbLayerTableRecord
2
0
70
64
62
  7
  6
CONTINUOUS
0
LAYER
5
d59
100
AcDbSymbolTableRecord
100
AcDbLayerTableRecord
2
0-0
70
64
62
  7
  6
CONTINUOUS
0
LAYER
5
d5a
100
AcDbSymbolTableRecord
100
AcDbLayerTableRecord
2
0-1
70
64
62
  7
  6
CONTINUOUS
0
LAYER
5
d5b
100
AcDbSymbolTableRecord
100
AcDbLayerTableRecord
2
0-2
70
64
62
  7
  6
CONTINUOUS
0
LAYER
5
d5c
100
AcDbSymbolTableRecord
100
AcDbLayerTableRecord
2
0-3
70
64
62
  7
  6
CONTINUOUS
0
LAYER
5
d5d
100
AcDbSymbolTableRecord
100
AcDbLayerTableRecord
2
ADD_LINE
70
64
62
  -7
  6
CONTINUOUS
0
ENDTAB
0
ENDSEC
0
SECTION
2
ENTITIES
0
LINE
5
d5e
8
0-0
6
CONTINUOUS
62
  7
10
502.703
20
1090.541
30
0.0
11
777.703
21
1090.541
31
0.0
0
LINE
5
d5f
8
0-0
6
CONTINUOUS
62
  7
10
502.703
20
810.541
30
0.0
11
777.703
21
810.541
31
0.0
0
LINE
5
d60
8
ADD_LINE
6
HIDDEN
62
  3
10
308.108
20
950.541
30
0.0
11
1581.081
21
950.541
31
0.0
0
LINE
5
d61
8
0-0
6
CONTINUOUS
62
  7
10
502.703
20
1040.541
30
0.0
11
777.703
21
1040.541
31
0.0
0
LINE
5
d62
8
0-0
6
CONTINUOUS
62
  7
10
502.703
20
860.541
30
0.0
11
777.703
21
860.541
31
0.0
0
LINE
5
d63
8
0-0
6
CONTINUOUS
62
  7
10
502.703
20
868.541
30
0.0
11
777.703
21
868.541
31
0.0
0
LINE
5
d64
8
0-0
6
CONTINUOUS
62
  7
10
502.703
20
1032.541
30
0.0
11
777.703
21
1032.541
31
0.0
0
LINE
5
d65
8
0-0
6
CONTINUOUS
62
  7
10
502.703
20
974.541
30
0.0
11
527.703
21
958.041
31
0.0
0
LINE
5
d66
8
0-0
6
CONTINUOUS
62
  7
10
527.703
20
943.041
30
0.0
11
502.703
21
926.541
31
0.0
0
LINE
5
d67
8
0-0
6
CONTINUOUS
62
  7
10
527.703
20
958.041
30
0.0
11
527.703
21
943.041
31
0.0
0
LINE
5
d68
8
0-0
6
CONTINUOUS
62
  7
10
502.703
20
1090.541
30
0.0
11
502.703
21
974.541
31
0.0
0
LINE
5
d69
8
0-0
6
CONTINUOUS
62
  7
10
502.703
20
926.541
30
0.0
11
502.703
21
810.541
31
0.0
0
LINE
5
d6a
8
0-0
6
CONTINUOUS
62
  7
10
777.703
20
1073.541
30
0.0
11
785.703
21
1073.541
31
0.0
0
LINE
5
d6b
8
0-0
6
CONTINUOUS
62
  7
10
777.703
20
827.541
30
0.0
11
785.703
21
827.541
31
0.0
0
LINE
5
d6c
8
0-0
6
CONTINUOUS
62
  7
10
752.703
20
958.041
30
0.0
11
752.703
21
943.041
31
0.0
0
LINE
5
d6d
8
0-0
6
CONTINUOUS
62
  7
10
777.703
20
1033.541
30
0.0
11
785.703
21
1033.541
31
0.0
0
LINE
5
d6e
8
0-0
6
CONTINUOUS
62
  7
10
777.703
20
867.541
30
0.0
11
785.703
21
867.541
31
0.0
0
LINE
5
d6f
8
0-0
6
CONTINUOUS
62
  7
10
777.703
20
875.541
30
0.0
11
785.703
21
875.541
31
0.0
0
LINE
5
d70
8
0-0
6
CONTINUOUS
62
  7
10
777.703
20
1025.541
30
0.0
11
785.703
21
1025.541
31
0.0
0
LINE
5
d71
8
0-0
6
CONTINUOUS
62
  7
10
752.703
20
943.041
30
0.0
11
785.703
21
921.260
31
0.0
0
LINE
5
d72
8
0-0
6
CONTINUOUS
62
  7
10
785.703
20
979.821
30
0.0
11
752.703
21
958.041
31
0.0
0
LINE
5
d73
8
0-0
6
CONTINUOUS
62
  7
10
777.703
20
926.541
30
0.0
11
785.703
21
921.261
31
0.0
0
LINE
5
d74
8
0-0
6
CONTINUOUS
62
  7
10
777.703
20
974.541
30
0.0
11
785.703
21
979.820
31
0.0
0
LINE
5
d75
8
0-0
6
CONTINUOUS
62
  7
10
785.703
20
1073.541
30
0.0
11
785.703
21
979.821
31
0.0
0
LINE
5
d76
8
0-0
6
CONTINUOUS
62
  7
10
785.703
20
921.261
30
0.0
11
785.703
21
827.541
31
0.0
0
LINE
5
d77
8
0-0
6
CONTINUOUS
62
  7
10
777.703
20
1090.541
30
0.0
11
777.703
21
974.541
31
0.0
0
LINE
5
d78
8
0-0
6
CONTINUOUS
62
  7
10
777.703
20
926.541
30
0.0
11
777.703
21
810.541
31
0.0
0
LINE
5
d79
8
0-0
6
CONTINUOUS
62
  7
10
502.703
20
531.081
30
0.0
11
777.703
21
531.081
31
0.0
0
LINE
5
d7a
8
0-0
6
CONTINUOUS
62
  7
10
502.703
20
494.081
30
0.0
11
777.703
21
494.081
31
0.0
0
LINE
5
d7b
8
0-0
6
CONTINUOUS
62
  7
10
502.703
20
507.081
30
0.0
11
777.703
21
507.081
31
0.0
0
LINE
5
d7c
8
0-0
6
CONTINUOUS
62
  7
10
502.703
20
522.081
30
0.0
11
777.703
21
522.081
31
0.0
0
LINE
5
d7d
8
0-0
6
CONTINUOUS
62
  7
10
777.703
20
523.081
30
0.0
11
785.703
21
523.081
31
0.0
0
LINE
5
d7e
8
0-0
6
CONTINUOUS
62
  7
10
777.703
20
514.081
30
0.0
11
785.703
21
514.081
31
0.0
0
LINE
5
d7f
8
0-0
6
CONTINUOUS
62
  7
10
780.052
20
499.081
30
0.0
11
785.703
21
499.081
31
0.0
0
LINE
5
d80
8
0-0
6
CONTINUOUS
62
  7
10
777.703
20
499.081
30
0.0
11
780.052
21
499.081
31
0.0
0
LINE
5
d81
8
0-0
6
CONTINUOUS
62
  7
10
777.703
20
486.081
30
0.0
11
782.274
21
486.081
31
0.0
0
LINE
5
d82
8
0-0
6
CONTINUOUS
62
  7
10
782.274
20
486.081
30
0.0
11
785.703
21
487.027
31
0.0
0
LINE
5
d83
8
0-0
6
CONTINUOUS
62
  7
10
785.703
20
523.081
30
0.0
11
785.703
21
487.027
31
0.0
0
LINE
5
d84
8
0-0
6
CONTINUOUS
62
  7
10
552.703
20
438.081
30
0.0
11
592.703
21
438.081
31
0.0
0
LINE
5
d85
8
0-0
6
CONTINUOUS
62
  7
10
502.703
20
531.081
30
0.0
11
502.703
21
466.081
31
0.0
0
LINE
5
d86
8
0-0
6
CONTINUOUS
62
  7
10
687.703
20
438.081
30
0.0
11
722.703
21
438.081
31
0.0
0
LINE
5
d87
8
0-0
6
CONTINUOUS
62
  7
10
777.703
20
531.081
30
0.0
11
777.703
21
466.081
31
0.0
0
LINE
5
d88
8
0-3
6
CONTINUOUS
62
  7
10
687.703
20
446.158
30
0.0
11
687.703
21
438.081
31
0.0
0
LINE
5
d89
8
0-3
6
CONTINUOUS
62
  7
10
1132.216
20
868.541
30
0.0
11
1147.216
21
860.541
31
0.0
0
LINE
5
d8a
8
0-3
6
CONTINUOUS
62
  7
10
1123.216
20
950.541
30
0.0
11
1132.216
21
868.541
31
0.0
0
LINE
5
d8b
8
0-3
6
CONTINUOUS
62
  7
10
1207.216
20
825.541
30
0.0
11
1216.216
21
810.541
31
0.0
0
LINE
5
d8c
8
0-3
6
CONTINUOUS
62
  7
10
1147.216
20
860.541
30
0.0
11
1160.216
21
810.541
31
0.0
0
LINE
5
d8d
8
0-3
6
CONTINUOUS
62
  7
10
1188.216
20
810.541
30
0.0
11
1179.216
21
825.541
31
0.0
0
LINE
5
d8e
8
0-3
6
CONTINUOUS
62
  7
10
1139.121
20
952.286
30
0.0
11
1146.070
21
888.970
31
0.0
0
LINE
5
d8f
8
0-3
6
CONTINUOUS
62
  7
10
1146.070
20
888.970
30
0.0
11
1147.463
21
876.276
31
0.0
0
LINE
5
d90
8
0-3
6
CONTINUOUS
62
  7
10
1147.463
20
876.276
30
0.0
11
1159.221
21
870.005
31
0.0
0
LINE
5
d91
8
0-3
6
CONTINUOUS
62
  7
10
1159.221
20
870.005
30
0.0
11
1170.782
21
825.541
31
0.0
0
LINE
5
d92
8
0-3
6
CONTINUOUS
62
  7
10
1170.782
20
825.541
30
0.0
11
1207.216
21
825.541
31
0.0
0
LINE
5
d93
8
0-3
6
CONTINUOUS
62
  7
10
1160.216
20
810.541
30
0.0
11
1216.216
21
810.541
31
0.0
0
LINE
5
d94
8
0-3
6
CONTINUOUS
62
  7
10
1132.216
20
1032.541
30
0.0
11
1147.216
21
1040.541
31
0.0
0
LINE
5
d95
8
0-3
6
CONTINUOUS
62
  7
10
1123.216
20
950.541
30
0.0
11
1132.216
21
1032.541
31
0.0
0
LINE
5
d96
8
0-3
6
CONTINUOUS
62
  7
10
1207.216
20
1075.541
30
0.0
11
1216.216
21
1090.541
31
0.0
0
LINE
5
d97
8
0-3
6
CONTINUOUS
62
  7
10
1147.216
20
1040.541
30
0.0
11
1160.216
21
1090.541
31
0.0
0
LINE
5
d98
8
0-3
6
CONTINUOUS
62
  7
10
1188.216
20
1090.541
30
0.0
11
1179.216
21
1075.541
31
0.0
0
LINE
5
d99
8
0-3
6
CONTINUOUS
62
  7
10
1139.121
20
948.795
30
0.0
11
1146.070
21
1012.111
31
0.0
0
LINE
5
d9a
8
0-3
6
CONTINUOUS
62
  7
10
1146.070
20
1012.111
30
0.0
11
1147.463
21
1024.806
31
0.0
0
LINE
5
d9b
8
0-3
6
CONTINUOUS
62
  7
10
1147.463
20
1024.806
30
0.0
11
1159.221
21
1031.077
31
0.0
0
LINE
5
d9c
8
0-3
6
CONTINUOUS
62
  7
10
1159.221
20
1031.077
30
0.0
11
1170.782
21
1075.541
31
0.0
0
LINE
5
d9d
8
0-3
6
CONTINUOUS
62
  7
10
1170.782
20
1075.541
30
0.0
11
1207.216
21
1075.541
31
0.0
0
LINE
5
d9e
8
0-3
6
CONTINUOUS
62
  7
10
1160.216
20
1090.541
30
0.0
11
1216.216
21
1090.541
31
0.0
0
LINE
5
d9f
8
0-2
6
CONTINUOUS
62
  7
10
502.703
20
1317.568
30
0.0
11
777.703
21
1317.568
31
0.0
0
LINE
5
da0
8
0-2
6
CONTINUOUS
62
  7
10
502.703
20
1143.243
30
0.0
11
502.703
21
1317.568
31
0.0
0
LINE
5
da1
8
0-2
6
CONTINUOUS
62
  7
10
777.703
20
1143.243
30
0.0
11
777.703
21
1317.568
31
0.0
0
LINE
5
da2
8
0-2
6
CONTINUOUS
62
  7
10
777.703
20
1317.568
30
0.0
11
785.703
21
1317.568
31
0.0
0
LINE
5
da3
8
0-2
6
CONTINUOUS
62
  7
10
785.703
20
1143.243
30
0.0
11
785.703
21
1317.568
31
0.0
0
LINE
5
da4
8
0-2
6
CONTINUOUS
62
  7
10
1123.216
20
1317.568
30
0.0
11
1216.216
21
1317.568
31
0.0
0
LINE
5
da5
8
0-2
6
CONTINUOUS
62
  7
10
1123.216
20
1143.243
30
0.0
11
1123.216
21
1317.568
31
0.0
0
LINE
5
da6
8
0-2
6
CONTINUOUS
62
  7
10
1216.216
20
1143.243
30
0.0
11
1216.216
21
1317.568
31
0.0
0
LINE
5
da7
8
0-2
6
CONTINUOUS
62
  7
10
968.919
20
1090.541
30
0.0
11
968.919
21
810.541
31
0.0
0
LINE
5
da8
8
0-2
6
CONTINUOUS
62
  7
10
827.027
20
1090.541
30
0.0
11
968.919
21
1090.541
31
0.0
0
LINE
5
da9
8
0-2
6
CONTINUOUS
62
  7
10
827.027
20
810.541
30
0.0
11
968.919
21
810.541
31
0.0
0
LINE
5
daa
8
0-2
6
CONTINUOUS
62
  7
10
968.919
20
531.081
30
0.0
11
968.919
21
438.081
31
0.0
0
LINE
5
dab
8
0-2
6
CONTINUOUS
62
  7
10
827.027
20
531.081
30
0.0
11
968.919
21
531.081
31
0.0
0
LINE
5
dac
8
0-2
6
CONTINUOUS
62
  7
10
827.027
20
438.081
30
0.0
11
968.919
21
438.081
31
0.0
0
LINE
5
dad
8
0-2
6
CONTINUOUS
62
  7
10
916.216
20
1090.541
30
0.0
11
916.216
21
1040.541
31
0.0
0
LINE
5
dae
8
0-2
6
CONTINUOUS
62
  7
10
827.027
20
1090.541
30
0.0
11
916.216
21
1090.541
31
0.0
0
LINE
5
daf
8
0-2
6
CONTINUOUS
62
  7
10
827.027
20
1040.541
30
0.0
11
916.216
21
1040.541
31
0.0
0
LINE
5
db0
8
0-2
6
CONTINUOUS
62
  7
10
916.216
20
1040.541
30
0.0
11
916.216
21
860.541
31
0.0
0
LINE
5
db1
8
0-2
6
CONTINUOUS
62
  7
10
827.027
20
860.541
30
0.0
11
916.216
21
860.541
31
0.0
0
LINE
5
db2
8
0-2
6
CONTINUOUS
62
  7
10
916.216
20
860.541
30
0.0
11
916.216
21
810.541
31
0.0
0
LINE
5
db3
8
0-2
6
CONTINUOUS
62
  7
10
827.027
20
810.541
30
0.0
11
916.216
21
810.541
31
0.0
0
LINE
5
db4
8
0-2
6
CONTINUOUS
62
  7
10
1378.378
20
1090.541
30
0.0
11
1378.378
21
1075.541
31
0.0
0
LINE
5
db5
8
0-2
6
CONTINUOUS
62
  7
10
1264.865
20
1090.541
30
0.0
11
1378.378
21
1090.541
31
0.0
0
LINE
5
db6
8
0-2
6
CONTINUOUS
62
  7
10
1264.865
20
1075.541
30
0.0
11
1378.378
21
1075.541
31
0.0
0
LINE
5
db7
8
0-2
6
CONTINUOUS
62
  7
10
1378.378
20
825.541
30
0.0
11
1378.378
21
810.541
31
0.0
0
LINE
5
db8
8
0-2
6
CONTINUOUS
62
  7
10
1264.865
20
825.541
30
0.0
11
1378.378
21
825.541
31
0.0
0
LINE
5
db9
8
0-2
6
CONTINUOUS
62
  7
10
1264.865
20
810.541
30
0.0
11
1378.378
21
810.541
31
0.0
0
LINE
5
dba
8
0-2
6
CONTINUOUS
62
  7
10
502.703
20
295.946
30
0.0
11
777.703
21
295.946
31
0.0
0
LINE
5
dbb
8
0-2
6
CONTINUOUS
62
  7
10
502.703
20
385.135
30
0.0
11
502.703
21
295.946
31
0.0
0
LINE
5
dbc
8
0-2
6
CONTINUOUS
62
  7
10
777.703
20
385.135
30
0.0
11
777.703
21
295.946
31
0.0
0
CIRCLE
5
dbd
8
0-0
6
CONTINUOUS
62
  7
10
622.703
20
970.541
30
0.0
40
3.000
0
CIRCLE
5
dbe
8
0-0
6
CONTINUOUS
62
  7
10
657.703
20
970.541
30
0.0
40
3.000
0
CIRCLE
5
dbf
8
0-0
6
CONTINUOUS
62
  7
10
657.703
20
930.541
30
0.0
40
3.000
0
CIRCLE
5
dc0
8
0-0
6
CONTINUOUS
62
  7
10
622.703
20
930.541
30
0.0
40
3.000
0
ARC
5
dc1
8
0-0
6
CONTINUOUS
62
  7
10
503.574
20
417.825
30
0.0
40
48.264
50
31.553528
51
91.034576
0
ARC
5
dc2
8
0-0
6
CONTINUOUS
62
  7
10
553.883
20
448.870
30
0.0
40
10.853
50
212.233719
51
263.755432
0
ARC
5
dc3
8
0-0
6
CONTINUOUS
62
  7
10
777.165
20
407.658
30
0.0
40
58.426
50
89.472946
51
142.677734
0
ARC
5
dc4
8
0-0
6
CONTINUOUS
62
  7
10
722.143
20
447.876
30
0.0
40
9.811
50
273.268646
51
330.742035
0
ARC
5
dc5
8
0-3
6
CONTINUOUS
62
  7
10
646.040
20
412.112
30
0.0
40
53.804
50
39.254883
51
138.369003
0
ARC
5
dc6
8
0-3
6
CONTINUOUS
62
  7
10
586.384
20
460.259
30
0.0
40
23.060
50
285.905212
51
327.463623
0
CIRCLE
5
dc7
8
ADD_LINE
6
HIDDEN
62
  3
10
527.703
20
950.541
30
0.0
40
3.000
0
TEXT
5
dc8
100
AcDbEntity
8
0-2
62
7
100
AcDbText
10
630.828
20
1320.068
30
0.0
40
9.750
41
0.800
50
0.000
1
275
100
AcDbText
0
TEXT
5
dc9
100
AcDbEntity
8
0-2
62
7
100
AcDbText
10
778.578
20
1320.068
30
0.0
40
9.750
41
0.800
50
0.000
1
8
100
AcDbText
0
TEXT
5
dca
100
AcDbEntity
8
0-2
62
7
100
AcDbText
10
1163.466
20
1320.068
30
0.0
40
9.750
41
0.800
50
0.000
1
93
100
AcDbText
0
TEXT
5
dcb
100
AcDbEntity
8
0-2
62
7
100
AcDbText
10
966.419
20
941.166
30
0.0
40
9.750
41
0.800
50
90.000
1
280
100
AcDbText
0
TEXT
5
dcc
100
AcDbEntity
8
0-2
62
7
100
AcDbText
10
966.419
20
478.331
30
0.0
40
9.750
41
0.800
50
90.000
1
93
100
AcDbText
0
TEXT
5
dcd
100
AcDbEntity
8
0-2
62
7
100
AcDbText
10
913.716
20
1059.291
30
0.0
40
9.750
41
0.800
50
90.000
1
50
100
AcDbText
0
TEXT
5
dce
100
AcDbEntity
8
0-2
62
7
100
AcDbText
10
913.716
20
941.166
30
0.0
40
9.750
41
0.800
50
90.000
1
180
100
AcDbText
0
TEXT
5
dcf
100
AcDbEntity
8
0-2
62
7
100
AcDbText
10
913.716
20
829.291
30
0.0
40
9.750
41
0.800
50
90.000
1
50
100
AcDbText
0
TEXT
5
dd0
100
AcDbEntity
8
0-2
62
7
100
AcDbText
10
1375.878
20
1076.791
30
0.0
40
9.750
41
0.800
50
90.000
1
15
100
AcDbText
0
TEXT
5
dd1
100
AcDbEntity
8
0-2
62
7
100
AcDbText
10
1375.878
20
811.791
30
0.0
40
9.750
41
0.800
50
90.000
1
15
100
AcDbText
0
TEXT
5
dd2
100
AcDbEntity
8
0-2
62
7
100
AcDbText
10
630.828
20
298.446
30
0.0
40
9.750
41
0.800
50
0.000
1
275
100
AcDbText
0
POINT
5
dd3
8
0-2
62
  7
10
502.703
20
1317.568
30
0.0
0
POINT
5
dd4
8
0-2
62
  7
10
777.703
20
1317.568
30
0.0
0
POINT
5
dd5
8
0-2
62
  7
10
785.703
20
1317.568
30
0.0
0
POINT
5
dd6
8
0-2
62
  7
10
1123.216
20
1317.568
30
0.0
0
POINT
5
dd7
8
0-2
62
  7
10
1216.216
20
1317.568
30
0.0
0
POINT
5
dd8
8
0-2
62
  7
10
968.919
20
1090.541
30
0.0
0
POINT
5
dd9
8
0-2
62
  7
10
968.919
20
810.541
30
0.0
0
POINT
5
dda
8
0-2
62
  7
10
968.919
20
531.081
30
0.0
0
POINT
5
ddb
8
0-2
62
  7
10
968.919
20
438.081
30
0.0
0
POINT
5
ddc
8
0-2
62
  7
10
916.216
20
1090.541
30
0.0
0
POINT
5
ddd
8
0-2
62
  7
10
916.216
20
1040.541
30
0.0
0
POINT
5
dde
8
0-2
62
  7
10
916.216
20
860.541
30
0.0
0
POINT
5
ddf
8
0-2
62
  7
10
916.216
20
810.541
30
0.0
0
POINT
5
de0
8
0-2
62
  7
10
1378.378
20
1090.541
30
0.0
0
POINT
5
de1
8
0-2
62
  7
10
1378.378
20
1075.541
30
0.0
0
POINT
5
de2
8
0-2
62
  7
10
1378.378
20
825.541
30
0.0
0
POINT
5
de3
8
0-2
62
  7
10
1378.378
20
810.541
30
0.0
0
POINT
5
de4
8
0-2
62
  7
10
502.703
20
295.946
30
0.0
0
POINT
5
de5
8
0-2
62
  7
10
777.703
20
295.946
30
0.0
0
ENDSEC
0
EOF
