0
SECTION
2
HEADER
  9
$EXTMIN
10
0
20
0
30
0
  9
$EXTMAX
10
1559.679
20
1316.014
30
0
  9
$LTSCALE
40
5.000
  9
$DIMSCALE
40
5.000
  9
$PDMODE
70
0
  9
$PDSIZE
40
40
0
ENDSEC
0
SECTION
2
TABLES
0
TABLE
2
LTYPE
70
9
0
LTYPE
5
1f4
2
CONTINUOUS
70
0
3
実線
72
65
73
0
40
0.0
0
LTYPE
5
1f5
2
DOT
70
0
3
--  --  --  --  --  --  --  --     
72
65
73
2
40
5.000
49
1.000
49
-4.000
0
LTYPE
5
1f6
2
DASHED
70
0
3
----    ----    ----    ----    
72
65
73
2
40
5.000
49
2.000
49
-3.000
0
LTYPE
5
1f7
2
DASHED2
70
0
3
------  ------  ------  ------ 
72
65
73
2
40
10.000
49
4.000
49
-6.000
0
LTYPE
5
1f8
2
CENTER
70
0
3
----- - ----- - ----- - ----- - 
72
65
73
4
40
9.000
49
6.000
49
-1.000
49
1.000
49
-1.000
0
LTYPE
5
1f9
2
CENTER2
70
0
3
----------  --  ----------  -- 
72
65
73
4
40
18.000
49
12.000
49
-2.000
49
2.000
49
-2.000
0
LTYPE
5
1fa
2
PHANTOM
70
0
3
--- - - --- - - --- - - --- - -
72
65
73
6
40
10.000
49
5.000
49
-1.000
49
1.000
49
-1.000
49
1.000
49
-1.000
0
LTYPE
5
1fb
2
PHANTOM2
70
0
3
--------  -  -  --------  -  -
72
65
73
6
40
16.000
49
6.000
49
-2.000
49
2.000
49
-2.000
49
2.000
49
-2.000
0
LTYPE
5
1fc
2
HIDDEN
70
0
3
-   -   -   -   -   -   -   -   
72
65
73
2
40
2.500
49
0.500
49
-2.000
0
ENDTAB
0
TABLE
2
STYLE
70
1
0
STYLE
5
1fd
100
AcDbSymbolTableRecord
100
AcDbTextStyleTableRecord
2
STANDARD
70
0
40
0.0
41
1.0
50
0.0
71
0
42
0.0
3
txt.shx
4
extfont.shx
0
STYLE
5
1fe
100
AcDbSymbolTableRecord
100
AcDbTextStyleTableRecord
2
TATEGAKI
70
4
40
0.0
41
1.0
50
0.0
71
0
42
0.0
3
txt.shx
4
extfont.shx
0
STYLE
5
1ff
100
AcDbSymbolTableRecord
100
AcDbTextStyleTableRecord
2
MT
70
0
40
0.0
41
1.0
50
0.0
71
0
42
0.0
3
MS Mincho
4

0
STYLE
5
200
100
AcDbSymbolTableRecord
100
AcDbTextStyleTableRecord
2
TMT
70
4
40
0.0
41
1.0
50
0.0
71
0
42
0.0
3
@MS Mincho
4

0
ENDTAB
0
TABLE
2
LAYER
5
a21
100
AcDbSymbolTable
70
10
0
LAYER
5
a22
100
AcDbSymbolTableRecord
100
AcDbLayerTableRecord
2
0
70
64
62
  7
  6
CONTINUOUS
0
LAYER
5
a23
100
AcDbSymbolTableRecord
100
AcDbLayerTableRecord
2
0-0
70
64
62
  7
  6
CONTINUOUS
0
LAYER
5
a24
100
AcDbSymbolTableRecord
100
AcDbLayerTableRecord
2
ADD_LINE
70
64
62
  -7
  6
CONTINUOUS
0
ENDTAB
0
ENDSEC
0
SECTION
2
ENTITIES
0
LINE
5
a25
8
0-0
6
CONTINUOUS
62
  7
10
1192.121
20
350.833
30
0.0
11
1192.121
21
334.927
31
0.0
0
LINE
5
a26
8
0-0
6
CONTINUOUS
62
  7
10
887.121
20
475.888
30
0.0
11
1192.121
21
475.888
31
0.0
0
LINE
5
a27
8
0-0
6
CONTINUOUS
62
  7
10
887.121
20
403.885
30
0.0
11
887.121
21
475.888
31
0.0
0
LINE
5
a28
8
0-0
6
CONTINUOUS
62
  7
10
1192.121
20
403.885
30
0.0
11
1192.121
21
475.888
31
0.0
0
LINE
5
a29
8
0-0
6
CONTINUOUS
62
  7
10
887.121
20
403.885
30
0.0
11
887.121
21
439.887
31
0.0
0
LINE
5
a2a
8
0-0
6
CONTINUOUS
62
  7
10
932.121
20
1070.011
30
0.0
11
932.121
21
1110.011
31
0.0
0
LINE
5
a2b
8
0-0
6
CONTINUOUS
62
  7
10
887.121
20
1070.011
30
0.0
11
932.121
21
1070.011
31
0.0
0
LINE
5
a2c
8
0-0
6
CONTINUOUS
62
  7
10
887.121
20
805.011
30
0.0
11
887.121
21
1070.011
31
0.0
0
LINE
5
a2d
8
0-0
6
CONTINUOUS
62
  7
10
751.989
20
805.011
30
0.0
11
751.989
21
1110.011
31
0.0
0
LINE
5
a2e
8
0-0
6
CONTINUOUS
62
  7
10
837.859
20
805.011
30
0.0
11
751.989
21
805.011
31
0.0
0
LINE
5
a2f
8
0-0
6
CONTINUOUS
62
  7
10
837.859
20
1110.011
30
0.0
11
751.989
21
1110.011
31
0.0
0
LINE
5
a30
8
0-0
6
CONTINUOUS
62
  7
10
785.383
20
805.011
30
0.0
11
785.383
21
1070.011
31
0.0
0
LINE
5
a31
8
0-0
6
CONTINUOUS
62
  7
10
837.859
20
805.011
30
0.0
11
785.383
21
805.011
31
0.0
0
LINE
5
a32
8
0-0
6
CONTINUOUS
62
  7
10
837.859
20
1070.011
30
0.0
11
785.383
21
1070.011
31
0.0
0
LINE
5
a33
8
0-0
6
CONTINUOUS
62
  7
10
785.383
20
1070.011
30
0.0
11
785.383
21
1110.011
31
0.0
0
LINE
5
a34
8
0-0
6
CONTINUOUS
62
  7
10
837.859
20
1110.011
30
0.0
11
785.383
21
1110.011
31
0.0
0
LINE
5
a35
8
0-0
6
CONTINUOUS
62
  7
10
1167.121
20
805.011
30
0.0
11
1192.121
21
830.011
31
0.0
0
LINE
5
a36
8
ADD_LINE
6
HIDDEN
62
  7
10
927.121
20
872.977
30
0.0
11
927.121
21
730.756
31
0.0
0
LINE
5
a37
8
0-0
6
CONTINUOUS
62
  7
10
972.121
20
805.011
30
0.0
11
972.121
21
791.011
31
0.0
0
LINE
5
a38
8
0-0
6
CONTINUOUS
62
  7
10
1192.121
20
350.833
30
0.0
11
1192.121
21
314.909
31
0.0
0
LINE
5
a39
8
0-0
6
CONTINUOUS
62
  7
10
785.383
20
378.120
30
0.0
11
785.383
21
288.120
31
0.0
0
LINE
5
a3a
8
0-0
6
CONTINUOUS
62
  7
10
837.859
20
378.120
30
0.0
11
785.383
21
378.120
31
0.0
0
LINE
5
a3b
8
0-0
6
CONTINUOUS
62
  7
10
837.859
20
288.120
30
0.0
11
785.383
21
288.120
31
0.0
0
LINE
5
a3c
8
0-0
6
CONTINUOUS
62
  7
10
1192.121
20
350.833
30
0.0
11
1192.121
21
334.927
31
0.0
0
LINE
5
a3d
8
0-0
6
CONTINUOUS
62
  7
10
1192.121
20
350.833
30
0.0
11
1192.121
21
334.927
31
0.0
0
LINE
5
a3e
8
ADD_LINE
6
HIDDEN
62
  3
10
1074.323
20
311.793
30
0.0
11
1074.323
21
309.769
31
0.0
0
LINE
5
a3f
8
ADD_LINE
6
HIDDEN
62
  3
10
1074.324
20
308.108
30
0.0
11
1053.674
21
308.108
31
0.0
0
LINE
5
a40
8
ADD_LINE
6
HIDDEN
62
  3
10
1074.324
20
308.108
30
0.0
11
1092.685
21
308.108
31
0.0
0
LINE
5
a41
8
ADD_LINE
6
HIDDEN
62
  3
10
1074.324
20
299.045
30
0.0
11
1074.324
21
366.298
31
0.0
0
LINE
5
a42
8
0-0
6
CONTINUOUS
62
  7
10
1175.121
20
1102.011
30
0.0
11
1175.121
21
1110.011
31
0.0
0
LINE
5
a43
8
0-0
6
CONTINUOUS
62
  7
10
932.121
20
1110.011
30
0.0
11
1175.121
21
1110.011
31
0.0
0
LINE
5
a44
8
0-0
6
CONTINUOUS
62
  7
10
1195.042
20
1102.012
30
0.0
11
1192.121
21
805.011
31
0.0
0
LINE
5
a45
8
0-0
6
CONTINUOUS
62
  7
10
1195.042
20
1102.012
30
0.0
11
1195.071
21
1105.011
31
0.0
0
LINE
5
a46
8
0-0
6
CONTINUOUS
62
  7
10
1175.121
20
1105.011
30
0.0
11
1195.071
21
1105.011
31
0.0
0
LINE
5
a47
8
0-0
6
CONTINUOUS
62
  7
10
932.121
20
1102.011
30
0.0
11
1175.121
21
1102.011
31
0.0
0
LINE
5
a48
8
0-0
6
CONTINUOUS
62
  7
10
1176.121
20
265.833
30
0.0
11
1192.121
21
265.833
31
0.0
0
LINE
5
a49
8
0-0
6
CONTINUOUS
62
  7
10
1192.121
20
314.909
30
0.0
11
1192.121
21
265.833
31
0.0
0
LINE
5
a4a
8
0-0
6
CONTINUOUS
62
  7
10
1176.121
20
306.743
30
0.0
11
1176.121
21
265.833
31
0.0
0
LINE
5
a4b
8
0-0
6
CONTINUOUS
62
  7
10
386.867
20
805.011
30
0.0
11
386.867
21
1110.011
31
0.0
0
LINE
5
a4c
8
0-0
6
CONTINUOUS
62
  7
10
451.732
20
805.011
30
0.0
11
386.867
21
805.011
31
0.0
0
LINE
5
a4d
8
0-0
6
CONTINUOUS
62
  7
10
451.732
20
1110.011
30
0.0
11
386.867
21
1110.011
31
0.0
0
LINE
5
a4e
8
0-0
6
CONTINUOUS
62
  7
10
571.407
20
1110.011
30
0.0
11
527.407
21
1110.011
31
0.0
0
LINE
5
a4f
8
0-0
6
CONTINUOUS
62
  7
10
527.407
20
1081.634
30
0.0
11
527.407
21
1085.721
31
0.0
0
LINE
5
a50
8
0-0
6
CONTINUOUS
62
  7
10
527.407
20
1085.721
30
0.0
11
527.407
21
1110.011
31
0.0
0
LINE
5
a51
8
0-0
6
CONTINUOUS
62
  7
10
545.407
20
1110.011
30
0.0
11
545.407
21
1102.011
31
0.0
0
LINE
5
a52
8
0-0
6
CONTINUOUS
62
  7
10
1435.918
20
1110.011
30
0.0
11
1449.918
21
1110.011
31
0.0
0
LINE
5
a53
8
0-0
6
CONTINUOUS
62
  7
10
1449.918
20
1110.011
30
0.0
11
1449.918
21
1105.011
31
0.0
0
LINE
5
a54
8
0-0
6
CONTINUOUS
62
  7
10
1435.918
20
1105.011
30
0.0
11
1500.918
21
1105.011
31
0.0
0
LINE
5
a55
8
0-0
6
CONTINUOUS
62
  7
10
1513.918
20
810.890
30
0.0
11
1513.918
21
796.813
31
0.0
0
LINE
5
a56
8
0-0
6
CONTINUOUS
62
  7
10
1475.154
20
814.964
30
0.0
11
1513.918
21
810.890
31
0.0
0
LINE
5
a57
8
0-0
6
CONTINUOUS
62
  7
10
1434.454
20
791.088
30
0.0
11
1505.918
21
783.576
31
0.0
0
LINE
5
a58
8
0-0
6
CONTINUOUS
62
  7
10
1434.454
20
791.088
30
0.0
11
1425.918
21
791.985
31
0.0
0
LINE
5
a59
8
0-0
6
CONTINUOUS
62
  7
10
1505.918
20
797.654
30
0.0
11
1505.918
21
783.576
31
0.0
0
LINE
5
a5a
8
0-0
6
CONTINUOUS
62
  7
10
1435.918
20
1110.011
30
0.0
11
1435.918
21
820.092
31
0.0
0
LINE
5
a5b
8
0-0
6
CONTINUOUS
62
  7
10
1500.918
20
1105.011
30
0.0
11
1520.918
21
850.077
31
0.0
0
LINE
5
a5c
8
0-0
6
CONTINUOUS
62
  7
10
1435.918
20
820.092
30
0.0
11
1435.918
21
805.011
31
0.0
0
LINE
5
a5d
8
0-0
6
CONTINUOUS
62
  7
10
1435.918
20
805.011
30
0.0
11
1513.918
21
796.813
31
0.0
0
LINE
5
a5e
8
0-0
6
CONTINUOUS
62
  7
10
972.121
20
805.011
30
0.0
11
1192.121
21
805.011
31
0.0
0
LINE
5
a5f
8
0-0
6
CONTINUOUS
62
  7
10
541.407
20
805.011
30
0.0
11
541.407
21
1102.011
31
0.0
0
LINE
5
a60
8
0-0
6
CONTINUOUS
62
  7
10
527.407
20
817.617
30
0.0
11
527.407
21
1081.634
31
0.0
0
LINE
5
a61
8
0-0
6
CONTINUOUS
62
  7
10
499.407
20
814.674
30
0.0
11
499.407
21
800.596
31
0.0
0
LINE
5
a62
8
0-0
6
CONTINUOUS
62
  7
10
527.407
20
817.617
30
0.0
11
499.407
21
814.674
31
0.0
0
LINE
5
a63
8
0-0
6
CONTINUOUS
62
  7
10
577.407
20
808.795
30
0.0
11
499.407
21
800.596
31
0.0
0
LINE
5
a64
8
0-0
6
CONTINUOUS
62
  7
10
577.407
20
1102.011
30
0.0
11
541.407
21
1102.011
31
0.0
0
LINE
5
a65
8
0-0
6
CONTINUOUS
62
  7
10
577.407
20
808.795
30
0.0
11
577.407
21
1102.011
31
0.0
0
LINE
5
a66
8
0-0
6
CONTINUOUS
62
  7
10
571.407
20
1110.011
30
0.0
11
571.407
21
1102.011
31
0.0
0
LINE
5
a67
8
0-0
6
CONTINUOUS
62
  7
10
887.121
20
1313.514
30
0.0
11
1195.071
21
1313.514
31
0.0
0
LINE
5
a68
8
0-0
6
CONTINUOUS
62
  7
10
887.121
20
1179.730
30
0.0
11
887.121
21
1313.514
31
0.0
0
LINE
5
a69
8
0-0
6
CONTINUOUS
62
  7
10
1195.071
20
1179.730
30
0.0
11
1195.071
21
1313.514
31
0.0
0
LINE
5
a6a
8
0-0
6
CONTINUOUS
62
  7
10
1435.918
20
1313.514
30
0.0
11
1500.918
21
1313.514
31
0.0
0
LINE
5
a6b
8
0-0
6
CONTINUOUS
62
  7
10
1435.918
20
1179.730
30
0.0
11
1435.918
21
1313.514
31
0.0
0
LINE
5
a6c
8
0-0
6
CONTINUOUS
62
  7
10
1500.918
20
1179.730
30
0.0
11
1500.918
21
1313.514
31
0.0
0
LINE
5
a6d
8
0-0
6
CONTINUOUS
62
  7
10
887.121
20
1256.757
30
0.0
11
932.121
21
1256.757
31
0.0
0
LINE
5
a6e
8
0-0
6
CONTINUOUS
62
  7
10
887.121
20
1179.730
30
0.0
11
887.121
21
1256.757
31
0.0
0
LINE
5
a6f
8
0-0
6
CONTINUOUS
62
  7
10
932.121
20
1179.730
30
0.0
11
932.121
21
1256.757
31
0.0
0
LINE
5
a70
8
0-0
6
CONTINUOUS
62
  7
10
932.121
20
1256.757
30
0.0
11
1195.072
21
1256.757
31
0.0
0
LINE
5
a71
8
0-0
6
CONTINUOUS
62
  7
10
1195.072
20
1179.730
30
0.0
11
1195.072
21
1256.757
31
0.0
0
LINE
5
a72
8
0-0
6
CONTINUOUS
62
  7
10
887.121
20
604.054
30
0.0
11
1192.121
21
604.054
31
0.0
0
LINE
5
a73
8
0-0
6
CONTINUOUS
62
  7
10
887.121
20
725.676
30
0.0
11
887.121
21
604.054
31
0.0
0
LINE
5
a74
8
0-0
6
CONTINUOUS
62
  7
10
1192.121
20
725.676
30
0.0
11
1192.121
21
604.054
31
0.0
0
LINE
5
a75
8
0-0
6
CONTINUOUS
62
  7
10
1435.918
20
604.054
30
0.0
11
1520.918
21
604.054
31
0.0
0
LINE
5
a76
8
0-0
6
CONTINUOUS
62
  7
10
1435.918
20
725.676
30
0.0
11
1435.918
21
604.054
31
0.0
0
LINE
5
a77
8
0-0
6
CONTINUOUS
62
  7
10
1520.918
20
725.676
30
0.0
11
1520.918
21
604.054
31
0.0
0
LINE
5
a78
8
0-0
6
CONTINUOUS
62
  7
10
499.407
20
604.054
30
0.0
11
541.407
21
604.054
31
0.0
0
LINE
5
a79
8
0-0
6
CONTINUOUS
62
  7
10
499.407
20
725.676
30
0.0
11
499.407
21
604.054
31
0.0
0
LINE
5
a7a
8
0-0
6
CONTINUOUS
62
  7
10
541.407
20
725.676
30
0.0
11
541.407
21
604.054
31
0.0
0
LINE
5
a7b
8
0-0
6
CONTINUOUS
62
  7
10
1326.631
20
350.833
30
0.0
11
1326.631
21
265.833
31
0.0
0
LINE
5
a7c
8
0-0
6
CONTINUOUS
62
  7
10
1265.350
20
350.833
30
0.0
11
1326.631
21
350.833
31
0.0
0
LINE
5
a7d
8
0-0
6
CONTINUOUS
62
  7
10
1265.350
20
265.833
30
0.0
11
1326.631
21
265.833
31
0.0
0
LINE
5
a7e
8
0-0
6
CONTINUOUS
62
  7
10
527.407
20
1042.205
30
0.0
11
541.407
21
1042.205
31
0.0
0
LINE
5
a7f
8
0-0
6
CONTINUOUS
62
  7
10
527.407
20
1010.180
30
0.0
11
527.407
21
1042.205
31
0.0
0
LINE
5
a80
8
0-0
6
CONTINUOUS
62
  7
10
541.407
20
1010.180
30
0.0
11
541.407
21
1042.205
31
0.0
0
CIRCLE
5
a81
8
0-0
6
CONTINUOUS
62
  7
10
992.121
20
1090.011
30
0.0
40
3.000
0
ARC
5
a82
8
0-0
6
CONTINUOUS
62
  7
10
927.121
20
887.261
30
0.0
40
106.250
50
244.942429
51
295.057556
0
ARC
5
a83
8
0-0
6
CONTINUOUS
62
  7
10
849.964
20
810.388
30
0.0
40
37.544
50
328.927185
51
351.765076
0
CIRCLE
5
a84
8
0-0
6
CONTINUOUS
62
  7
10
927.121
20
330.798
30
0.0
40
45.000
0
CIRCLE
5
a85
8
ADD_LINE
6
HIDDEN
62
  3
10
1074.323
20
308.108
30
0.0
40
3.000
0
ARC
5
a86
8
0-0
6
CONTINUOUS
62
  7
10
1054.116
20
565.528
30
0.0
40
286.103
50
250.029709
51
298.839783
0
ARC
5
a87
8
0-0
6
CONTINUOUS
62
  7
10
1074.773
20
576.437
30
0.0
40
254.299
50
245.643051
51
297.481079
0
CIRCLE
5
a88
8
0-0
6
CONTINUOUS
62
  7
10
1102.121
20
1090.011
30
0.0
40
3.000
0
ARC
5
a89
8
0-0
6
CONTINUOUS
62
  7
10
1520.918
20
825.077
30
0.0
40
25.000
50
90.000000
51
180.000000
0
ARC
5
a8a
8
0-0
6
CONTINUOUS
62
  7
10
1495.918
20
798.705
30
0.0
40
26.372
50
90.000000
51
173.999985
0
ARC
5
a8b
8
0-0
6
CONTINUOUS
62
  7
10
1473.844
20
863.194
30
0.0
40
85.835
50
236.058090
51
291.941956
0
ARC
5
a8c
8
0-0
6
CONTINUOUS
62
  7
10
1387.940
20
821.329
30
0.0
40
47.994
50
322.308014
51
358.524719
0
TEXT
5
a8d
100
AcDbEntity
8
0-0
62
7
100
AcDbText
10
1030.246
20
478.388
30
0.0
40
9.750
41
0.800
50
0.000
1
305
100
AcDbText
0
TEXT
5
a8e
100
AcDbEntity
8
0-0
62
7
100
AcDbText
10
749.489
20
948.136
30
0.0
40
9.750
41
0.800
50
90.000
1
305
100
AcDbText
0
TEXT
5
a8f
100
AcDbEntity
8
0-0
62
7
100
AcDbText
10
782.883
20
928.136
30
0.0
40
9.750
41
0.800
50
90.000
1
265
100
AcDbText
0
TEXT
5
a90
100
AcDbEntity
8
0-0
62
7
100
AcDbText
10
782.883
20
1083.761
30
0.0
40
9.750
41
0.800
50
90.000
1
40
100
AcDbText
0
TEXT
5
a91
100
AcDbEntity
8
0-0
62
7
100
AcDbText
10
782.883
20
326.870
30
0.0
40
9.750
41
0.800
50
90.000
1
90
100
AcDbText
0
TEXT
5
a92
100
AcDbEntity
8
0-0
62
7
100
AcDbText
10
401.867
20
948.136
30
0.0
40
9.750
41
0.800
50
90.000
1
305
100
AcDbText
0
TEXT
5
a93
100
AcDbEntity
8
0-0
62
7
100
AcDbText
10
1031.721
20
1316.014
30
0.0
40
9.750
41
0.800
50
0.000
1
308
100
AcDbText
0
TEXT
5
a94
100
AcDbEntity
8
0-0
62
7
100
AcDbText
10
1462.168
20
1316.014
30
0.0
40
9.750
41
0.800
50
0.000
1
65
100
AcDbText
0
TEXT
5
a95
100
AcDbEntity
8
0-0
62
7
100
AcDbText
10
903.371
20
1259.257
30
0.0
40
9.750
41
0.800
50
0.000
1
45
100
AcDbText
0
TEXT
5
a96
100
AcDbEntity
8
0-0
62
7
100
AcDbText
10
1054.221
20
1259.257
30
0.0
40
9.750
41
0.800
50
0.000
1
263
100
AcDbText
0
TEXT
5
a97
100
AcDbEntity
8
0-0
62
7
100
AcDbText
10
1030.246
20
606.554
30
0.0
40
9.750
41
0.800
50
0.000
1
305
100
AcDbText
0
TEXT
5
a98
100
AcDbEntity
8
0-0
62
7
100
AcDbText
10
1472.168
20
606.554
30
0.0
40
9.750
41
0.800
50
0.000
1
85
100
AcDbText
0
TEXT
5
a99
100
AcDbEntity
8
0-0
62
7
100
AcDbText
10
514.157
20
606.554
30
0.0
40
9.750
41
0.800
50
0.000
1
42
100
AcDbText
0
TEXT
5
a9a
100
AcDbEntity
8
0-0
62
7
100
AcDbText
10
1324.131
20
302.083
30
0.0
40
9.750
41
0.800
50
90.000
1
85
100
AcDbText
0
TEXT
5
a9b
100
AcDbEntity
8
0-0
62
7
100
AcDbText
10
507.496
20
1045.738
30
0.0
40
9.750
41
0.800
50
0.000
1
14
100
AcDbText
0
POINT
5
a9c
8
0-0
62
  7
10
887.121
20
475.888
30
0.0
0
POINT
5
a9d
8
0-0
62
  7
10
1192.121
20
475.888
30
0.0
0
POINT
5
a9e
8
0-0
62
  7
10
751.989
20
805.011
30
0.0
0
POINT
5
a9f
8
0-0
62
  7
10
751.989
20
1110.011
30
0.0
0
POINT
5
aa0
8
0-0
62
  7
10
785.383
20
805.011
30
0.0
0
POINT
5
aa1
8
0-0
62
  7
10
785.383
20
1070.011
30
0.0
0
POINT
5
aa2
8
0-0
62
  7
10
785.383
20
1110.011
30
0.0
0
POINT
5
aa3
8
0-0
62
  7
10
785.383
20
378.120
30
0.0
0
POINT
5
aa4
8
0-0
62
  7
10
785.383
20
288.120
30
0.0
0
POINT
5
aa5
8
0-0
62
  7
10
386.867
20
805.011
30
0.0
0
POINT
5
aa6
8
0-0
62
  7
10
386.867
20
1110.011
30
0.0
0
POINT
5
aa7
8
0-0
62
  7
10
887.121
20
1313.514
30
0.0
0
POINT
5
aa8
8
0-0
62
  7
10
1195.071
20
1313.514
30
0.0
0
POINT
5
aa9
8
0-0
62
  7
10
1435.918
20
1313.514
30
0.0
0
POINT
5
aaa
8
0-0
62
  7
10
1500.918
20
1313.514
30
0.0
0
POINT
5
aab
8
0-0
62
  7
10
887.121
20
1256.757
30
0.0
0
POINT
5
aac
8
0-0
62
  7
10
932.121
20
1256.757
30
0.0
0
POINT
5
aad
8
0-0
62
  7
10
1195.072
20
1256.757
30
0.0
0
POINT
5
aae
8
0-0
62
  7
10
887.121
20
604.054
30
0.0
0
POINT
5
aaf
8
0-0
62
  7
10
1192.121
20
604.054
30
0.0
0
POINT
5
ab0
8
0-0
62
  7
10
1435.918
20
604.054
30
0.0
0
POINT
5
ab1
8
0-0
62
  7
10
1520.918
20
604.054
30
0.0
0
POINT
5
ab2
8
0-0
62
  7
10
499.407
20
604.054
30
0.0
0
POINT
5
ab3
8
0-0
62
  7
10
541.407
20
604.054
30
0.0
0
POINT
5
ab4
8
0-0
62
  7
10
1326.631
20
350.833
30
0.0
0
POINT
5
ab5
8
0-0
62
  7
10
1326.631
20
265.833
30
0.0
0
POINT
5
ab6
8
0-0
62
  7
10
527.407
20
1042.205
30
0.0
0
POINT
5
ab7
8
0-0
62
  7
10
541.407
20
1042.205
30
0.0
0
ENDSEC
0
EOF
