0
SECTION
2
HEADER
  9
$EXTMIN
10
0
20
0
30
0
  9
$EXTMAX
10
1556.757
20
1208.237
30
0
  9
$LTSCALE
40
5.000
  9
$DIMSCALE
40
5.000
  9
$PDMODE
70
0
  9
$PDSIZE
40
40
0
ENDSEC
0
SECTION
2
TABLES
0
TABLE
2
LTYPE
70
9
0
LTYPE
5
1f4
2
CONTINUOUS
70
0
3
実線
72
65
73
0
40
0.0
0
LTYPE
5
1f5
2
DOT
70
0
3
--  --  --  --  --  --  --  --     
72
65
73
2
40
5.000
49
1.000
49
-4.000
0
LTYPE
5
1f6
2
DASHED
70
0
3
----    ----    ----    ----    
72
65
73
2
40
5.000
49
2.000
49
-3.000
0
LTYPE
5
1f7
2
DASHED2
70
0
3
------  ------  ------  ------ 
72
65
73
2
40
10.000
49
4.000
49
-6.000
0
LTYPE
5
1f8
2
CENTER
70
0
3
----- - ----- - ----- - ----- - 
72
65
73
4
40
9.000
49
6.000
49
-1.000
49
1.000
49
-1.000
0
LTYPE
5
1f9
2
CENTER2
70
0
3
----------  --  ----------  -- 
72
65
73
4
40
18.000
49
12.000
49
-2.000
49
2.000
49
-2.000
0
LTYPE
5
1fa
2
PHANTOM
70
0
3
--- - - --- - - --- - - --- - -
72
65
73
6
40
10.000
49
5.000
49
-1.000
49
1.000
49
-1.000
49
1.000
49
-1.000
0
LTYPE
5
1fb
2
PHANTOM2
70
0
3
--------  -  -  --------  -  -
72
65
73
6
40
16.000
49
6.000
49
-2.000
49
2.000
49
-2.000
49
2.000
49
-2.000
0
LTYPE
5
1fc
2
HIDDEN
70
0
3
-   -   -   -   -   -   -   -   
72
65
73
2
40
2.500
49
0.500
49
-2.000
0
ENDTAB
0
TABLE
2
STYLE
70
1
0
STYLE
5
1fd
100
AcDbSymbolTableRecord
100
AcDbTextStyleTableRecord
2
STANDARD
70
0
40
0.0
41
1.0
50
0.0
71
0
42
0.0
3
txt.shx
4
extfont.shx
0
STYLE
5
1fe
100
AcDbSymbolTableRecord
100
AcDbTextStyleTableRecord
2
TATEGAKI
70
4
40
0.0
41
1.0
50
0.0
71
0
42
0.0
3
txt.shx
4
extfont.shx
0
STYLE
5
1ff
100
AcDbSymbolTableRecord
100
AcDbTextStyleTableRecord
2
MT
70
0
40
0.0
41
1.0
50
0.0
71
0
42
0.0
3
MS Mincho
4

0
STYLE
5
200
100
AcDbSymbolTableRecord
100
AcDbTextStyleTableRecord
2
TMT
70
4
40
0.0
41
1.0
50
0.0
71
0
42
0.0
3
@MS Mincho
4

0
ENDTAB
0
TABLE
2
LAYER
5
b0a
100
AcDbSymbolTable
70
10
0
LAYER
5
b0b
100
AcDbSymbolTableRecord
100
AcDbLayerTableRecord
2
0
70
64
62
  7
  6
CONTINUOUS
0
LAYER
5
b0c
100
AcDbSymbolTableRecord
100
AcDbLayerTableRecord
2
0-0
70
64
62
  7
  6
CONTINUOUS
0
LAYER
5
b0d
100
AcDbSymbolTableRecord
100
AcDbLayerTableRecord
2
ADD_LINE
70
64
62
  -7
  6
CONTINUOUS
0
ENDTAB
0
ENDSEC
0
SECTION
2
ENTITIES
0
LINE
5
b0e
8
0-0
6
CONTINUOUS
62
  7
10
888.243
20
1044.440
30
0.0
11
1098.243
21
1044.440
31
0.0
0
LINE
5
b0f
8
ADD_LINE
6
HIDDEN
62
  7
10
993.243
20
1044.440
30
0.0
11
993.243
21
779.440
31
0.0
0
LINE
5
b10
8
0-0
6
CONTINUOUS
62
  7
10
888.243
20
800.440
30
0.0
11
888.243
21
1044.440
31
0.0
0
LINE
5
b11
8
0-0
6
CONTINUOUS
62
  7
10
903.243
20
800.440
30
0.0
11
903.243
21
758.440
31
0.0
0
LINE
5
b12
8
0-0
6
CONTINUOUS
62
  7
10
1083.243
20
800.440
30
0.0
11
1083.243
21
758.440
31
0.0
0
LINE
5
b13
8
0-0
6
CONTINUOUS
62
  7
10
888.243
20
758.440
30
0.0
11
903.243
21
758.440
31
0.0
0
LINE
5
b14
8
0-0
6
CONTINUOUS
62
  7
10
1083.243
20
758.440
30
0.0
11
1098.243
21
758.440
31
0.0
0
LINE
5
b15
8
0-0
6
CONTINUOUS
62
  7
10
1083.243
20
779.440
30
0.0
11
903.243
21
779.440
31
0.0
0
LINE
5
b16
8
0-0
6
CONTINUOUS
62
  7
10
1098.243
20
1044.440
30
0.0
11
1098.243
21
800.440
31
0.0
0
LINE
5
b17
8
0-0
6
CONTINUOUS
62
  7
10
888.243
20
800.440
30
0.0
11
903.243
21
800.440
31
0.0
0
LINE
5
b18
8
0-0
6
CONTINUOUS
62
  7
10
1083.243
20
800.440
30
0.0
11
1098.243
21
800.440
31
0.0
0
LINE
5
b19
8
0-0
6
CONTINUOUS
62
  7
10
888.243
20
445.270
30
0.0
11
896.243
21
446.522
31
0.0
0
LINE
5
b1a
8
0-0
6
CONTINUOUS
62
  7
10
896.243
20
446.522
30
0.0
11
897.748
21
451.270
31
0.0
0
LINE
5
b1b
8
0-0
6
CONTINUOUS
62
  7
10
1098.243
20
445.270
30
0.0
11
1090.243
21
446.522
31
0.0
0
LINE
5
b1c
8
0-0
6
CONTINUOUS
62
  7
10
1090.243
20
446.522
30
0.0
11
1088.739
21
451.270
31
0.0
0
LINE
5
b1d
8
0-0
6
CONTINUOUS
62
  7
10
1098.243
20
445.270
30
0.0
11
1090.243
21
446.522
31
0.0
0
LINE
5
b1e
8
0-0
6
CONTINUOUS
62
  7
10
1090.243
20
446.522
30
0.0
11
1088.739
21
451.270
31
0.0
0
LINE
5
b1f
8
0-0
6
CONTINUOUS
62
  7
10
903.243
20
491.588
30
0.0
11
903.243
21
474.501
31
0.0
0
LINE
5
b20
8
0-0
6
CONTINUOUS
62
  7
10
888.243
20
445.270
30
0.0
11
893.233
21
473.783
31
0.0
0
LINE
5
b21
8
0-0
6
CONTINUOUS
62
  7
10
1098.243
20
445.270
30
0.0
11
1090.243
21
446.522
31
0.0
0
LINE
5
b22
8
0-0
6
CONTINUOUS
62
  7
10
1090.243
20
446.522
30
0.0
11
1088.739
21
451.270
31
0.0
0
LINE
5
b23
8
0-0
6
CONTINUOUS
62
  7
10
1083.243
20
491.588
30
0.0
11
1083.243
21
474.501
31
0.0
0
LINE
5
b24
8
0-0
6
CONTINUOUS
62
  7
10
1098.243
20
445.270
30
0.0
11
1093.254
21
473.783
31
0.0
0
LINE
5
b25
8
0-0
6
CONTINUOUS
62
  7
10
880.243
20
485.270
30
0.0
11
893.233
21
473.783
31
0.0
0
LINE
5
b26
8
0-0
6
CONTINUOUS
62
  7
10
1106.243
20
485.270
30
0.0
11
1093.254
21
473.783
31
0.0
0
LINE
5
b27
8
0-0
6
CONTINUOUS
62
  7
10
1362.162
20
1044.440
30
0.0
11
1403.162
21
1044.440
31
0.0
0
LINE
5
b28
8
0-0
6
CONTINUOUS
62
  7
10
1378.162
20
1044.440
30
0.0
11
1378.162
21
800.440
31
0.0
0
LINE
5
b29
8
0-0
6
CONTINUOUS
62
  7
10
1362.162
20
1044.440
30
0.0
11
1362.162
21
800.440
31
0.0
0
LINE
5
b2a
8
0-0
6
CONTINUOUS
62
  7
10
1362.162
20
800.440
30
0.0
11
1403.162
21
800.440
31
0.0
0
LINE
5
b2b
8
0-0
6
CONTINUOUS
62
  7
10
1403.162
20
1044.440
30
0.0
11
1403.162
21
800.440
31
0.0
0
LINE
5
b2c
8
0-0
6
CONTINUOUS
62
  7
10
1362.162
20
758.440
30
0.0
11
1403.162
21
758.440
31
0.0
0
LINE
5
b2d
8
0-0
6
CONTINUOUS
62
  7
10
1098.243
20
445.270
30
0.0
11
1113.665
21
442.857
31
0.0
0
LINE
5
b2e
8
0-0
6
CONTINUOUS
62
  7
10
1106.243
20
485.270
30
0.0
11
1113.665
21
442.857
31
0.0
0
LINE
5
b2f
8
0-0
6
CONTINUOUS
62
  7
10
880.243
20
485.270
30
0.0
11
872.821
21
442.857
31
0.0
0
LINE
5
b30
8
0-0
6
CONTINUOUS
62
  7
10
888.243
20
445.270
30
0.0
11
872.821
21
442.857
31
0.0
0
LINE
5
b31
8
ADD_LINE
6
HIDDEN
62
  3
10
993.243
20
526.805
30
0.0
11
993.243
21
425.454
31
0.0
0
LINE
5
b32
8
0-0
6
CONTINUOUS
62
  7
10
888.243
20
1205.737
30
0.0
11
1098.243
21
1205.737
31
0.0
0
LINE
5
b33
8
0-0
6
CONTINUOUS
62
  7
10
888.243
20
1103.978
30
0.0
11
888.243
21
1205.737
31
0.0
0
LINE
5
b34
8
0-0
6
CONTINUOUS
62
  7
10
1098.243
20
1103.978
30
0.0
11
1098.243
21
1205.737
31
0.0
0
LINE
5
b35
8
0-0
6
CONTINUOUS
62
  7
10
1362.162
20
1205.737
30
0.0
11
1403.162
21
1205.737
31
0.0
0
LINE
5
b36
8
0-0
6
CONTINUOUS
62
  7
10
1362.162
20
1103.978
30
0.0
11
1362.162
21
1205.737
31
0.0
0
LINE
5
b37
8
0-0
6
CONTINUOUS
62
  7
10
1403.162
20
1103.978
30
0.0
11
1403.162
21
1205.737
31
0.0
0
LINE
5
b38
8
0-0
6
CONTINUOUS
62
  7
10
1362.162
20
1166.421
30
0.0
11
1378.162
21
1166.421
31
0.0
0
LINE
5
b39
8
0-0
6
CONTINUOUS
62
  7
10
1362.162
20
1103.978
30
0.0
11
1362.162
21
1166.421
31
0.0
0
LINE
5
b3a
8
0-0
6
CONTINUOUS
62
  7
10
1378.162
20
1103.978
30
0.0
11
1378.162
21
1166.421
31
0.0
0
LINE
5
b3b
8
0-0
6
CONTINUOUS
62
  7
10
1378.162
20
1166.421
30
0.0
11
1403.162
21
1166.421
31
0.0
0
LINE
5
b3c
8
0-0
6
CONTINUOUS
62
  7
10
1403.162
20
1103.978
30
0.0
11
1403.162
21
1166.421
31
0.0
0
LINE
5
b3d
8
0-0
6
CONTINUOUS
62
  7
10
873.243
20
682.522
30
0.0
11
903.243
21
682.522
31
0.0
0
LINE
5
b3e
8
0-0
6
CONTINUOUS
62
  7
10
873.243
20
726.154
30
0.0
11
873.243
21
682.522
31
0.0
0
LINE
5
b3f
8
0-0
6
CONTINUOUS
62
  7
10
903.243
20
726.154
30
0.0
11
903.243
21
682.522
31
0.0
0
LINE
5
b40
8
0-0
6
CONTINUOUS
62
  7
10
873.243
20
710.673
30
0.0
11
888.243
21
710.673
31
0.0
0
LINE
5
b41
8
0-0
6
CONTINUOUS
62
  7
10
873.243
20
726.154
30
0.0
11
873.243
21
710.673
31
0.0
0
LINE
5
b42
8
0-0
6
CONTINUOUS
62
  7
10
888.243
20
726.154
30
0.0
11
888.243
21
710.673
31
0.0
0
LINE
5
b43
8
0-0
6
CONTINUOUS
62
  7
10
888.243
20
710.673
30
0.0
11
903.243
21
710.673
31
0.0
0
LINE
5
b44
8
0-0
6
CONTINUOUS
62
  7
10
903.243
20
726.154
30
0.0
11
903.243
21
710.673
31
0.0
0
LINE
5
b45
8
0-0
6
CONTINUOUS
62
  7
10
888.243
20
344.373
30
0.0
11
1098.243
21
344.373
31
0.0
0
LINE
5
b46
8
0-0
6
CONTINUOUS
62
  7
10
888.243
20
401.130
30
0.0
11
888.243
21
344.373
31
0.0
0
LINE
5
b47
8
0-0
6
CONTINUOUS
62
  7
10
1098.243
20
401.130
30
0.0
11
1098.243
21
344.373
31
0.0
0
LINE
5
b48
8
0-0
6
CONTINUOUS
62
  7
10
656.757
20
1044.440
30
0.0
11
656.757
21
779.440
31
0.0
0
LINE
5
b49
8
0-0
6
CONTINUOUS
62
  7
10
806.757
20
1044.440
30
0.0
11
656.757
21
1044.440
31
0.0
0
LINE
5
b4a
8
0-0
6
CONTINUOUS
62
  7
10
806.757
20
779.440
30
0.0
11
656.757
21
779.440
31
0.0
0
LINE
5
b4b
8
0-0
6
CONTINUOUS
62
  7
10
1179.730
20
800.440
30
0.0
11
1179.730
21
758.440
31
0.0
0
LINE
5
b4c
8
0-0
6
CONTINUOUS
62
  7
10
1147.297
20
800.440
30
0.0
11
1179.730
21
800.440
31
0.0
0
LINE
5
b4d
8
0-0
6
CONTINUOUS
62
  7
10
1147.297
20
758.440
30
0.0
11
1179.730
21
758.440
31
0.0
0
LINE
5
b4e
8
0-0
6
CONTINUOUS
62
  7
10
1556.757
20
1044.440
30
0.0
11
1556.757
21
779.440
31
0.0
0
LINE
5
b4f
8
0-0
6
CONTINUOUS
62
  7
10
1475.676
20
1044.440
30
0.0
11
1556.757
21
1044.440
31
0.0
0
LINE
5
b50
8
0-0
6
CONTINUOUS
62
  7
10
1475.676
20
779.440
30
0.0
11
1556.757
21
779.440
31
0.0
0
CIRCLE
5
b51
8
0-0
6
CONTINUOUS
62
  7
10
1008.243
20
869.440
30
0.0
40
3.000
0
CIRCLE
5
b52
8
0-0
6
CONTINUOUS
62
  7
10
978.243
20
869.440
30
0.0
40
3.000
0
ARC
5
b53
8
0-0
6
CONTINUOUS
62
  7
10
895.443
20
779.440
30
0.0
40
22.200
50
108.924683
51
251.075317
0
ARC
5
b54
8
0-0
6
CONTINUOUS
62
  7
10
1091.043
20
779.440
30
0.0
40
22.200
50
288.924683
51
431.075317
0
ARC
5
b55
8
0-0
6
CONTINUOUS
62
  7
10
993.243
20
220.788
30
0.0
40
249.483
50
67.494431
51
112.505569
0
ARC
5
b56
8
0-0
6
CONTINUOUS
62
  7
10
903.363
20
446.130
30
0.0
40
45.459
50
90.150940
51
120.569839
0
ARC
5
b57
8
0-0
6
CONTINUOUS
62
  7
10
993.243
20
133.739
30
0.0
40
354.447
50
104.709427
51
106.389084
0
ARC
5
b58
8
0-0
6
CONTINUOUS
62
  7
10
1083.124
20
446.130
30
0.0
40
45.459
50
419.430176
51
449.849060
0
ARC
5
b59
8
0-0
6
CONTINUOUS
62
  7
10
993.243
20
133.739
30
0.0
40
354.447
50
433.610901
51
435.290588
0
ARC
5
b5a
8
0-0
6
CONTINUOUS
62
  7
10
993.243
20
133.739
30
0.0
40
352.447
50
75.205200
51
104.794785
0
ARC
5
b5b
8
0-0
6
CONTINUOUS
62
  7
10
1385.362
20
779.440
30
0.0
40
22.200
50
108.924377
51
251.075623
0
ARC
5
b5c
8
0-0
6
CONTINUOUS
62
  7
10
1385.724
20
779.440
30
0.0
40
31.562
50
138.290619
51
221.709381
0
ARC
5
b5d
8
0-0
6
CONTINUOUS
62
  7
10
1350.037
20
779.440
30
0.0
40
57.125
50
338.431396
51
21.568588
0
CIRCLE
5
b5e
8
ADD_LINE
6
HIDDEN
62
  3
10
993.243
20
470.270
30
0.0
40
3.000
0
TEXT
5
b5f
100
AcDbEntity
8
0-0
62
7
100
AcDbText
10
983.868
20
1208.237
30
0.0
40
9.750
41
0.800
50
0.000
1
210
100
AcDbText
0
TEXT
5
b60
100
AcDbEntity
8
0-0
62
7
100
AcDbText
10
1376.412
20
1208.237
30
0.0
40
9.750
41
0.800
50
0.000
1
41
100
AcDbText
0
TEXT
5
b61
100
AcDbEntity
8
0-0
62
7
100
AcDbText
10
1363.912
20
1168.921
30
0.0
40
9.750
41
0.800
50
0.000
1
16
100
AcDbText
0
TEXT
5
b62
100
AcDbEntity
8
0-0
62
7
100
AcDbText
10
1384.412
20
1168.921
30
0.0
40
9.750
41
0.800
50
0.000
1
25
100
AcDbText
0
TEXT
5
b63
100
AcDbEntity
8
0-0
62
7
100
AcDbText
10
881.993
20
685.022
30
0.0
40
9.750
41
0.800
50
0.000
1
30
100
AcDbText
0
TEXT
5
b64
100
AcDbEntity
8
0-0
62
7
100
AcDbText
10
874.493
20
713.173
30
0.0
40
9.750
41
0.800
50
0.000
1
15
100
AcDbText
0
TEXT
5
b65
100
AcDbEntity
8
0-0
62
7
100
AcDbText
10
889.493
20
713.173
30
0.0
40
9.750
41
0.800
50
0.000
1
15
100
AcDbText
0
TEXT
5
b66
100
AcDbEntity
8
0-0
62
7
100
AcDbText
10
983.868
20
346.873
30
0.0
40
9.750
41
0.800
50
0.000
1
210
100
AcDbText
0
TEXT
5
b67
100
AcDbEntity
8
0-0
62
7
100
AcDbText
10
654.257
20
902.565
30
0.0
40
9.750
41
0.800
50
90.000
1
265
100
AcDbText
0
TEXT
5
b68
100
AcDbEntity
8
0-0
62
7
100
AcDbText
10
1177.230
20
773.190
30
0.0
40
9.750
41
0.800
50
90.000
1
42
100
AcDbText
0
TEXT
5
b69
100
AcDbEntity
8
0-0
62
7
100
AcDbText
10
1554.257
20
902.565
30
0.0
40
9.750
41
0.800
50
90.000
1
265
100
AcDbText
0
POINT
5
b6a
8
0-0
62
  7
10
888.243
20
1205.737
30
0.0
0
POINT
5
b6b
8
0-0
62
  7
10
1098.243
20
1205.737
30
0.0
0
POINT
5
b6c
8
0-0
62
  7
10
1362.162
20
1205.737
30
0.0
0
POINT
5
b6d
8
0-0
62
  7
10
1403.162
20
1205.737
30
0.0
0
POINT
5
b6e
8
0-0
62
  7
10
1362.162
20
1166.421
30
0.0
0
POINT
5
b6f
8
0-0
62
  7
10
1378.162
20
1166.421
30
0.0
0
POINT
5
b70
8
0-0
62
  7
10
1403.162
20
1166.421
30
0.0
0
POINT
5
b71
8
0-0
62
  7
10
873.243
20
682.522
30
0.0
0
POINT
5
b72
8
0-0
62
  7
10
903.243
20
682.522
30
0.0
0
POINT
5
b73
8
0-0
62
  7
10
873.243
20
710.673
30
0.0
0
POINT
5
b74
8
0-0
62
  7
10
888.243
20
710.673
30
0.0
0
POINT
5
b75
8
0-0
62
  7
10
903.243
20
710.673
30
0.0
0
POINT
5
b76
8
0-0
62
  7
10
888.243
20
344.373
30
0.0
0
POINT
5
b77
8
0-0
62
  7
10
1098.243
20
344.373
30
0.0
0
POINT
5
b78
8
0-0
62
  7
10
656.757
20
1044.440
30
0.0
0
POINT
5
b79
8
0-0
62
  7
10
656.757
20
779.440
30
0.0
0
POINT
5
b7a
8
0-0
62
  7
10
1179.730
20
800.440
30
0.0
0
POINT
5
b7b
8
0-0
62
  7
10
1179.730
20
758.440
30
0.0
0
POINT
5
b7c
8
0-0
62
  7
10
1556.757
20
1044.440
30
0.0
0
POINT
5
b7d
8
0-0
62
  7
10
1556.757
20
779.440
30
0.0
0
ENDSEC
0
EOF
