0
SECTION
2
HEADER
  9
$EXTMIN
10
0
20
0
30
0
  9
$EXTMAX
10
1949.125
20
2085.530
30
0
  9
$LTSCALE
40
5.000
  9
$DIMSCALE
40
5.000
  9
$PDMODE
70
0
  9
$PDSIZE
40
40
0
ENDSEC
0
SECTION
2
TABLES
0
TABLE
2
LTYPE
70
9
0
LTYPE
5
1f4
2
CONTINUOUS
70
0
3
実線
72
65
73
0
40
0.0
0
LTYPE
5
1f5
2
DOT
70
0
3
--  --  --  --  --  --  --  --     
72
65
73
2
40
5.000
49
1.000
49
-4.000
0
LTYPE
5
1f6
2
DASHED
70
0
3
----    ----    ----    ----    
72
65
73
2
40
5.000
49
2.000
49
-3.000
0
LTYPE
5
1f7
2
DASHED2
70
0
3
------  ------  ------  ------ 
72
65
73
2
40
10.000
49
4.000
49
-6.000
0
LTYPE
5
1f8
2
CENTER
70
0
3
----- - ----- - ----- - ----- - 
72
65
73
4
40
9.000
49
6.000
49
-1.000
49
1.000
49
-1.000
0
LTYPE
5
1f9
2
CENTER2
70
0
3
----------  --  ----------  -- 
72
65
73
4
40
18.000
49
12.000
49
-2.000
49
2.000
49
-2.000
0
LTYPE
5
1fa
2
PHANTOM
70
0
3
--- - - --- - - --- - - --- - -
72
65
73
6
40
10.000
49
5.000
49
-1.000
49
1.000
49
-1.000
49
1.000
49
-1.000
0
LTYPE
5
1fb
2
PHANTOM2
70
0
3
--------  -  -  --------  -  -
72
65
73
6
40
16.000
49
6.000
49
-2.000
49
2.000
49
-2.000
49
2.000
49
-2.000
0
LTYPE
5
1fc
2
HIDDEN
70
0
3
-   -   -   -   -   -   -   -   
72
65
73
2
40
2.500
49
0.500
49
-2.000
0
ENDTAB
0
TABLE
2
STYLE
70
1
0
STYLE
5
1fd
100
AcDbSymbolTableRecord
100
AcDbTextStyleTableRecord
2
STANDARD
70
0
40
0.0
41
1.0
50
0.0
71
0
42
0.0
3
txt.shx
4
extfont.shx
0
STYLE
5
1fe
100
AcDbSymbolTableRecord
100
AcDbTextStyleTableRecord
2
TATEGAKI
70
4
40
0.0
41
1.0
50
0.0
71
0
42
0.0
3
txt.shx
4
extfont.shx
0
STYLE
5
1ff
100
AcDbSymbolTableRecord
100
AcDbTextStyleTableRecord
2
MT
70
0
40
0.0
41
1.0
50
0.0
71
0
42
0.0
3
MS Mincho
4

0
STYLE
5
200
100
AcDbSymbolTableRecord
100
AcDbTextStyleTableRecord
2
TMT
70
4
40
0.0
41
1.0
50
0.0
71
0
42
0.0
3
@MS Mincho
4

0
ENDTAB
0
TABLE
2
LAYER
5
daa
100
AcDbSymbolTable
70
10
0
LAYER
5
dab
100
AcDbSymbolTableRecord
100
AcDbLayerTableRecord
2
0
70
64
62
  7
  6
CONTINUOUS
0
LAYER
5
dac
100
AcDbSymbolTableRecord
100
AcDbLayerTableRecord
2
0-0
70
64
62
  7
  6
CONTINUOUS
0
LAYER
5
dad
100
AcDbSymbolTableRecord
100
AcDbLayerTableRecord
2
ADD_LINE
70
64
62
  -7
  6
CONTINUOUS
0
ENDTAB
0
ENDSEC
0
SECTION
2
ENTITIES
0
LINE
5
dae
8
0-0
6
CONTINUOUS
62
  7
10
803.922
20
1117.433
30
0.0
11
803.922
21
1027.433
31
0.0
0
LINE
5
daf
8
0-0
6
CONTINUOUS
62
  7
10
813.922
20
1112.432
30
0.0
11
1073.922
21
1112.432
31
0.0
0
LINE
5
db0
8
0-0
6
CONTINUOUS
62
  7
10
1073.922
20
1112.432
30
0.0
11
1073.922
21
1027.433
31
0.0
0
LINE
5
db1
8
0-0
6
CONTINUOUS
62
  7
10
803.922
20
1027.433
30
0.0
11
1073.922
21
1027.433
31
0.0
0
LINE
5
db2
8
0-0
6
CONTINUOUS
62
  7
10
1073.922
20
1072.432
30
0.0
11
1098.922
21
1072.432
31
0.0
0
LINE
5
db3
8
0-0
6
CONTINUOUS
62
  7
10
1098.922
20
1072.432
30
0.0
11
1118.922
21
1052.432
31
0.0
0
LINE
5
db4
8
0-0
6
CONTINUOUS
62
  7
10
1118.922
20
1052.432
30
0.0
11
1118.922
21
782.432
31
0.0
0
LINE
5
db5
8
0-0
6
CONTINUOUS
62
  7
10
801.902
20
838.294
30
0.0
11
869.784
21
770.412
31
0.0
0
LINE
5
db6
8
0-0
6
CONTINUOUS
62
  7
10
879.461
20
780.089
30
0.0
11
869.784
21
770.412
31
0.0
0
LINE
5
db7
8
0-0
6
CONTINUOUS
62
  7
10
885.118
20
782.432
30
0.0
11
1118.922
21
782.432
31
0.0
0
LINE
5
db8
8
0-0
6
CONTINUOUS
62
  7
10
811.579
20
847.972
30
0.0
11
801.902
21
838.294
31
0.0
0
LINE
5
db9
8
0-0
6
CONTINUOUS
62
  7
10
1110.922
20
1060.432
30
0.0
11
1110.922
21
824.923
31
0.0
0
LINE
5
dba
8
0-0
6
CONTINUOUS
62
  7
10
813.922
20
853.629
30
0.0
11
813.922
21
1027.433
31
0.0
0
LINE
5
dbb
8
0-0
6
CENTER
62
  7
10
843.373
20
811.883
30
0.0
11
1039.063
21
1007.574
31
0.0
0
LINE
5
dbc
8
0-0
6
CONTINUOUS
62
  7
10
813.922
20
643.108
30
0.0
11
1118.922
21
643.108
31
0.0
0
LINE
5
dbd
8
0-0
6
CONTINUOUS
62
  7
10
813.922
20
716.081
30
0.0
11
813.922
21
643.108
31
0.0
0
LINE
5
dbe
8
0-0
6
CONTINUOUS
62
  7
10
1118.922
20
716.081
30
0.0
11
1118.922
21
643.108
31
0.0
0
LINE
5
dbf
8
0-0
6
CONTINUOUS
62
  7
10
813.922
20
1295.811
30
0.0
11
1118.922
21
1295.811
31
0.0
0
LINE
5
dc0
8
0-0
6
CONTINUOUS
62
  7
10
813.922
20
1170.135
30
0.0
11
813.922
21
1295.811
31
0.0
0
LINE
5
dc1
8
0-0
6
CONTINUOUS
62
  7
10
1118.922
20
1170.135
30
0.0
11
1118.922
21
1295.811
31
0.0
0
LINE
5
dc2
8
0-0
6
CONTINUOUS
62
  7
10
813.922
20
1258.319
30
0.0
11
1073.922
21
1258.319
31
0.0
0
LINE
5
dc3
8
0-0
6
CONTINUOUS
62
  7
10
813.922
20
1170.135
30
0.0
11
813.922
21
1258.319
31
0.0
0
LINE
5
dc4
8
0-0
6
CONTINUOUS
62
  7
10
1073.922
20
1170.135
30
0.0
11
1073.922
21
1258.319
31
0.0
0
LINE
5
dc5
8
0-0
6
CONTINUOUS
62
  7
10
1073.922
20
1258.319
30
0.0
11
1118.922
21
1258.319
31
0.0
0
LINE
5
dc6
8
0-0
6
CONTINUOUS
62
  7
10
1118.922
20
1170.135
30
0.0
11
1118.922
21
1258.319
31
0.0
0
LINE
5
dc7
8
0-0
6
CONTINUOUS
62
  7
10
1316.625
20
782.432
30
0.0
11
1316.625
21
1112.432
31
0.0
0
LINE
5
dc8
8
0-0
6
CONTINUOUS
62
  7
10
1203.112
20
782.432
30
0.0
11
1316.625
21
782.432
31
0.0
0
LINE
5
dc9
8
0-0
6
CONTINUOUS
62
  7
10
1203.112
20
1112.432
30
0.0
11
1316.625
21
1112.432
31
0.0
0
LINE
5
dca
8
0-0
6
CONTINUOUS
62
  7
10
1255.814
20
782.433
30
0.0
11
1255.814
21
1052.432
31
0.0
0
LINE
5
dcb
8
0-0
6
CONTINUOUS
62
  7
10
1178.787
20
782.433
30
0.0
11
1255.814
21
782.433
31
0.0
0
LINE
5
dcc
8
0-0
6
CONTINUOUS
62
  7
10
1178.787
20
1052.432
30
0.0
11
1255.814
21
1052.432
31
0.0
0
LINE
5
dcd
8
0-0
6
CONTINUOUS
62
  7
10
582.841
20
770.412
30
0.0
11
582.841
21
1112.432
31
0.0
0
LINE
5
dce
8
0-0
6
CONTINUOUS
62
  7
10
728.787
20
770.412
30
0.0
11
582.841
21
770.412
31
0.0
0
LINE
5
dcf
8
0-0
6
CONTINUOUS
62
  7
10
728.787
20
1112.432
30
0.0
11
582.841
21
1112.432
31
0.0
0
LINE
5
dd0
8
0-0
6
CONTINUOUS
62
  7
10
1118.922
20
357.162
30
0.0
11
1118.922
21
312.162
31
0.0
0
LINE
5
dd1
8
0-0
6
CONTINUOUS
62
  7
10
873.952
20
402.162
30
0.0
11
881.909
21
402.162
31
0.0
0
LINE
5
dd2
8
0-0
6
CONTINUOUS
62
  7
10
835.843
20
382.162
30
0.0
11
856.877
21
381.882
31
0.0
0
LINE
5
dd3
8
ADD_LINE
6
HIDDEN
62
  3
10
750.700
20
312.162
30
0.0
11
1069.352
21
312.162
31
0.0
0
LINE
5
dd4
8
ADD_LINE
6
HIDDEN
62
  2
10
1089.352
20
312.162
30
0.0
11
1164.534
21
312.162
31
0.0
0
LINE
5
dd5
8
0-0
6
CONTINUOUS
62
  7
10
365.679
20
842.462
30
0.0
11
365.679
21
850.419
31
0.0
0
LINE
5
dd6
8
0-0
6
CONTINUOUS
62
  7
10
345.679
20
804.353
30
0.0
11
345.399
21
825.387
31
0.0
0
LINE
5
dd7
8
ADD_LINE
6
HIDDEN
62
  3
10
275.679
20
1057.862
30
0.0
11
275.679
21
1133.045
31
0.0
0
LINE
5
dd8
8
0-0
6
CONTINUOUS
62
  7
10
1571.694
20
599.661
30
0.0
11
1582.301
21
589.054
31
0.0
0
LINE
5
dd9
8
0-0
6
CONTINUOUS
62
  7
10
1256.617
20
383.579
30
0.0
11
1265.102
21
392.064
31
0.0
0
LINE
5
dda
8
0-0
6
CONTINUOUS
62
  7
10
1175.914
20
312.162
30
0.0
11
1175.914
21
357.162
31
0.0
0
LINE
5
ddb
8
0-0
6
CONTINUOUS
62
  7
10
1138.887
20
312.162
30
0.0
11
1175.914
21
312.162
31
0.0
0
LINE
5
ddc
8
0-0
6
CONTINUOUS
62
  7
10
1138.887
20
357.162
30
0.0
11
1175.914
21
357.162
31
0.0
0
LINE
5
ddd
8
ADD_LINE
6
HIDDEN
62
  3
10
1629.733
20
636.487
30
0.0
11
1272.976
21
279.730
31
0.0
0
LINE
5
dde
8
ADD_LINE
6
HIDDEN
62
  3
10
1529.598
20
641.757
30
0.0
11
1608.652
21
562.703
31
0.0
0
LINE
5
ddf
8
ADD_LINE
6
HIDDEN
62
  3
10
275.679
20
750.000
30
0.0
11
275.679
21
1037.862
31
0.0
0
LINE
5
de0
8
0-0
6
CONTINUOUS
62
  7
10
1099.197
20
358.932
30
0.0
11
1118.922
21
342.162
31
0.0
0
LINE
5
de1
8
0-0
6
CONTINUOUS
62
  7
10
1118.922
20
357.162
30
0.0
11
1118.922
21
379.162
31
0.0
0
LINE
5
de2
8
0-0
6
CONTINUOUS
62
  7
10
320.679
20
1117.433
30
0.0
11
365.679
21
1117.433
31
0.0
0
LINE
5
de3
8
0-0
6
CONTINUOUS
62
  7
10
333.654
20
1027.432
30
0.0
11
365.679
21
1027.432
31
0.0
0
ARC
5
de4
8
0-0
6
CONTINUOUS
62
  7
10
875.307
20
1072.432
30
0.0
40
84.385
50
147.773163
51
212.226807
0
ARC
5
de5
8
0-0
6
CONTINUOUS
62
  7
10
814.297
20
1125.682
30
0.0
40
13.255
50
218.490677
51
268.379395
0
ARC
5
de6
8
0-0
6
CONTINUOUS
62
  7
10
881.098
20
849.608
30
0.0
40
80.000
50
188.130157
51
261.869843
0
ARC
5
de7
8
0-0
6
CONTINUOUS
62
  7
10
885.118
20
774.433
30
0.0
40
8.000
50
90.000000
51
135.000000
0
ARC
5
de8
8
0-0
6
CONTINUOUS
62
  7
10
805.922
20
853.629
30
0.0
40
8.000
50
315.000000
51
0.000000
0
ARC
5
de9
8
0-0
6
CONTINUOUS
62
  7
10
1114.922
20
826.890
30
0.0
40
4.457
50
206.180267
51
333.819733
0
CIRCLE
5
dea
8
0-0
6
CONTINUOUS
62
  7
10
983.922
20
1069.933
30
0.0
40
3.000
0
CIRCLE
5
deb
8
0-0
6
CONTINUOUS
62
  7
10
1013.922
20
1069.933
30
0.0
40
3.000
0
CIRCLE
5
dec
8
0-0
6
CONTINUOUS
62
  7
10
1097.609
20
1051.119
30
0.0
40
3.000
0
CIRCLE
5
ded
8
0-0
6
CONTINUOUS
62
  7
10
1087.002
20
1040.512
30
0.0
40
3.000
0
CIRCLE
5
dee
8
ADD_LINE
6
HIDDEN
62
  3
10
1118.922
20
782.432
30
0.0
40
3.000
0
POLYLINE
5
def
8
0-0
6
CONTINUOUS
62
  7
66
1
10
0.000000
20
0.000000
30
0.000000
70
1
0
VERTEX
5
df0
8
0-0
10
835.843018
20
382.161987
30
0.000000
0
VERTEX
5
df1
8
0-0
10
838.807007
20
382.333008
30
0.000000
0
VERTEX
5
df2
8
0-0
10
841.747986
20
382.846008
30
0.000000
0
VERTEX
5
df3
8
0-0
10
844.645020
20
383.696991
30
0.000000
0
VERTEX
5
df4
8
0-0
10
847.474976
20
384.877991
30
0.000000
0
VERTEX
5
df5
8
0-0
10
850.216003
20
386.381012
30
0.000000
0
VERTEX
5
df6
8
0-0
10
852.846985
20
388.195007
30
0.000000
0
VERTEX
5
df7
8
0-0
10
855.348999
20
390.306000
30
0.000000
0
VERTEX
5
df8
8
0-0
10
857.703003
20
392.697998
30
0.000000
0
VERTEX
5
df9
8
0-0
10
859.890015
20
395.351990
30
0.000000
0
VERTEX
5
dfa
8
0-0
10
861.893005
20
398.247986
30
0.000000
0
VERTEX
5
dfb
8
0-0
10
863.698975
20
401.364990
30
0.000000
0
VERTEX
5
dfc
8
0-0
10
865.291992
20
404.678009
30
0.000000
0
VERTEX
5
dfd
8
0-0
10
866.661011
20
408.161987
30
0.000000
0
VERTEX
5
dfe
8
0-0
10
867.794983
20
411.790985
30
0.000000
0
VERTEX
5
dff
8
0-0
10
868.685974
20
415.536987
30
0.000000
0
VERTEX
5
e00
8
0-0
10
869.327026
20
419.372009
30
0.000000
0
VERTEX
5
e01
8
0-0
10
869.711975
20
423.265991
30
0.000000
0
VERTEX
5
e02
8
0-0
10
869.840027
20
427.188995
30
0.000000
0
VERTEX
5
e03
8
0-0
10
869.708984
20
431.113007
30
0.000000
0
VERTEX
5
e04
8
0-0
10
869.320007
20
435.006012
30
0.000000
0
VERTEX
5
e05
8
0-0
10
868.674988
20
438.839996
30
0.000000
0
VERTEX
5
e06
8
0-0
10
867.781006
20
442.584015
30
0.000000
0
VERTEX
5
e07
8
0-0
10
866.643982
20
446.210999
30
0.000000
0
VERTEX
5
e08
8
0-0
10
865.271973
20
449.692993
30
0.000000
0
VERTEX
5
e09
8
0-0
10
863.674988
20
453.003998
30
0.000000
0
VERTEX
5
e0a
8
0-0
10
861.867004
20
456.118011
30
0.000000
0
VERTEX
5
e0b
8
0-0
10
859.861023
20
459.010986
30
0.000000
0
VERTEX
5
e0c
8
0-0
10
857.671021
20
461.661011
30
0.000000
0
VERTEX
5
e0d
8
0-0
10
855.315979
20
464.049011
30
0.000000
0
VERTEX
5
e0e
8
0-0
10
852.812012
20
466.156006
30
0.000000
0
VERTEX
5
e0f
8
0-0
10
850.179016
20
467.966003
30
0.000000
0
VERTEX
5
e10
8
0-0
10
847.435974
20
469.464996
30
0.000000
0
VERTEX
5
e11
8
0-0
10
844.606018
20
470.641998
30
0.000000
0
VERTEX
5
e12
8
0-0
10
841.708008
20
471.487000
30
0.000000
0
VERTEX
5
e13
8
0-0
10
838.765991
20
471.994995
30
0.000000
0
VERTEX
5
e14
8
0-0
10
835.802002
20
472.161987
30
0.000000
0
VERTEX
5
e15
8
0-0
10
832.838013
20
471.985992
30
0.000000
0
VERTEX
5
e16
8
0-0
10
829.895996
20
471.468994
30
0.000000
0
VERTEX
5
e17
8
0-0
10
827.000000
20
470.614014
30
0.000000
0
VERTEX
5
e18
8
0-0
10
824.171997
20
469.428009
30
0.000000
0
VERTEX
5
e19
8
0-0
10
821.432007
20
467.920013
30
0.000000
0
VERTEX
5
e1a
8
0-0
10
818.802002
20
466.101990
30
0.000000
0
VERTEX
5
e1b
8
0-0
10
816.302002
20
463.987000
30
0.000000
0
VERTEX
5
e1c
8
0-0
10
813.950989
20
461.591003
30
0.000000
0
VERTEX
5
e1d
8
0-0
10
811.767029
20
458.933990
30
0.000000
0
VERTEX
5
e1e
8
0-0
10
809.765015
20
456.033997
30
0.000000
0
VERTEX
5
e1f
8
0-0
10
807.963013
20
452.915009
30
0.000000
0
VERTEX
5
e20
8
0-0
10
806.372986
20
449.598999
30
0.000000
0
VERTEX
5
e21
8
0-0
10
805.007019
20
446.113007
30
0.000000
0
VERTEX
5
e22
8
0-0
10
803.875977
20
442.481995
30
0.000000
0
VERTEX
5
e23
8
0-0
10
802.989014
20
438.734985
30
0.000000
0
VERTEX
5
e24
8
0-0
10
802.351013
20
434.898987
30
0.000000
0
VERTEX
5
e25
8
0-0
10
801.968994
20
431.003998
30
0.000000
0
VERTEX
5
e26
8
0-0
10
801.844971
20
427.080994
30
0.000000
0
VERTEX
5
e27
8
0-0
10
801.979980
20
423.157990
30
0.000000
0
VERTEX
5
e28
8
0-0
10
802.372986
20
419.265015
30
0.000000
0
VERTEX
5
e29
8
0-0
10
803.020020
20
415.432007
30
0.000000
0
VERTEX
5
e2a
8
0-0
10
803.918030
20
411.688995
30
0.000000
0
VERTEX
5
e2b
8
0-0
10
805.059021
20
408.063995
30
0.000000
0
VERTEX
5
e2c
8
0-0
10
806.434021
20
404.584015
30
0.000000
0
VERTEX
5
e2d
8
0-0
10
808.033020
20
401.276001
30
0.000000
0
VERTEX
5
e2e
8
0-0
10
809.843994
20
398.165009
30
0.000000
0
VERTEX
5
e2f
8
0-0
10
811.854004
20
395.274994
30
0.000000
0
VERTEX
5
e30
8
0-0
10
814.044983
20
392.627991
30
0.000000
0
VERTEX
5
e31
8
0-0
10
816.403015
20
390.243988
30
0.000000
0
VERTEX
5
e32
8
0-0
10
818.908997
20
388.140991
30
0.000000
0
VERTEX
5
e33
8
0-0
10
821.544006
20
386.335999
30
0.000000
0
VERTEX
5
e34
8
0-0
10
824.288025
20
384.841003
30
0.000000
0
VERTEX
5
e35
8
0-0
10
827.119019
20
383.669006
30
0.000000
0
VERTEX
5
e36
8
0-0
10
830.017029
20
382.828003
30
0.000000
0
VERTEX
5
e37
8
0-0
10
832.960022
20
382.324005
30
0.000000
0
VERTEX
5
e38
8
0-0
10
835.843018
20
382.161987
30
0.000000
0
SEQEND
5
e39
8
0-0
0
ARC
5
e3a
8
0-0
6
CONTINUOUS
62
  7
10
811.311
20
505.860
30
0.0
40
38.986
50
297.777466
51
331.340027
0
ARC
5
e3b
8
0-0
6
CONTINUOUS
62
  7
10
855.258
20
392.320
30
0.0
40
10.563
50
278.818481
51
305.200592
0
POLYLINE
5
e3c
8
0-0
6
CONTINUOUS
62
  7
66
1
10
0.000000
20
0.000000
30
0.000000
70
0
0
VERTEX
5
e3d
8
0-0
10
861.346008
20
383.688995
30
0.000000
0
VERTEX
5
e3e
8
0-0
10
864.267029
20
386.647003
30
0.000000
0
VERTEX
5
e3f
8
0-0
10
866.971985
20
389.914001
30
0.000000
0
VERTEX
5
e40
8
0-0
10
869.439026
20
393.464996
30
0.000000
0
VERTEX
5
e41
8
0-0
10
871.650024
20
397.272003
30
0.000000
0
VERTEX
5
e42
8
0-0
10
873.588989
20
401.307007
30
0.000000
0
VERTEX
5
e43
8
0-0
10
875.239990
20
405.539001
30
0.000000
0
VERTEX
5
e44
8
0-0
10
876.591003
20
409.934998
30
0.000000
0
VERTEX
5
e45
8
0-0
10
877.632019
20
414.463013
30
0.000000
0
VERTEX
5
e46
8
0-0
10
878.354004
20
419.088013
30
0.000000
0
VERTEX
5
e47
8
0-0
10
878.752991
20
423.773987
30
0.000000
0
VERTEX
5
e48
8
0-0
10
878.825012
20
428.485992
30
0.000000
0
VERTEX
5
e49
8
0-0
10
878.568970
20
433.187012
30
0.000000
0
VERTEX
5
e4a
8
0-0
10
877.987976
20
437.842987
30
0.000000
0
VERTEX
5
e4b
8
0-0
10
877.085999
20
442.417999
30
0.000000
0
VERTEX
5
e4c
8
0-0
10
876.450012
20
444.906006
30
0.000000
0
SEQEND
5
e4d
8
0-0
0
POLYLINE
5
e4e
8
0-0
6
CONTINUOUS
62
  7
66
1
10
0.000000
20
0.000000
30
0.000000
70
1
0
VERTEX
5
e4f
8
0-0
10
345.678986
20
804.353027
30
0.000000
0
VERTEX
5
e50
8
0-0
10
345.850006
20
801.388977
30
0.000000
0
VERTEX
5
e51
8
0-0
10
346.363007
20
798.447021
30
0.000000
0
VERTEX
5
e52
8
0-0
10
347.213989
20
795.549988
30
0.000000
0
VERTEX
5
e53
8
0-0
10
348.394989
20
792.721008
30
0.000000
0
VERTEX
5
e54
8
0-0
10
349.898010
20
789.979980
30
0.000000
0
VERTEX
5
e55
8
0-0
10
351.712006
20
787.348022
30
0.000000
0
VERTEX
5
e56
8
0-0
10
353.822998
20
784.846008
30
0.000000
0
VERTEX
5
e57
8
0-0
10
356.214996
20
782.492981
30
0.000000
0
VERTEX
5
e58
8
0-0
10
358.868988
20
780.306030
30
0.000000
0
VERTEX
5
e59
8
0-0
10
361.765015
20
778.302002
30
0.000000
0
VERTEX
5
e5a
8
0-0
10
364.881989
20
776.497009
30
0.000000
0
VERTEX
5
e5b
8
0-0
10
368.195007
20
774.903015
30
0.000000
0
VERTEX
5
e5c
8
0-0
10
371.678986
20
773.533997
30
0.000000
0
VERTEX
5
e5d
8
0-0
10
375.308014
20
772.400024
30
0.000000
0
VERTEX
5
e5e
8
0-0
10
379.053986
20
771.508972
30
0.000000
0
VERTEX
5
e5f
8
0-0
10
382.888000
20
770.869019
30
0.000000
0
VERTEX
5
e60
8
0-0
10
386.782013
20
770.482971
30
0.000000
0
VERTEX
5
e61
8
0-0
10
390.705994
20
770.354980
30
0.000000
0
VERTEX
5
e62
8
0-0
10
394.628998
20
770.487000
30
0.000000
0
VERTEX
5
e63
8
0-0
10
398.523010
20
770.875977
30
0.000000
0
VERTEX
5
e64
8
0-0
10
402.355988
20
771.520020
30
0.000000
0
VERTEX
5
e65
8
0-0
10
406.101013
20
772.414001
30
0.000000
0
VERTEX
5
e66
8
0-0
10
409.727997
20
773.552002
30
0.000000
0
VERTEX
5
e67
8
0-0
10
413.209991
20
774.924011
30
0.000000
0
VERTEX
5
e68
8
0-0
10
416.520996
20
776.520020
30
0.000000
0
VERTEX
5
e69
8
0-0
10
419.634003
20
778.328003
30
0.000000
0
VERTEX
5
e6a
8
0-0
10
422.528015
20
780.335022
30
0.000000
0
VERTEX
5
e6b
8
0-0
10
425.178009
20
782.523987
30
0.000000
0
VERTEX
5
e6c
8
0-0
10
427.566010
20
784.880005
30
0.000000
0
VERTEX
5
e6d
8
0-0
10
429.673004
20
787.383972
30
0.000000
0
VERTEX
5
e6e
8
0-0
10
431.483002
20
790.017029
30
0.000000
0
VERTEX
5
e6f
8
0-0
10
432.981995
20
792.758972
30
0.000000
0
VERTEX
5
e70
8
0-0
10
434.158997
20
795.590027
30
0.000000
0
VERTEX
5
e71
8
0-0
10
435.003998
20
798.487000
30
0.000000
0
VERTEX
5
e72
8
0-0
10
435.511993
20
801.429993
30
0.000000
0
VERTEX
5
e73
8
0-0
10
435.678986
20
804.393982
30
0.000000
0
VERTEX
5
e74
8
0-0
10
435.502991
20
807.357971
30
0.000000
0
VERTEX
5
e75
8
0-0
10
434.984985
20
810.299011
30
0.000000
0
VERTEX
5
e76
8
0-0
10
434.130005
20
813.195007
30
0.000000
0
VERTEX
5
e77
8
0-0
10
432.945007
20
816.023987
30
0.000000
0
VERTEX
5
e78
8
0-0
10
431.437012
20
818.763000
30
0.000000
0
VERTEX
5
e79
8
0-0
10
429.618011
20
821.393005
30
0.000000
0
VERTEX
5
e7a
8
0-0
10
427.503998
20
823.893005
30
0.000000
0
VERTEX
5
e7b
8
0-0
10
425.108002
20
826.244995
30
0.000000
0
VERTEX
5
e7c
8
0-0
10
422.450989
20
828.429016
30
0.000000
0
VERTEX
5
e7d
8
0-0
10
419.550995
20
830.429993
30
0.000000
0
VERTEX
5
e7e
8
0-0
10
416.432007
20
832.232971
30
0.000000
0
VERTEX
5
e7f
8
0-0
10
413.115997
20
833.822998
30
0.000000
0
VERTEX
5
e80
8
0-0
10
409.630005
20
835.189026
30
0.000000
0
VERTEX
5
e81
8
0-0
10
405.998993
20
836.320007
30
0.000000
0
VERTEX
5
e82
8
0-0
10
402.251007
20
837.206970
30
0.000000
0
VERTEX
5
e83
8
0-0
10
398.415985
20
837.843994
30
0.000000
0
VERTEX
5
e84
8
0-0
10
394.520996
20
838.226013
30
0.000000
0
VERTEX
5
e85
8
0-0
10
390.596985
20
838.349976
30
0.000000
0
VERTEX
5
e86
8
0-0
10
386.674011
20
838.215027
30
0.000000
0
VERTEX
5
e87
8
0-0
10
382.781006
20
837.822998
30
0.000000
0
VERTEX
5
e88
8
0-0
10
378.949005
20
837.174988
30
0.000000
0
VERTEX
5
e89
8
0-0
10
375.205994
20
836.276978
30
0.000000
0
VERTEX
5
e8a
8
0-0
10
371.579987
20
835.135986
30
0.000000
0
VERTEX
5
e8b
8
0-0
10
368.100006
20
833.760986
30
0.000000
0
VERTEX
5
e8c
8
0-0
10
364.791992
20
832.161987
30
0.000000
0
VERTEX
5
e8d
8
0-0
10
361.682007
20
830.351013
30
0.000000
0
VERTEX
5
e8e
8
0-0
10
358.791992
20
828.341980
30
0.000000
0
VERTEX
5
e8f
8
0-0
10
356.144989
20
826.150024
30
0.000000
0
VERTEX
5
e90
8
0-0
10
353.760986
20
823.791992
30
0.000000
0
VERTEX
5
e91
8
0-0
10
351.657990
20
821.286011
30
0.000000
0
VERTEX
5
e92
8
0-0
10
349.851990
20
818.651001
30
0.000000
0
VERTEX
5
e93
8
0-0
10
348.358002
20
815.906982
30
0.000000
0
VERTEX
5
e94
8
0-0
10
347.184998
20
813.075989
30
0.000000
0
VERTEX
5
e95
8
0-0
10
346.343994
20
810.177979
30
0.000000
0
VERTEX
5
e96
8
0-0
10
345.841003
20
807.234985
30
0.000000
0
VERTEX
5
e97
8
0-0
10
345.678986
20
804.353027
30
0.000000
0
SEQEND
5
e98
8
0-0
0
ARC
5
e99
8
0-0
6
CONTINUOUS
62
  7
10
469.377
20
779.821
30
0.0
40
38.986
50
118.659958
51
152.222534
0
ARC
5
e9a
8
0-0
6
CONTINUOUS
62
  7
10
355.837
20
823.768
30
0.0
40
10.563
50
144.799408
51
171.181519
0
POLYLINE
5
e9b
8
0-0
6
CONTINUOUS
62
  7
66
1
10
0.000000
20
0.000000
30
0.000000
70
0
0
VERTEX
5
e9c
8
0-0
10
408.423004
20
844.960022
30
0.000000
0
VERTEX
5
e9d
8
0-0
10
403.908997
20
846.036987
30
0.000000
0
VERTEX
5
e9e
8
0-0
10
399.294006
20
846.796997
30
0.000000
0
VERTEX
5
e9f
8
0-0
10
394.613007
20
847.232971
30
0.000000
0
VERTEX
5
ea0
8
0-0
10
389.902008
20
847.343018
30
0.000000
0
VERTEX
5
ea1
8
0-0
10
385.197998
20
847.125977
30
0.000000
0
VERTEX
5
ea2
8
0-0
10
380.535004
20
846.581970
30
0.000000
0
VERTEX
5
ea3
8
0-0
10
375.949005
20
845.716980
30
0.000000
0
VERTEX
5
ea4
8
0-0
10
371.475006
20
844.536987
30
0.000000
0
VERTEX
5
ea5
8
0-0
10
367.148010
20
843.051025
30
0.000000
0
VERTEX
5
ea6
8
0-0
10
363.000000
20
841.270020
30
0.000000
0
VERTEX
5
ea7
8
0-0
10
359.062988
20
839.208008
30
0.000000
0
VERTEX
5
ea8
8
0-0
10
355.365997
20
836.880005
30
0.000000
0
VERTEX
5
ea9
8
0-0
10
351.938995
20
834.304993
30
0.000000
0
VERTEX
5
eaa
8
0-0
10
348.806000
20
831.502014
30
0.000000
0
VERTEX
5
eab
8
0-0
10
347.205994
20
829.856995
30
0.000000
0
SEQEND
5
eac
8
0-0
0
CIRCLE
5
ead
8
0-0
6
CONTINUOUS
62
  7
10
320.679
20
1072.432
30
0.0
40
45.000
0
ARC
5
eae
8
0-0
6
CONTINUOUS
62
  7
10
846.082
20
1169.649
30
0.0
40
576.797
50
192.016739
51
213.604187
0
ARC
5
eaf
8
0-0
6
CONTINUOUS
62
  7
10
1263.887
20
454.488
30
0.0
40
71.281
50
185.853683
51
264.146271
0
ARC
5
eb0
8
0-0
6
CONTINUOUS
62
  7
10
1133.383
20
1269.788
30
0.0
40
800.742
50
274.488495
51
303.187500
0
ARC
5
eb1
8
0-0
6
CONTINUOUS
62
  7
10
1566.745
20
605.753
30
0.0
40
22.821
50
305.213348
51
312.969604
0
ARC
5
eb2
8
0-0
6
CONTINUOUS
62
  7
10
1215.941
20
449.433
30
0.0
40
8.758
50
95.020737
51
176.511719
0
ARC
5
eb3
8
0-0
6
CONTINUOUS
62
  7
10
1133.383
20
1269.788
30
0.0
40
815.742
50
275.754517
51
303.187500
0
ARC
5
eb4
8
0-0
6
CONTINUOUS
62
  7
10
1267.173
20
452.037
30
0.0
40
60.009
50
181.977585
51
268.022400
0
ARC
5
eb5
8
0-0
6
CONTINUOUS
62
  7
10
1111.413
20
469.869
30
0.0
40
84.651
50
344.479706
51
1.105682
0
ARC
5
eb6
8
0-0
6
CONTINUOUS
62
  7
10
1125.494
20
686.553
30
0.0
40
374.448
50
229.419464
51
268.994446
0
ARC
5
eb7
8
0-0
6
CONTINUOUS
62
  7
10
1145.652
20
765.872
30
0.0
40
409.583
50
222.880539
51
266.258179
0
CIRCLE
5
eb8
8
ADD_LINE
6
HIDDEN
62
  3
10
1118.922
20
312.162
30
0.0
40
3.000
0
ARC
5
eb9
8
0-0
6
CONTINUOUS
62
  7
10
1153.581
20
866.960
30
0.0
40
489.027
50
230.953857
51
265.935852
0
ARC
5
eba
8
0-0
6
CONTINUOUS
62
  7
10
846.082
20
1169.649
30
0.0
40
531.797
50
195.313614
51
221.967651
0
ARC
5
ebb
8
0-0
6
CONTINUOUS
62
  7
10
342.463
20
1072.432
30
0.0
40
50.636
50
297.289429
51
62.710571
0
ARC
5
ebc
8
0-0
6
CONTINUOUS
62
  7
10
754.913
20
1058.839
30
0.0
40
390.499
50
184.613068
51
218.822678
0
TEXT
5
ebd
100
AcDbEntity
8
0-0
62
7
100
AcDbText
10
957.047
20
645.608
30
0.0
40
9.750
41
0.800
50
0.000
1
305
100
AcDbText
0
TEXT
5
ebe
100
AcDbEntity
8
0-0
62
7
100
AcDbText
10
957.047
20
1298.311
30
0.0
40
9.750
41
0.800
50
0.000
1
305
100
AcDbText
0
TEXT
5
ebf
100
AcDbEntity
8
0-0
62
7
100
AcDbText
10
934.547
20
1260.819
30
0.0
40
9.750
41
0.800
50
0.000
1
260
100
AcDbText
0
TEXT
5
ec0
100
AcDbEntity
8
0-0
62
7
100
AcDbText
10
1090.172
20
1260.819
30
0.0
40
9.750
41
0.800
50
0.000
1
45
100
AcDbText
0
TEXT
5
ec1
100
AcDbEntity
8
0-0
62
7
100
AcDbText
10
1314.125
20
938.057
30
0.0
40
9.750
41
0.800
50
90.000
1
330
100
AcDbText
0
TEXT
5
ec2
100
AcDbEntity
8
0-0
62
7
100
AcDbText
10
1253.314
20
908.058
30
0.0
40
9.750
41
0.800
50
90.000
1
270
100
AcDbText
0
TEXT
5
ec3
100
AcDbEntity
8
0-0
62
7
100
AcDbText
10
580.341
20
932.047
30
0.0
40
9.750
41
0.800
50
90.000
1
340
100
AcDbText
0
TEXT
5
ec4
100
AcDbEntity
8
0-0
62
7
100
AcDbText
10
1173.414
20
328.412
30
0.0
40
9.750
41
0.800
50
90.000
1
45
100
AcDbText
0
POINT
5
ec5
8
0-0
62
  7
10
813.922
20
643.108
30
0.0
0
POINT
5
ec6
8
0-0
62
  7
10
1118.922
20
643.108
30
0.0
0
POINT
5
ec7
8
0-0
62
  7
10
813.922
20
1295.811
30
0.0
0
POINT
5
ec8
8
0-0
62
  7
10
1118.922
20
1295.811
30
0.0
0
POINT
5
ec9
8
0-0
62
  7
10
813.922
20
1258.319
30
0.0
0
POINT
5
eca
8
0-0
62
  7
10
1073.922
20
1258.319
30
0.0
0
POINT
5
ecb
8
0-0
62
  7
10
1118.922
20
1258.319
30
0.0
0
POINT
5
ecc
8
0-0
62
  7
10
1316.625
20
782.432
30
0.0
0
POINT
5
ecd
8
0-0
62
  7
10
1316.625
20
1112.432
30
0.0
0
POINT
5
ece
8
0-0
62
  7
10
1255.814
20
782.433
30
0.0
0
POINT
5
ecf
8
0-0
62
  7
10
1255.814
20
1052.432
30
0.0
0
POINT
5
ed0
8
0-0
62
  7
10
582.841
20
770.412
30
0.0
0
POINT
5
ed1
8
0-0
62
  7
10
582.841
20
1112.432
30
0.0
0
POINT
5
ed2
8
0-0
62
  7
10
1175.914
20
312.162
30
0.0
0
POINT
5
ed3
8
0-0
62
  7
10
1175.914
20
357.162
30
0.0
0
ENDSEC
0
EOF
