0
SECTION
2
HEADER
  9
$EXTMIN
10
0
20
0
30
0
  9
$EXTMAX
10
2080.513
20
1481.220
30
0
  9
$LTSCALE
40
5.000
  9
$DIMSCALE
40
5.000
  9
$PDMODE
70
0
  9
$PDSIZE
40
40
0
ENDSEC
0
SECTION
2
TABLES
0
TABLE
2
LTYPE
70
9
0
LTYPE
5
1f4
2
CONTINUOUS
70
0
3
実線
72
65
73
0
40
0.0
0
LTYPE
5
1f5
2
DOT
70
0
3
--  --  --  --  --  --  --  --     
72
65
73
2
40
5.000
49
1.000
49
-4.000
0
LTYPE
5
1f6
2
DASHED
70
0
3
----    ----    ----    ----    
72
65
73
2
40
5.000
49
2.000
49
-3.000
0
LTYPE
5
1f7
2
DASHED2
70
0
3
------  ------  ------  ------ 
72
65
73
2
40
10.000
49
4.000
49
-6.000
0
LTYPE
5
1f8
2
CENTER
70
0
3
----- - ----- - ----- - ----- - 
72
65
73
4
40
9.000
49
6.000
49
-1.000
49
1.000
49
-1.000
0
LTYPE
5
1f9
2
CENTER2
70
0
3
----------  --  ----------  -- 
72
65
73
4
40
18.000
49
12.000
49
-2.000
49
2.000
49
-2.000
0
LTYPE
5
1fa
2
PHANTOM
70
0
3
--- - - --- - - --- - - --- - -
72
65
73
6
40
10.000
49
5.000
49
-1.000
49
1.000
49
-1.000
49
1.000
49
-1.000
0
LTYPE
5
1fb
2
PHANTOM2
70
0
3
--------  -  -  --------  -  -
72
65
73
6
40
16.000
49
6.000
49
-2.000
49
2.000
49
-2.000
49
2.000
49
-2.000
0
LTYPE
5
1fc
2
HIDDEN
70
0
3
-   -   -   -   -   -   -   -   
72
65
73
2
40
2.500
49
0.500
49
-2.000
0
ENDTAB
0
TABLE
2
STYLE
70
1
0
STYLE
5
1fd
100
AcDbSymbolTableRecord
100
AcDbTextStyleTableRecord
2
STANDARD
70
0
40
0.0
41
1.0
50
0.0
71
0
42
0.0
3
txt.shx
4
extfont.shx
0
STYLE
5
1fe
100
AcDbSymbolTableRecord
100
AcDbTextStyleTableRecord
2
TATEGAKI
70
4
40
0.0
41
1.0
50
0.0
71
0
42
0.0
3
txt.shx
4
extfont.shx
0
STYLE
5
1ff
100
AcDbSymbolTableRecord
100
AcDbTextStyleTableRecord
2
MT
70
0
40
0.0
41
1.0
50
0.0
71
0
42
0.0
3
MS Mincho
4

0
STYLE
5
200
100
AcDbSymbolTableRecord
100
AcDbTextStyleTableRecord
2
TMT
70
4
40
0.0
41
1.0
50
0.0
71
0
42
0.0
3
@MS Mincho
4

0
ENDTAB
0
TABLE
2
LAYER
5
3e8
100
AcDbSymbolTable
70
10
0
LAYER
5
3e9
100
AcDbSymbolTableRecord
100
AcDbLayerTableRecord
2
0
70
64
62
  7
  6
CONTINUOUS
0
LAYER
5
3ea
100
AcDbSymbolTableRecord
100
AcDbLayerTableRecord
2
0-0
70
64
62
  7
  6
CONTINUOUS
0
LAYER
5
3eb
100
AcDbSymbolTableRecord
100
AcDbLayerTableRecord
2
0-1
70
64
62
  7
  6
CONTINUOUS
0
LAYER
5
3ec
100
AcDbSymbolTableRecord
100
AcDbLayerTableRecord
2
ADD_LINE
70
64
62
  -7
  6
CONTINUOUS
0
ENDTAB
0
ENDSEC
0
SECTION
2
ENTITIES
0
LINE
5
3ed
8
0-0
6
CONTINUOUS
62
  7
10
522.973
20
1071.757
30
0.0
11
565.973
21
1071.757
31
0.0
0
LINE
5
3ee
8
0-0
6
CONTINUOUS
62
  7
10
567.973
20
1106.757
30
0.0
11
565.973
21
1071.757
31
0.0
0
LINE
5
3ef
8
0-0
6
CONTINUOUS
62
  7
10
567.973
20
1106.757
30
0.0
11
822.973
21
1106.757
31
0.0
0
LINE
5
3f0
8
0-0
6
CONTINUOUS
62
  7
10
522.973
20
1071.757
30
0.0
11
522.973
21
826.757
31
0.0
0
LINE
5
3f1
8
0-0
6
CONTINUOUS
62
  7
10
822.973
20
1106.757
30
0.0
11
822.973
21
826.757
31
0.0
0
LINE
5
3f2
8
0-0
6
CONTINUOUS
62
  7
10
622.973
20
811.757
30
0.0
11
828.973
21
811.757
31
0.0
0
LINE
5
3f3
8
0-0
6
CONTINUOUS
62
  7
10
814.973
20
1106.757
30
0.0
11
814.973
21
856.757
31
0.0
0
LINE
5
3f4
8
0-0
6
CONTINUOUS
62
  7
10
814.973
20
856.757
30
0.0
11
822.973
21
856.757
31
0.0
0
LINE
5
3f5
8
0-0
6
CONTINUOUS
62
  7
10
1124.919
20
811.757
30
0.0
11
1161.919
21
807.868
31
0.0
0
LINE
5
3f6
8
0-0
6
CONTINUOUS
62
  7
10
1142.919
20
827.964
30
0.0
11
1160.320
21
826.135
31
0.0
0
LINE
5
3f7
8
0-0
6
CONTINUOUS
62
  7
10
1124.919
20
811.757
30
0.0
11
1124.919
21
1106.757
31
0.0
0
LINE
5
3f8
8
0-0
6
CONTINUOUS
62
  7
10
1142.919
20
827.964
30
0.0
11
1142.919
21
1106.757
31
0.0
0
LINE
5
3f9
8
0-0
6
CONTINUOUS
62
  7
10
1124.919
20
1106.757
30
0.0
11
1142.919
21
1106.757
31
0.0
0
LINE
5
3fa
8
0-0
6
CONTINUOUS
62
  7
10
1124.919
20
1106.757
30
0.0
11
1088.919
21
1106.757
31
0.0
0
LINE
5
3fb
8
0-0
6
CONTINUOUS
62
  7
10
1088.919
20
815.541
30
0.0
11
1088.919
21
1106.757
31
0.0
0
LINE
5
3fc
8
0-0
6
CONTINUOUS
62
  7
10
1124.919
20
811.757
30
0.0
11
1088.919
21
815.541
31
0.0
0
LINE
5
3fd
8
0-0
6
CONTINUOUS
62
  7
10
522.973
20
1297.297
30
0.0
11
822.973
21
1297.297
31
0.0
0
LINE
5
3fe
8
0-0
6
CONTINUOUS
62
  7
10
522.973
20
1147.297
30
0.0
11
522.973
21
1297.297
31
0.0
0
LINE
5
3ff
8
0-0
6
CONTINUOUS
62
  7
10
822.973
20
1147.297
30
0.0
11
822.973
21
1297.297
31
0.0
0
LINE
5
400
8
0-0
6
CONTINUOUS
62
  7
10
522.973
20
1240.541
30
0.0
11
567.973
21
1240.541
31
0.0
0
LINE
5
401
8
0-0
6
CONTINUOUS
62
  7
10
522.973
20
1147.297
30
0.0
11
522.973
21
1240.541
31
0.0
0
LINE
5
402
8
0-0
6
CONTINUOUS
62
  7
10
567.973
20
1147.297
30
0.0
11
567.973
21
1240.541
31
0.0
0
LINE
5
403
8
0-0
6
CONTINUOUS
62
  7
10
567.973
20
1240.541
30
0.0
11
822.973
21
1240.541
31
0.0
0
LINE
5
404
8
0-0
6
CONTINUOUS
62
  7
10
822.973
20
1147.297
30
0.0
11
822.973
21
1240.541
31
0.0
0
LINE
5
405
8
0-0
6
CONTINUOUS
62
  7
10
522.973
20
713.514
30
0.0
11
828.973
21
713.514
31
0.0
0
LINE
5
406
8
0-0
6
CONTINUOUS
62
  7
10
522.973
20
766.216
30
0.0
11
522.973
21
713.514
31
0.0
0
LINE
5
407
8
0-0
6
CONTINUOUS
62
  7
10
828.973
20
766.216
30
0.0
11
828.973
21
713.514
31
0.0
0
LINE
5
408
8
0-0
6
CONTINUOUS
62
  7
10
273.567
20
1106.757
30
0.0
11
273.567
21
811.757
31
0.0
0
LINE
5
409
8
0-0
6
CONTINUOUS
62
  7
10
456.000
20
1106.757
30
0.0
11
273.567
21
1106.757
31
0.0
0
LINE
5
40a
8
0-0
6
CONTINUOUS
62
  7
10
456.000
20
811.757
30
0.0
11
273.567
21
811.757
31
0.0
0
LINE
5
40b
8
0-0
6
CONTINUOUS
62
  7
10
273.567
20
468.826
30
0.0
11
273.567
21
445.946
31
0.0
0
LINE
5
40c
8
0-0
6
CONTINUOUS
62
  7
10
456.000
20
468.826
30
0.0
11
273.567
21
468.826
31
0.0
0
LINE
5
40d
8
0-0
6
CONTINUOUS
62
  7
10
456.000
20
445.946
30
0.0
11
273.567
21
445.946
31
0.0
0
LINE
5
40e
8
0-0
6
CONTINUOUS
62
  7
10
338.432
20
1106.757
30
0.0
11
338.432
21
1071.757
31
0.0
0
LINE
5
40f
8
0-0
6
CONTINUOUS
62
  7
10
456.000
20
1106.757
30
0.0
11
338.432
21
1106.757
31
0.0
0
LINE
5
410
8
0-0
6
CONTINUOUS
62
  7
10
456.000
20
1071.757
30
0.0
11
338.432
21
1071.757
31
0.0
0
LINE
5
411
8
0-0
6
CONTINUOUS
62
  7
10
1124.919
20
1240.541
30
0.0
11
1142.919
21
1240.541
31
0.0
0
LINE
5
412
8
0-0
6
CONTINUOUS
62
  7
10
1124.919
20
1147.297
30
0.0
11
1124.919
21
1240.541
31
0.0
0
LINE
5
413
8
0-0
6
CONTINUOUS
62
  7
10
1142.919
20
1147.297
30
0.0
11
1142.919
21
1240.541
31
0.0
0
LINE
5
414
8
ADD_LINE
6
HIDDEN
62
  3
10
522.973
20
362.654
30
0.0
11
522.973
21
533.112
31
0.0
0
LINE
5
415
8
0-0
6
CONTINUOUS
62
  7
10
1161.919
20
807.868
30
0.0
11
1184.919
21
805.451
31
0.0
0
LINE
5
416
8
0-0
6
CONTINUOUS
62
  7
10
1184.919
20
823.550
30
0.0
11
1184.919
21
805.451
31
0.0
0
LINE
5
417
8
0-0
6
CONTINUOUS
62
  7
10
1160.320
20
826.135
30
0.0
11
1184.919
21
823.550
31
0.0
0
LINE
5
418
8
0-0
6
CONTINUOUS
62
  7
10
1124.919
20
713.514
30
0.0
11
1184.919
21
713.514
31
0.0
0
LINE
5
419
8
0-0
6
CONTINUOUS
62
  7
10
1124.919
20
766.216
30
0.0
11
1124.919
21
713.514
31
0.0
0
LINE
5
41a
8
0-0
6
CONTINUOUS
62
  7
10
1184.919
20
766.216
30
0.0
11
1184.919
21
713.514
31
0.0
0
LINE
5
41b
8
ADD_LINE
6
HIDDEN
62
  3
10
787.973
20
362.654
30
0.0
11
787.973
21
533.112
31
0.0
0
LINE
5
41c
8
0-0
6
CONTINUOUS
62
  7
10
523.678
20
452.822
30
0.0
11
522.973
21
445.946
31
0.0
0
LINE
5
41d
8
0-0
6
CONTINUOUS
62
  7
10
523.678
20
452.822
30
0.0
11
522.973
21
445.946
31
0.0
0
LINE
5
41e
8
0-0
6
CONTINUOUS
62
  7
10
525.319
20
468.826
30
0.0
11
523.678
21
452.822
31
0.0
0
LINE
5
41f
8
0-0
6
CONTINUOUS
62
  7
10
553.677
20
484.951
30
0.0
11
525.319
21
468.826
31
0.0
0
LINE
5
420
8
ADD_LINE
6
HIDDEN
62
  3
10
522.973
20
362.654
30
0.0
11
522.973
21
533.112
31
0.0
0
LINE
5
421
8
ADD_LINE
6
HIDDEN
62
  3
10
501.111
20
445.946
30
0.0
11
564.387
21
445.946
31
0.0
0
LINE
5
422
8
ADD_LINE
6
HIDDEN
62
  3
10
787.973
20
362.654
30
0.0
11
787.973
21
533.112
31
0.0
0
LINE
5
423
8
0-0
6
CONTINUOUS
62
  7
10
558.528
20
459.373
30
0.0
11
558.528
21
419.362
31
0.0
0
LINE
5
424
8
ADD_LINE
6
HIDDEN
62
  3
10
766.111
20
445.946
30
0.0
11
829.387
21
445.946
31
0.0
0
LINE
5
425
8
0-0
6
CONTINUOUS
62
  7
10
823.528
20
459.337
30
0.0
11
823.528
21
419.362
31
0.0
0
LINE
5
426
8
ADD_LINE
6
HIDDEN
62
  3
10
1041.892
20
362.654
30
0.0
11
1041.892
21
533.112
31
0.0
0
LINE
5
427
8
ADD_LINE
6
HIDDEN
62
  3
10
1306.892
20
362.654
30
0.0
11
1306.892
21
533.112
31
0.0
0
LINE
5
428
8
0-0
6
CONTINUOUS
62
  7
10
1042.597
20
452.822
30
0.0
11
1041.892
21
445.946
31
0.0
0
LINE
5
429
8
0-0
6
CONTINUOUS
62
  7
10
1042.597
20
452.822
30
0.0
11
1041.892
21
445.946
31
0.0
0
LINE
5
42a
8
0-0
6
CONTINUOUS
62
  7
10
1044.237
20
468.826
30
0.0
11
1042.597
21
452.822
31
0.0
0
LINE
5
42b
8
0-0
6
CONTINUOUS
62
  7
10
1072.596
20
484.951
30
0.0
11
1044.237
21
468.826
31
0.0
0
LINE
5
42c
8
ADD_LINE
6
HIDDEN
62
  3
10
1041.892
20
362.654
30
0.0
11
1041.892
21
533.112
31
0.0
0
LINE
5
42d
8
ADD_LINE
6
HIDDEN
62
  3
10
1020.030
20
445.946
30
0.0
11
1083.306
21
445.946
31
0.0
0
LINE
5
42e
8
ADD_LINE
6
HIDDEN
62
  3
10
1306.892
20
362.654
30
0.0
11
1306.892
21
533.112
31
0.0
0
LINE
5
42f
8
0-0
6
CONTINUOUS
62
  7
10
1077.447
20
459.373
30
0.0
11
1077.447
21
419.362
31
0.0
0
LINE
5
430
8
ADD_LINE
6
HIDDEN
62
  3
10
1285.030
20
445.946
30
0.0
11
1348.306
21
445.946
31
0.0
0
LINE
5
431
8
0-0
6
CONTINUOUS
62
  7
10
1342.447
20
459.337
30
0.0
11
1342.447
21
419.362
31
0.0
0
LINE
5
432
8
0-0
6
CONTINUOUS
62
  7
10
1307.597
20
452.822
30
0.0
11
1306.892
21
445.946
31
0.0
0
LINE
5
433
8
0-0
6
CONTINUOUS
62
  7
10
1307.597
20
452.822
30
0.0
11
1306.892
21
445.946
31
0.0
0
LINE
5
434
8
0-0
6
CONTINUOUS
62
  7
10
1309.238
20
468.826
30
0.0
11
1307.597
21
452.822
31
0.0
0
LINE
5
435
8
0-0
6
CONTINUOUS
62
  7
10
1337.596
20
484.951
30
0.0
11
1309.238
21
468.826
31
0.0
0
LINE
5
436
8
ADD_LINE
6
HIDDEN
62
  3
10
1285.030
20
445.946
30
0.0
11
1348.306
21
445.946
31
0.0
0
LINE
5
437
8
0-0
6
CONTINUOUS
62
  7
10
1342.447
20
459.373
30
0.0
11
1342.447
21
419.362
31
0.0
0
LINE
5
438
8
ADD_LINE
6
HIDDEN
62
  7
10
1610.091
20
460.596
30
0.0
11
1607.447
21
457.951
31
0.0
0
LINE
5
439
8
0-0
6
CONTINUOUS
62
  7
10
522.973
20
766.216
30
0.0
11
522.973
21
746.130
31
0.0
0
LINE
5
43a
8
0-0
6
CONTINUOUS
62
  4
10
828.973
20
446.425
30
0.0
11
823.528
21
440.981
31
0.0
0
LINE
5
43b
8
0-0
6
CONTINUOUS
62
  4
10
828.973
20
454.911
30
0.0
11
823.528
21
449.466
31
0.0
0
LINE
5
43c
8
0-0
6
CONTINUOUS
62
  4
10
828.973
20
437.940
30
0.0
11
823.528
21
432.495
31
0.0
0
LINE
5
43d
8
0-0
6
CONTINUOUS
62
  4
10
828.973
20
429.455
30
0.0
11
823.528
21
424.010
31
0.0
0
LINE
5
43e
8
0-0
6
CONTINUOUS
62
  7
10
828.973
20
461.972
30
0.0
11
828.973
21
423.094
31
0.0
0
LINE
5
43f
8
0-0
6
CONTINUOUS
62
  4
10
826.172
20
460.596
30
0.0
11
823.528
21
457.951
31
0.0
0
LINE
5
440
8
ADD_LINE
6
HIDDEN
62
  7
10
1612.892
20
454.911
30
0.0
11
1607.447
21
449.466
31
0.0
0
LINE
5
441
8
ADD_LINE
6
HIDDEN
62
  7
10
1612.892
20
437.941
30
0.0
11
1607.447
21
432.495
31
0.0
0
LINE
5
442
8
ADD_LINE
6
HIDDEN
62
  7
10
1612.892
20
429.455
30
0.0
11
1607.447
21
424.010
31
0.0
0
LINE
5
443
8
ADD_LINE
6
HIDDEN
62
  7
10
1612.892
20
446.426
30
0.0
11
1607.447
21
440.981
31
0.0
0
LINE
5
444
8
ADD_LINE
6
HIDDEN
62
  7
10
1612.892
20
423.094
30
0.0
11
1612.892
21
461.972
31
0.0
0
LINE
5
445
8
0-0
6
CONTINUOUS
62
  7
10
522.973
20
624.324
30
0.0
11
828.973
21
624.324
31
0.0
0
LINE
5
446
8
0-0
6
CONTINUOUS
62
  7
10
522.973
20
514.865
30
0.0
11
522.973
21
624.324
31
0.0
0
LINE
5
447
8
0-0
6
CONTINUOUS
62
  7
10
828.973
20
514.865
30
0.0
11
828.973
21
624.324
31
0.0
0
LINE
5
448
8
0-0
6
CONTINUOUS
62
  7
10
522.973
20
583.784
30
0.0
11
787.973
21
583.784
31
0.0
0
LINE
5
449
8
0-0
6
CONTINUOUS
62
  7
10
522.973
20
514.865
30
0.0
11
522.973
21
583.784
31
0.0
0
LINE
5
44a
8
0-0
6
CONTINUOUS
62
  7
10
787.973
20
514.865
30
0.0
11
787.973
21
583.784
31
0.0
0
LINE
5
44b
8
0-0
6
CONTINUOUS
62
  7
10
787.973
20
583.784
30
0.0
11
828.973
21
583.784
31
0.0
0
LINE
5
44c
8
0-0
6
CONTINUOUS
62
  7
10
828.973
20
514.865
30
0.0
11
828.973
21
583.784
31
0.0
0
LINE
5
44d
8
0-0
6
CONTINUOUS
62
  7
10
1041.892
20
583.784
30
0.0
11
1306.892
21
583.784
31
0.0
0
LINE
5
44e
8
0-0
6
CONTINUOUS
62
  7
10
1041.892
20
514.865
30
0.0
11
1041.892
21
583.784
31
0.0
0
LINE
5
44f
8
0-0
6
CONTINUOUS
62
  7
10
1306.892
20
514.865
30
0.0
11
1306.892
21
583.784
31
0.0
0
LINE
5
450
8
0-0
6
CONTINUOUS
62
  7
10
1306.892
20
583.784
30
0.0
11
1571.892
21
583.784
31
0.0
0
LINE
5
451
8
0-0
6
CONTINUOUS
62
  7
10
1571.892
20
514.865
30
0.0
11
1571.892
21
583.784
31
0.0
0
LINE
5
452
8
0-0
6
CONTINUOUS
62
  7
10
828.498
20
439.884
30
0.0
11
848.588
21
514.859
31
0.0
0
LINE
5
453
8
0-0
6
CONTINUOUS
62
  7
10
848.588
20
514.859
30
0.0
11
862.825
21
514.859
31
0.0
0
LINE
5
454
8
ADD_LINE
6
HIDDEN
62
  7
10
1607.447
20
459.337
30
0.0
11
1612.892
21
461.972
31
0.0
0
LINE
5
455
8
ADD_LINE
6
HIDDEN
62
  7
10
1607.447
20
419.362
30
0.0
11
1612.892
21
423.094
31
0.0
0
LINE
5
456
8
0-0
6
CONTINUOUS
62
  7
10
1610.066
20
439.884
30
0.0
11
1630.155
21
514.859
31
0.0
0
LINE
5
457
8
0-0
6
CONTINUOUS
62
  7
10
1630.155
20
514.859
30
0.0
11
1644.392
21
514.859
31
0.0
0
LINE
5
458
8
0-0
6
CONTINUOUS
62
  7
10
1607.447
20
459.337
30
0.0
11
1607.447
21
419.362
31
0.0
0
LINE
5
459
8
ADD_LINE
6
HIDDEN
62
  3
10
1571.892
20
445.946
30
0.0
11
1571.892
21
436.168
31
0.0
0
LINE
5
45a
8
ADD_LINE
6
HIDDEN
62
  3
10
1571.892
20
445.946
30
0.0
11
1571.892
21
456.254
31
0.0
0
LINE
5
45b
8
ADD_LINE
6
HIDDEN
62
  3
10
1550.030
20
445.946
30
0.0
11
1585.599
21
445.946
31
0.0
0
LINE
5
45c
8
0-0
6
CONTINUOUS
62
  7
10
1572.597
20
452.822
30
0.0
11
1571.892
21
445.946
31
0.0
0
LINE
5
45d
8
0-0
6
CONTINUOUS
62
  7
10
1572.597
20
452.822
30
0.0
11
1571.892
21
445.946
31
0.0
0
LINE
5
45e
8
0-0
6
CONTINUOUS
62
  7
10
1574.237
20
468.826
30
0.0
11
1572.597
21
452.822
31
0.0
0
LINE
5
45f
8
0-0
6
CONTINUOUS
62
  7
10
1602.596
20
484.951
30
0.0
11
1574.237
21
468.826
31
0.0
0
LINE
5
460
8
ADD_LINE
6
HIDDEN
62
  3
10
1550.030
20
445.946
30
0.0
11
1613.306
21
445.946
31
0.0
0
LINE
5
461
8
0-0
6
CONTINUOUS
62
  7
10
1607.447
20
459.373
30
0.0
11
1607.447
21
419.362
31
0.0
0
LINE
5
462
8
0-0
6
CONTINUOUS
62
  7
10
1872.447
20
459.337
30
0.0
11
1872.447
21
419.362
31
0.0
0
LINE
5
463
8
ADD_LINE
6
HIDDEN
62
  3
10
1836.892
20
462.062
30
0.0
11
1836.892
21
425.939
31
0.0
0
LINE
5
464
8
ADD_LINE
6
HIDDEN
62
  3
10
1815.030
20
445.946
30
0.0
11
1858.136
21
445.946
31
0.0
0
ARC
5
465
8
0-0
6
CONTINUOUS
62
  7
10
622.057
20
1146.488
30
0.0
40
334.732
50
252.781799
51
270.156677
0
ARC
5
466
8
0-0
6
CONTINUOUS
62
  7
10
850.086
20
828.902
30
0.0
40
27.198
50
184.523804
51
219.078842
0
CIRCLE
5
467
8
0-0
6
CONTINUOUS
62
  7
10
635.973
20
1086.757
30
0.0
40
3.000
0
CIRCLE
5
468
8
0-0
6
CONTINUOUS
62
  7
10
755.973
20
1086.757
30
0.0
40
3.000
0
ARC
5
469
8
0-0
6
CONTINUOUS
62
  7
10
737.348
20
728.386
30
0.0
40
294.246
50
235.860168
51
241.571106
0
ARC
5
46a
8
0-0
6
CONTINUOUS
62
  7
10
562.876
20
472.709
30
0.0
40
15.314
50
52.433243
51
126.920761
0
CIRCLE
5
46b
8
ADD_LINE
6
HIDDEN
62
  3
10
522.973
20
445.946
30
0.0
40
3.000
0
ARC
5
46c
8
0-0
6
CONTINUOUS
62
  7
10
451.086
20
690.087
30
0.0
40
254.504
50
646.406982
51
654.971069
0
CIRCLE
5
46d
8
ADD_LINE
6
HIDDEN
62
  3
10
787.973
20
445.946
30
0.0
40
3.000
0
ARC
5
46e
8
0-0
6
CONTINUOUS
62
  7
10
1256.267
20
728.386
30
0.0
40
294.246
50
235.860168
51
241.571106
0
ARC
5
46f
8
0-0
6
CONTINUOUS
62
  7
10
1081.795
20
472.709
30
0.0
40
15.314
50
52.433243
51
126.920761
0
CIRCLE
5
470
8
ADD_LINE
6
HIDDEN
62
  3
10
1041.892
20
445.946
30
0.0
40
3.000
0
ARC
5
471
8
0-0
6
CONTINUOUS
62
  7
10
970.005
20
690.087
30
0.0
40
254.504
50
646.406982
51
654.971069
0
CIRCLE
5
472
8
ADD_LINE
6
HIDDEN
62
  3
10
1306.892
20
445.946
30
0.0
40
3.000
0
ARC
5
473
8
0-0
6
CONTINUOUS
62
  7
10
1521.267
20
728.386
30
0.0
40
294.246
50
235.860168
51
241.571106
0
ARC
5
474
8
0-0
6
CONTINUOUS
62
  7
10
1346.795
20
472.709
30
0.0
40
15.314
50
52.433243
51
126.920761
0
CIRCLE
5
475
8
ADD_LINE
6
HIDDEN
62
  3
10
1306.892
20
445.946
30
0.0
40
3.000
0
CIRCLE
5
476
8
ADD_LINE
6
HIDDEN
62
  3
10
1571.892
20
445.946
30
0.0
40
3.000
0
ARC
5
477
8
0-0
6
CONTINUOUS
62
  7
10
720.188
20
679.826
30
0.0
40
243.505
50
239.682083
51
296.535065
0
ARC
5
478
8
0-0
6
CONTINUOUS
62
  7
10
691.028
20
618.523
30
0.0
40
239.210
50
236.364563
51
305.216553
0
ARC
5
479
8
0-0
6
CONTINUOUS
62
  7
10
1239.107
20
679.826
30
0.0
40
243.505
50
239.682083
51
295.111755
0
ARC
5
47a
8
0-0
6
CONTINUOUS
62
  7
10
1209.947
20
618.523
30
0.0
40
239.210
50
236.364563
51
303.635406
0
ARC
5
47b
8
0-0
6
CONTINUOUS
62
  7
10
1504.107
20
679.826
30
0.0
40
243.505
50
239.682083
51
295.111816
0
ARC
5
47c
8
0-0
6
CONTINUOUS
62
  7
10
1474.947
20
618.523
30
0.0
40
239.210
50
236.364563
51
303.635437
0
ARC
5
47d
8
0-0
6
CONTINUOUS
62
  7
10
1786.267
20
728.386
30
0.0
40
294.246
50
235.860168
51
241.571106
0
ARC
5
47e
8
0-0
6
CONTINUOUS
62
  7
10
1611.795
20
472.709
30
0.0
40
15.314
50
52.433243
51
126.920761
0
CIRCLE
5
47f
8
ADD_LINE
6
HIDDEN
62
  3
10
1571.892
20
445.946
30
0.0
40
3.000
0
CIRCLE
5
480
8
ADD_LINE
6
HIDDEN
62
  3
10
1836.892
20
445.946
30
0.0
40
3.000
0
ARC
5
481
8
0-0
6
CONTINUOUS
62
  7
10
1769.107
20
679.826
30
0.0
40
243.505
50
239.682083
51
295.111755
0
ARC
5
482
8
0-0
6
CONTINUOUS
62
  7
10
1739.947
20
618.523
30
0.0
40
239.210
50
236.364563
51
303.635437
0
TEXT
5
483
100
AcDbEntity
8
0-0
62
4
100
AcDbText
10
663.598
20
1299.797
30
0.0
40
9.750
41
0.800
50
0.000
1
300
100
AcDbText
0
TEXT
5
484
100
AcDbEntity
8
0-0
62
4
100
AcDbText
10
539.223
20
1243.041
30
0.0
40
9.750
41
0.800
50
0.000
1
45
100
AcDbText
0
TEXT
5
485
100
AcDbEntity
8
0-0
62
4
100
AcDbText
10
686.098
20
1243.041
30
0.0
40
9.750
41
0.800
50
0.000
1
255
100
AcDbText
0
TEXT
5
486
100
AcDbEntity
8
0-0
62
4
100
AcDbText
10
666.598
20
716.014
30
0.0
40
9.750
41
0.800
50
0.000
1
306
100
AcDbText
0
TEXT
5
487
100
AcDbEntity
8
0-0
62
4
100
AcDbText
10
271.067
20
949.882
30
0.0
40
9.750
41
0.800
50
90.000
1
295
100
AcDbText
0
TEXT
5
488
100
AcDbEntity
8
0-0
62
4
100
AcDbText
10
271.067
20
451.136
30
0.0
40
9.750
41
0.800
50
90.000
1
23
100
AcDbText
0
TEXT
5
489
100
AcDbEntity
8
0-0
62
4
100
AcDbText
10
335.932
20
1083.007
30
0.0
40
9.750
41
0.800
50
90.000
1
35
100
AcDbText
0
TEXT
5
48a
100
AcDbEntity
8
0-0
62
4
100
AcDbText
10
1127.669
20
1243.041
30
0.0
40
9.750
41
0.800
50
0.000
1
18
100
AcDbText
0
TEXT
5
48b
100
AcDbEntity
8
0-0
62
4
100
AcDbText
10
1148.669
20
716.014
30
0.0
40
9.750
41
0.800
50
0.000
1
60
100
AcDbText
0
TEXT
5
48c
100
AcDbEntity
8
0-0
62
4
100
AcDbText
10
666.598
20
626.824
30
0.0
40
9.750
41
0.800
50
0.000
1
306
100
AcDbText
0
TEXT
5
48d
100
AcDbEntity
8
0-0
62
4
100
AcDbText
10
646.098
20
586.284
30
0.0
40
9.750
41
0.800
50
0.000
1
265
100
AcDbText
0
TEXT
5
48e
100
AcDbEntity
8
0-0
62
4
100
AcDbText
10
802.223
20
586.284
30
0.0
40
9.750
41
0.800
50
0.000
1
41
100
AcDbText
0
TEXT
5
48f
100
AcDbEntity
8
0-0
62
4
100
AcDbText
10
1165.017
20
586.284
30
0.0
40
9.750
41
0.800
50
0.000
1
265
100
AcDbText
0
TEXT
5
490
100
AcDbEntity
8
0-0
62
4
100
AcDbText
10
1430.017
20
586.284
30
0.0
40
9.750
41
0.800
50
0.000
1
265
100
AcDbText
0
TEXT
5
491
100
AcDbEntity
8
0-0
62
4
100
AcDbText
10
871.911
20
510.556
30
0.0
40
9.750
41
1.000
50
0.000
1
すり合せ部分
100
AcDbText
0
TEXT
5
492
100
AcDbEntity
8
0-0
62
4
100
AcDbText
10
1653.478
20
510.556
30
0.0
40
9.750
41
1.000
50
0.000
1
すり合せ部分
100
AcDbText
0
POINT
5
493
8
0-0
62
  7
10
522.973
20
1297.297
30
0.0
0
POINT
5
494
8
0-0
62
  7
10
822.973
20
1297.297
30
0.0
0
POINT
5
495
8
0-0
62
  7
10
522.973
20
1240.541
30
0.0
0
POINT
5
496
8
0-0
62
  7
10
567.973
20
1240.541
30
0.0
0
POINT
5
497
8
0-0
62
  7
10
822.973
20
1240.541
30
0.0
0
POINT
5
498
8
0-0
62
  7
10
522.973
20
713.514
30
0.0
0
POINT
5
499
8
0-0
62
  7
10
828.973
20
713.514
30
0.0
0
POINT
5
49a
8
0-0
62
  7
10
273.567
20
1106.757
30
0.0
0
POINT
5
49b
8
0-0
62
  7
10
273.567
20
811.757
30
0.0
0
POINT
5
49c
8
0-0
62
  7
10
273.567
20
468.826
30
0.0
0
POINT
5
49d
8
0-0
62
  7
10
273.567
20
445.946
30
0.0
0
POINT
5
49e
8
0-0
62
  7
10
338.432
20
1106.757
30
0.0
0
POINT
5
49f
8
0-0
62
  7
10
338.432
20
1071.757
30
0.0
0
POINT
5
4a0
8
0-0
62
  7
10
1124.919
20
1240.541
30
0.0
0
POINT
5
4a1
8
0-0
62
  7
10
1142.919
20
1240.541
30
0.0
0
POINT
5
4a2
8
0-0
62
  7
10
1124.919
20
713.514
30
0.0
0
POINT
5
4a3
8
0-0
62
  7
10
1184.919
20
713.514
30
0.0
0
POINT
5
4a4
8
0-0
62
  7
10
522.973
20
624.324
30
0.0
0
POINT
5
4a5
8
0-0
62
  7
10
828.973
20
624.324
30
0.0
0
POINT
5
4a6
8
0-0
62
  7
10
522.973
20
583.784
30
0.0
0
POINT
5
4a7
8
0-0
62
  7
10
787.973
20
583.784
30
0.0
0
POINT
5
4a8
8
0-0
62
  7
10
828.973
20
583.784
30
0.0
0
POINT
5
4a9
8
0-0
62
  7
10
1041.892
20
583.784
30
0.0
0
POINT
5
4aa
8
0-0
62
  7
10
1306.892
20
583.784
30
0.0
0
POINT
5
4ab
8
0-0
62
  7
10
1571.892
20
583.784
30
0.0
0
ENDSEC
0
EOF
